  0
SECTION
  2
HEADER
  9
$ACADVER
  1
AC1009
  9
$INSBASE
 10
0.0
 20
0.0
 30
0.0
  9
$EXTMIN
 10
0.0
 20
0.0
 30
0.0
  9
$EXTMAX
 10
1354.5
 20
1939.0
 30
0.0
  9
$LIMMIN
 10
0.0
 20
0.0
  9
$LIMMAX
 10
12.0
 20
9.0
  9
$ORTHOMODE
 70
     1
  9
$REGENMODE
 70
     1
  9
$FILLMODE
 70
     1
  9
$QTEXTMODE
 70
     0
  9
$MIRRTEXT
 70
     1
  9
$DRAGMODE
 70
     2
  9
$LTSCALE
 40
1.0
  9
$OSMODE
 70
    47
  9
$ATTMODE
 70
     1
  9
$TEXTSIZE
 40
0.1
  9
$TRACEWID
 40
0.05
  9
$TEXTSTYLE
  7
STANDARD
  9
$CLAYER
  8
CRS
  9
$CELTYPE
  6
BYLAYER
  9
$CECOLOR
 62
   256
  9
$DIMSCALE
 40
1.0
  9
$DIMASZ
 40
0.18
  9
$DIMEXO
 40
0.12
  9
$DIMDLI
 40
0.38
  9
$DIMRND
 40
0.0
  9
$DIMDLE
 40
0.0
  9
$DIMEXE
 40
0.12
  9
$DIMTP
 40
0.0
  9
$DIMTM
 40
0.0
  9
$DIMTXT
 40
0.18
  9
$DIMCEN
 40
0.09
  9
$DIMTSZ
 40
0.0
  9
$DIMTOL
 70
     0
  9
$DIMLIM
 70
     0
  9
$DIMTIH
 70
     1
  9
$DIMTOH
 70
     1
  9
$DIMSE1
 70
     0
  9
$DIMSE2
 70
     0
  9
$DIMTAD
 70
     0
  9
$DIMZIN
 70
     0
  9
$DIMBLK
  1

  9
$DIMASO
 70
     1
  9
$DIMSHO
 70
     1
  9
$DIMPOST
  1

  9
$DIMAPOST
  1

  9
$DIMALT
 70
     0
  9
$DIMALTD
 70
     2
  9
$DIMALTF
 40
25.399999999999999
  9
$DIMLFAC
 40
1.0
  9
$DIMTOFL
 70
     0
  9
$DIMTVP
 40
0.0
  9
$DIMTIX
 70
     0
  9
$DIMSOXD
 70
     0
  9
$DIMSAH
 70
     0
  9
$DIMBLK1
  1

  9
$DIMBLK2
  1

  9
$DIMSTYLE
  2
STANDARD
  9
$DIMCLRD
 70
     0
  9
$DIMCLRE
 70
     0
  9
$DIMCLRT
 70
     0
  9
$DIMTFAC
 40
1.0
  9
$DIMGAP
 40
0.09
  9
$LUNITS
 70
     2
  9
$LUPREC
 70
     4
  9
$SKETCHINC
 40
0.1
  9
$FILLETRAD
 40
0.0
  9
$AUNITS
 70
     0
  9
$AUPREC
 70
     0
  9
$MENU
  1
.
  9
$ELEVATION
 40
0.0
  9
$PELEVATION
 40
0.0
  9
$THICKNESS
 40
0.0
  9
$LIMCHECK
 70
     0
  9
$BLIPMODE
 70
     0
  9
$CHAMFERA
 40
0.0
  9
$CHAMFERB
 40
0.0
  9
$SKPOLY
 70
     0
  9
$TDCREATE
 40
2450308.6284660869
  9
$TDUPDATE
 40
2452823.5620867591
  9
$TDINDWG
 40
0.3571966319
  9
$TDUSRTIMER
 40
0.3571966319
  9
$USRTIMER
 70
     1
  9
$ANGBASE
 50
0.0
  9
$ANGDIR
 70
     0
  9
$PDMODE
 70
     0
  9
$PDSIZE
 40
0.0
  9
$PLINEWID
 40
0.0
  9
$COORDS
 70
     1
  9
$SPLFRAME
 70
     0
  9
$SPLINETYPE
 70
     6
  9
$SPLINESEGS
 70
     8
  9
$ATTDIA
 70
     0
  9
$ATTREQ
 70
     1
  9
$HANDLING
 70
  4097
  9
$HANDSEED
  5
695B
  9
$SURFTAB1
 70
     6
  9
$SURFTAB2
 70
     6
  9
$SURFTYPE
 70
     6
  9
$SURFU
 70
     6
  9
$SURFV
 70
     6
  9
$UCSNAME
  2

  9
$UCSORG
 10
0.0
 20
0.0
 30
0.0
  9
$UCSXDIR
 10
1.0
 20
0.0
 30
0.0
  9
$UCSYDIR
 10
0.0
 20
1.0
 30
0.0
  9
$PUCSNAME
  2

  9
$PUCSORG
 10
0.0
 20
0.0
 30
0.0
  9
$PUCSXDIR
 10
1.0
 20
0.0
 30
0.0
  9
$PUCSYDIR
 10
0.0
 20
1.0
 30
0.0
  9
$USERI1
 70
     0
  9
$USERI2
 70
     0
  9
$USERI3
 70
     0
  9
$USERI4
 70
     0
  9
$USERI5
 70
     0
  9
$USERR1
 40
0.0
  9
$USERR2
 40
0.0
  9
$USERR3
 40
0.0
  9
$USERR4
 40
0.0
  9
$USERR5
 40
0.0
  9
$WORLDVIEW
 70
     1
  9
$SHADEDGE
 70
     3
  9
$SHADEDIF
 70
    70
  9
$TILEMODE
 70
     1
  9
$MAXACTVP
 70
    16
  9
$PLIMCHECK
 70
     0
  9
$PEXTMIN
 10
1.0000000000000000E+020
 20
1.0000000000000000E+020
 30
1.0000000000000000E+020
  9
$PEXTMAX
 10
-1.0000000000000000E+020
 20
-1.0000000000000000E+020
 30
-1.0000000000000000E+020
  9
$PLIMMIN
 10
0.0
 20
0.0
  9
$PLIMMAX
 10
12.0
 20
9.0
  9
$UNITMODE
 70
     0
  9
$VISRETAIN
 70
     0
  9
$PLINEGEN
 70
     0
  9
$PSLTSCALE
 70
     1
  0
ENDSEC
  0
SECTION
  2
TABLES
  0
TABLE
  2
VPORT
 70
     2
  0
VPORT
  2
*ACTIVE
 70
     0
 10
0.0
 20
0.0
 11
1.0
 21
1.0
 12
793.93491499788945
 22
969.50000902944851
 13
0.0
 23
0.0
 14
1.0
 24
1.0
 15
0.0
 25
0.0
 16
0.0
 26
0.0
 36
1.0
 17
0.0
 27
0.0
 37
0.0
 40
1958.15629784675
 41
1.7512195121951211
 42
50.0
 43
0.0
 44
0.0
 50
0.0
 51
0.0
 71
     0
 72
   100
 73
     1
 74
     0
 75
     0
 76
     0
 77
     0
 78
     0
  0
ENDTAB
  0
TABLE
  2
LTYPE
 70
     3
  0
LTYPE
  2
CONTINUOUS
 70
     0
  3
Solid line
 72
    65
 73
     0
 40
0.0
  0
LTYPE
  2
CENTER
 70
     0
  3
____ _ ____ _ ____ _ ____ _ ____ _ ____ _ ____ 
 72
    65
 73
     4
 40
2.0
 49
1.25
 49
-0.25
 49
0.25
 49
-0.25
  0
LTYPE
  2
HIDDEN
 70
     0
  3
_ _ _ _ _ _ _ _ _ _ _ _ _ _ _ _ _ _ _ _ _ _ _ _
 72
    65
 73
     2
 40
9.375
 49
6.25
 49
-3.125
  0
ENDTAB
  0
TABLE
  2
LAYER
 70
    16
  0
LAYER
  2
0
 70
     0
 62
     7
  6
CONTINUOUS
  0
LAYER
  2
BORDER
 70
     0
 62
     7
  6
CONTINUOUS
  0
LAYER
  2
TEXT
 70
     0
 62
     7
  6
CONTINUOUS
  0
LAYER
  2
6
 70
     0
 62
     7
  6
CONTINUOUS
  0
LAYER
  2
DRG
 70
     0
 62
     1
  6
CONTINUOUS
  0
LAYER
  2
CRS
 70
     0
 62
     3
  6
CENTER
  0
LAYER
  2
HID
 70
     0
 62
     6
  6
HIDDEN
  0
LAYER
  2
BORT
 70
     0
 62
     7
  6
CONTINUOUS
  0
LAYER
  2
TXT
 70
     0
 62
     4
  6
CONTINUOUS
  0
LAYER
  2
DIM
 70
     0
 62
     2
  6
CONTINUOUS
  0
LAYER
  2
DRG2
 70
     0
 62
     8
  6
CONTINUOUS
  0
LAYER
  2
DEFPOINTS
 70
     0
 62
     7
  6
CONTINUOUS
  0
LAYER
  2
LOGO
 70
     0
 62
     7
  6
CONTINUOUS
  0
LAYER
  2
BORDER_TEXT
 70
     0
 62
     7
  6
CONTINUOUS
  0
LAYER
  2
BOR
 70
     0
 62
     1
  6
CONTINUOUS
  0
LAYER
  2
HATCH
 70
     0
 62
     7
  6
CONTINUOUS
  0
ENDTAB
  0
TABLE
  2
STYLE
 70
     3
  0
STYLE
  2
STANDARD
 70
     0
 40
0.0
 41
1.0
 50
0.0
 71
     0
 42
0.1
  3
simplex.shx
  4

  0
STYLE
  2

 70
     1
 40
0.0
 41
1.0
 50
0.0
 71
     0
 42
2.5
  3
ltypeshp.shx
  4

  0
STYLE
  2
ROMAND
 70
     0
 40
7.0
 41
1.0
 50
0.0
 71
     0
 42
7.0
  3
romand
  4

  0
ENDTAB
  0
TABLE
  2
VIEW
 70
     0
  0
ENDTAB
  0
TABLE
  2
UCS
 70
     0
  0
ENDTAB
  0
TABLE
  2
APPID
 70
     3
  0
APPID
  2
ACAD
 70
     0
  0
APPID
  2
MCAD_NO_VIS
 70
     0
  0
APPID
  2
CONTENTBLOCKICON
 70
     0
  0
ENDTAB
  0
TABLE
  2
DIMSTYLE
 70
     5
  0
DIMSTYLE
  2
STANDARD
 70
     0
  3

  4

  5

  6

  7

 40
1.0
 41
0.18
 42
0.0625
 43
0.38
 44
0.18
 45
0.0
 46
0.0
 47
0.0
 48
0.0
140
0.18
141
0.09
142
0.0
143
25.399999999999999
144
1.0
145
0.0
146
1.0
147
0.09
 71
     0
 72
     0
 73
     1
 74
     1
 75
     0
 76
     0
 77
     0
 78
     0
170
     0
171
     2
172
     0
173
     0
174
     0
175
     0
176
     0
177
     0
178
     0
  0
DIMSTYLE
  2
ISO-25
 70
     0
  3

  4

  5

  6

  7

 40
1.0
 41
2.5
 42
0.625
 43
3.75
 44
1.25
 45
0.0
 46
0.0
 47
0.0
 48
0.0
140
2.5
141
2.5
142
0.0
143
0.03937007874016
144
1.0
145
0.0
146
1.0
147
0.625
 71
     0
 72
     0
 73
     0
 74
     0
 75
     0
 76
     0
 77
     1
 78
     8
170
     0
171
     3
172
     1
173
     0
174
     0
175
     0
176
     0
177
     0
178
     0
  0
DIMSTYLE
  2
STD
 70
     0
  3

  4

  5

  6

  7

 40
2.0
 41
6.0
 42
2.0
 43
10.0
 44
2.0
 45
0.0
 46
1.25
 47
0.0
 48
0.0
140
5.0
141
-3.0
142
0.0
143
0.039
144
1.0
145
1.5
146
1.0
147
1.5
 71
     0
 72
     0
 73
     0
 74
     0
 75
     0
 76
     0
 77
     0
 78
     0
170
     0
171
     2
172
     0
173
     0
174
     0
175
     0
176
   256
177
   256
178
   256
  0
DIMSTYLE
  2
DIA
 70
     0
  3

  4

  5

  6

  7

 40
1.0
 41
6.0
 42
2.0
 43
10.0
 44
2.0
 45
0.0
 46
1.25
 47
0.0
 48
0.0
140
5.0
141
-3.0
142
0.0
143
0.039
144
1.0
145
1.0
146
1.0
147
1.5
 71
     0
 72
     0
 73
     1
 74
     1
 75
     0
 76
     0
 77
     0
 78
     0
170
     0
171
     2
172
     1
173
     0
174
     0
175
     0
176
   256
177
   256
178
   256
  0
DIMSTYLE
  2
LIMITS
 70
     0
  3

  4

  5

  6

  7

 40
1.0
 41
6.0
 42
2.0
 43
10.0
 44
2.0
 45
0.0
 46
1.25
 47
0.0
 48
0.0
140
5.0
141
-3.0
142
0.0
143
0.04
144
1.0
145
0.8
146
1.0
147
1.5
 71
     0
 72
     1
 73
     0
 74
     0
 75
     0
 76
     0
 77
     0
 78
     0
170
     0
171
     2
172
     0
173
     0
174
     0
175
     0
176
   256
177
   256
178
   256
  0
ENDTAB
  0
ENDSEC
  0
SECTION
  2
BLOCKS
  0
BLOCK
  8
0
  2
$MODEL_SPACE
 70
     0
 10
0.0
 20
0.0
 30
0.0
  3
$MODEL_SPACE
  1

  0
ENDBLK
  5
1B
  8
0
  0
BLOCK
 67
     1
  8
0
  2
$PAPER_SPACE
 70
     0
 10
0.0
 20
0.0
 30
0.0
  3
$PAPER_SPACE
  1

  0
ENDBLK
  5
18
 67
     1
  8
0
  0
BLOCK
  8
0
  2
LOGO
 70
     0
 10
0.0
 20
0.0
 30
0.0
  3
LOGO
  1

  0
INSERT
  5
65A2
  8
DRG
  6
CONTINUOUS
 62
     7
  2
*U6
 10
0.0
 20
0.0
 30
0.0
1001
ACAD
1002
{
1000
R14_HATCH_DATA
1000
65A2
1011
1.0
1021
0.0
1031
1.1214373001895249E+093
1021
0.0
1031
0.0
1011
0.0
1021
0.0
1031
1.1214373001895249E+093
1021
1.0
1031
0.0
1011
0.0
1021
0.0
1031
1.1214373001895249E+093
1021
0.0
1031
1.0
1040
0.0
1010
0.0
1020
0.0
1030
1.0
1000
SOLID
1070
     1
1070
     1
1071
       17
1071
        7
1070
     1
1070
     1
1071
        9
1040
18.821661727211438
1040
85.569427875032716
1040
-0.4142135623730951
1040
26.821661727211438
1040
93.569427875032716
1040
0.0
1040
28.191279411133561
1040
93.56942787503273
1040
0.0
1040
28.191279411133561
1040
102.0369718403326
1040
0.2674368359602434
1040
18.821661727211438
1040
97.915857504065912
1040
0.0
1040
18.821661727211438
1040
102.0369718403326
1040
0.0
1040
7.7802673214059723
1040
102.0369718403326
1040
0.0
1040
7.7802673214059723
1040
62.115696081838671
1040
0.0
1040
18.821661727211438
1040
62.115696081838678
1040
0.0
1071
        9
1005
65C5
1005
65CC
1005
65CB
1005
65CA
1005
65C9
1005
65C4
1005
65B4
1005
65B6
1005
65B2
1071
        7
1070
     1
1070
     1
1071
        8
1040
29.838142899665851
1040
72.897331735467191
1040
0.4142135623730863
1040
41.838142899665847
1040
60.89733173546756
1040
0.0
1040
47.650196927116667
1040
60.89733173546756
1040
0.4142126981028046
1040
59.650196927064421
1040
72.897296325816569
1040
0.0348233422700972
1040
59.650196927064421
1040
90.096337111694368
1040
0.4142126981028142
1040
47.650196927116667
1040
102.0963017020437
1040
0.0
1040
41.838142899665847
1040
102.0963017020437
1040
0.4142135623730893
1040
29.838142899665851
1040
90.096301702044016
1040
0.0348231985322414
1071
        8
1005
65A6
1005
65CD
1005
65C8
1005
65C7
1005
65B3
1005
65C3
1005
65A5
1005
6604
1071
       22
1070
     1
1070
     1
1071
        4
1040
40.882971825549703
1040
90.337990088334166
1040
-1.0
1040
48.605370470334492
1040
90.337990088334735
1040
-0.0248818291691539
1040
48.605370470334492
1040
72.655643349175492
1040
-1.0
1040
40.882971825549703
1040
72.655643349177595
1040
-0.0248818291691501
1071
        4
1005
65A8
1005
6603
1005
65A7
1005
65C6
1071
        7
1070
     1
1070
     1
1071
       18
1040
67.331191210151701
1040
68.89733173546756
1040
0.4142135623730951
1040
75.331191210151701
1040
60.89733173546756
1040
0.0
1040
80.675802928262684
1040
60.89733173546756
1040
0.1450058980834471
1040
84.501142256151084
1040
62.072518178885289
1040
0.0
1040
84.501142256151084
1040
70.214764581409185
1040
-0.0833071563303517
1040
83.501142256151255
1040
69.876055965300111
1040
0.0
1040
80.482556033578916
1040
69.876055965300111
1040
-0.4142135623730951
1040
77.482556033578931
1040
72.876055965300111
1040
0.0
1040
77.482556033578931
1040
94.593352860836134
1040
0.0
1040
84.553623006881026
1040
94.593352860836134
1040
0.0
1040
84.553623006881026
1040
101.9948050433795
1040
0.0
1040
77.482556033578931
1040
101.9948050433795
1040
0.0
1040
77.482556033578931
1040
107.1280725498991
1040
0.0
1040
67.331191210151701
1040
107.1280725498991
1040
0.0
1040
67.331191210151701
1040
101.9948050433795
1040
0.0
1040
62.478989637268562
1040
101.9948050433795
1040
0.0
1040
62.478989637268569
1040
94.593352860836134
1040
0.0
1040
67.331191210151687
1040
94.593352860836134
1040
0.0
1071
       18
1005
6601
1005
6615
1005
6602
1005
660D
1005
660B
1005
660C
1005
6608
1005
660A
1005
6609
1005
6605
1005
65D7
1005
65EB
1005
65DA
1005
65D8
1005
6612
1005
6600
1005
6607
1005
6606
1071
        7
1070
     1
1070
     1
1071
        8
1040
85.849782736700035
1040
72.897331735467475
1040
0.4142135623730931
1040
97.849782736700035
1040
60.89733173546756
1040
0.0
1040
103.66183676415081
1040
60.89733173546756
1040
0.4142126981028048
1040
115.6618367640986
1040
72.897296325816569
1040
0.0348233422700971
1040
115.6618367640986
1040
90.096337111694325
1040
0.4142126981028151
1040
103.66183676415081
1040
102.0963017020437
1040
0.0
1040
97.849782736700035
1040
102.0963017020437
1040
0.4142135623730893
1040
85.849782736700035
1040
90.096301702044016
1040
0.0348231985322409
1071
        8
1005
65D6
1005
6616
1005
6614
1005
6610
1005
65D9
1005
65FF
1005
65D5
1005
663D
1071
       22
1070
     1
1070
     1
1071
        4
1040
96.894611662583884
1040
90.337990088335033
1040
-1.0
1040
104.6170103073686
1040
90.337990088334763
1040
-0.0248818291691539
1040
104.6170103073686
1040
72.655643349175506
1040
-1.0
1040
96.894611662583884
1040
72.655643349177595
1040
-0.0248818291691514
1071
        4
1005
6613
1005
660E
1005
6611
1005
660F
1071
        7
1070
     1
1070
     1
1071
        9
1040
119.0096173095521
1040
62.115696081838678
1040
0.0
1040
130.05101171535759
1040
62.115696081838671
1040
0.0
1040
130.05101171535759
1040
85.569427875032716
1040
-0.4142135623730946
1040
138.05101171535759
1040
93.569427875032716
1040
0.0
1040
139.4206293992797
1040
93.56942787503273
1040
0.0
1040
139.4206293992797
1040
102.0369718403325
1040
0.2674368359602435
1040
130.05101171535759
1040
97.915857504065855
1040
0.0
1040
130.05101171535759
1040
102.0369718403326
1040
0.0
1040
119.0096173095521
1040
102.0369718403326
1040
0.0
1071
        9
1005
663C
1005
6642
1005
6641
1005
663E
1005
6640
1005
663F
1005
6618
1005
6627
1005
6617
1071
        7
1070
     0
1070
     1
1071
        4
1040
153.2899770207527
1040
102.0369718403326
1040
142.11987082690661
1040
102.0369718403326
1040
142.11987082690661
1040
62.115696081838678
1040
153.2899770207527
1040
62.115696081838678
1071
        4
1005
663B
1005
661C
1005
6620
1005
661B
1071
        7
1070
     0
1070
     1
1071
        9
1040
161.3332883364622
1040
62.115696081838678
1040
171.78072804963571
1040
62.115696081838678
1040
165.4162645291251
1040
78.311404477182364
1040
176.9709164189357
1040
78.31140447718235
1040
176.9709164189357
1040
86.855763084496857
1040
165.4162645291251
1040
86.855763084496886
1040
171.38205787173379
1040
102.0369718403326
1040
160.9346181585602
1040
102.0369718403326
1040
153.2899770207527
1040
82.583583780839575
1071
        9
1005
6648
1005
6647
1005
6646
1005
6643
1005
661A
1005
6636
1005
6619
1005
6645
1005
6644
1071
        7
1070
     1
1070
     1
1071
       21
1040
152.52515784094209
1040
47.648154099737518
1040
-0.8501159182110916
1040
160.04745823702251
1040
46.421288526219293
1040
0.0
1040
160.04745823702251
1040
45.21828747592599
1040
0.0
1040
171.0912486890569
1040
45.21828747592599
1040
0.4103700463812956
1040
159.0922846938046
1040
57.06060729124669
1040
0.0
1040
153.28023066635379
1040
57.06060729124669
1040
0.3231315706904765
1040
141.8917942032017
1040
48.84260609145101
1040
0.1954153765693974
1040
142.3184035466634
1040
43.115005509834923
1040
0.2113556324406552
1040
155.72873071743231
1040
33.145354604103439
1040
-0.2264685134690167
1040
160.04745823702251
1040
29.300230626583549
1040
0.0
1040
160.04745823702251
1040
27.619948938379359
1040
-1.0
1040
152.32505959223769
1040
27.619948938379359
1040
0.0
1040
152.32505959223769
1040
29.959298931438969
1040
0.0
1040
141.28023066635379
1040
29.95929893143898
1040
0.0
1040
141.28023066635379
1040
27.861637324670479
1040
0.4142135623730951
1040
153.28023066635379
1040
15.861637324670481
1040
0.0
1040
159.0922846938046
1040
15.861637324670481
1040
0.4142135623730951
1040
171.0922846938046
1040
27.861637324670479
1040
0.0
1040
171.0922846938046
1040
29.95929893143904
1040
0.3201720163042325
1040
161.4128172083947
1040
39.98989916707626
1040
-0.1549843570040388
1040
153.4809683549079
1040
44.585756161105429
1040
-0.2969707756967668
1071
       21
1005
6637
1005
6639
1005
6634
1005
6635
1005
663A
1005
661F
1005
662C
1005
661D
1005
6632
1005
662F
1005
6631
1005
6630
1005
661E
1005
6624
1005
65CF
1005
65D3
1005
65D0
1005
6633
1005
662E
1005
662D
1005
6638
1071
        7
1070
     1
1070
     1
1071
        9
1040
116.19314081319391
1040
17.28637227261407
1040
0.0
1040
127.2345352189994
1040
17.28637227261407
1040
0.0
1040
127.2345352189994
1040
40.740104065808097
1040
-0.4142135623730953
1040
135.23453521899941
1040
48.740104065808111
1040
0.0
1040
136.6041529029215
1040
48.740104065808111
1040
0.0
1040
136.6041529029215
1040
57.207648031108022
1040
0.2674368359602446
1040
127.2345352189994
1040
53.086533694841222
1040
0.0
1040
127.2345352189994
1040
57.207648031108022
1040
0.0
1040
116.19314081319391
1040
57.207648031108022
1040
0.0
1071
        9
1005
6625
1005
6629
1005
6628
1005
6622
1005
6623
1005
6621
1005
6626
1005
662B
1005
662A
1071
        7
1070
     1
1070
     1
1071
       18
1040
111.2523129779601
1040
45.06060729124669
1040
0.4142135623730951
1040
99.252312977960173
1040
57.06060729124669
1040
0.0
1040
93.440258950509346
1040
57.06060729124669
1040
0.3935971290544443
1040
81.470405744524527
1040
45.910674481046733
1040
0.0
1040
92.485087876393209
1040
45.910674481046733
1040
0.0
1040
92.485087876393209
1040
47.313129977668268
1040
-1.0
1040
100.2074865211779
1040
47.313129977668268
1040
0.0
1040
100.207486521178
1040
42.948196427274922
1040
0.0
1040
93.358174068518778
1040
42.948196427274922
1040
0.3803366342075343
1040
81.440258950509346
1040
32.349374231810209
1040
0.0
1040
81.440258950509346
1040
27.861637324670479
1040
0.212203934851876
1040
85.398663329684837
1040
18.95474449545469
1040
0.2715779457989354
1040
94.991749269489972
1040
17.839408458597308
1040
0.2212147422997974
1040
102.1211660476033
1040
23.542010892025001
1040
0.0
1040
102.1211660476033
1040
21.102600968374279
1040
0.048558820350044
1040
102.6710305977499
1040
17.89352120355198
1040
0.0
1040
111.8021775281067
1040
17.893521203552009
1040
-0.0850534761391249
1040
111.2523129779601
1040
23.54201089202471
1040
0.0
1071
       18
1005
65D4
1005
65FB
1005
65DD
1005
65FC
1005
65FD
1005
65FA
1005
65FE
1005
65F9
1005
65DB
1005
65F1
1005
65DC
1005
65CE
1005
65ED
1005
65F5
1005
65F4
1005
65F3
1005
65F6
1005
65EC
1071
       22
1070
     1
1070
     1
1071
        6
1040
101.5095597489034
1040
37.384730871555568
1040
0.0
1040
101.5095597489034
1040
29.984856014372749
1040
-0.4101584254678068
1040
95.863486513980718
1040
23.758749615986972
1040
-0.4142135623730822
1040
92.002287191588479
1040
27.619948938379359
1040
0.0
1040
92.002287191588479
1040
33.041326503689838
1040
-0.3592987923427892
1040
97.969021393668683
1040
37.384730871555568
1040
0.0
1071
        6
1005
65F7
1005
65EF
1005
65F2
1005
65F0
1005
65EE
1005
65F8
1071
        7
1070
     1
1070
     1
1071
       14
1040
74.280536421539182
1040
35.629722934820848
1040
0.0
1040
74.280536421539182
1040
45.06060729124669
1040
0.4142135623730951
1040
62.280536421539182
1040
57.06060729124669
1040
0.0
1040
56.468482394088369
1040
57.06060729124669
1040
0.4142135623730892
1040
44.468482394088362
1040
45.060607291246939
1040
0.0348231985322411
1040
44.468482394088362
1040
27.861637324670291
1040
0.4142135623730907
1040
56.468482394088369
1040
15.861637324670481
1040
0.0
1040
62.280536421539182
1040
15.861637324670481
1040
0.4142135623730951
1040
74.280536421539182
1040
27.861637324670479
1040
0.0
1040
74.280536421539196
1040
30.816887788353831
1040
0.0
1040
63.235709964757
1040
30.81688778835381
1040
0.0
1040
63.235709964757007
1040
27.61994893837937
1040
-1.0
1040
55.513311319972217
1040
27.61994893837937
1040
0.0
1040
55.513311319972232
1040
35.629722934820848
1040
0.0
1071
       14
1005
65E5
1005
65EA
1005
65A4
1005
65B8
1005
65A3
1005
65D2
1005
65D1
1005
65E4
1005
65DF
1005
65E1
1005
65E3
1005
65E2
1005
65E0
1005
65DE
1071
       22
1070
     1
1070
     1
1071
        4
1040
63.235709964756971
1040
41.923431282527652
1040
0.0
1040
55.51331131997221
1040
41.923431282527638
1040
0.0
1040
55.513311319972217
1040
46.690614073903141
1040
-1.0
1040
63.235709964757007
1040
46.690614073903127
1040
0.0
1071
        4
1005
65E6
1005
65E8
1005
65E7
1005
65E9
1071
        7
1070
     1
1070
     1
1071
       15
1040
37.639779947293832
1040
57.06060729124669
1040
0.0
1040
27.267121908897028
1040
57.06060729124669
1040
0.0
1040
27.267121908897021
1040
51.255838552818979
1040
0.3392741364964821
1040
18.58303542025671
1040
58.127888502333931
1040
0.3975671648689696
1040
7.030577403887583
1040
46.170226698962978
1040
0.0322586733839356
1040
7.0565934473582743
1040
30.23514359210488
1040
0.381674351628262
1040
18.58303542025671
1040
18.945146626805109
1040
0.3392741364964824
1040
27.267121908897021
1040
25.817196576320061
1040
0.0
1040
27.267121908897021
1040
13.51984597021351
1040
-1.0
1040
19.544723264112228
1040
13.51984597021351
1040
0.0
1040
19.544723264112239
1040
14.846027306936771
1040
0.0
1040
7.7279273094568479
1040
14.846027306936771
1040
0.435111756420548
1040
18.100585347853119
1040
3.392610111620797
1040
0.0
1040
25.69916102541525
1040
3.392610111620797
1040
0.3589835117613411
1040
37.639779947293839
1040
13.760967175618781
1040
0.0
1071
       15
1005
65BE
1005
65C2
1005
65C1
1005
65B5
1005
65B7
1005
65A9
1005
65BD
1005
65AA
1005
65B0
1005
65B1
1005
65AC
1005
65AD
1005
65AF
1005
65AE
1005
65AB
1071
       22
1070
     1
1070
     1
1071
        6
1040
27.387732575171409
1040
32.086434320449378
1040
-0.3635850888704513
1040
22.683854862926161
1040
25.455509253088579
1040
-0.4081657147783189
1040
17.256300807526252
1040
30.5191262631974
1040
0.0
1040
17.256300807526252
1040
46.312783983787632
1040
-0.4081657147783226
1040
22.683854862926282
1040
51.376400993896397
1040
-0.3635850888704468
1040
27.387732575171409
1040
44.745475926535612
1040
0.0
1071
        6
1005
65BC
1005
65BB
1005
65BA
1005
65BF
1005
65C0
1005
65B9
1070
     0
1070
     1
1040
0.2228598800114194
1071
       17
1040
17.63743802729277
1040
76.626905651017751
1040
0.0
1040
33.91754890401171
1040
77.741205688022092
1040
0.0
1040
33.91754890401171
1040
77.741205688022092
1040
0.0
1040
69.153945982282949
1040
79.301225382558854
1040
0.0
1040
91.455465417142008
1040
80.861243290751887
1040
0.0
1040
91.455465417142008
1040
80.861243290751887
1040
0.0
1040
120.67045393727309
1040
80.861243290751887
1040
0.0
1040
151.44655150816561
1040
79.746945040091759
1040
0.0
1040
157.69097519808881
1040
82.198402263350317
1040
0.0
1040
149.43941532211869
1040
47.209401108474808
1040
0.0
1040
122.2315629880345
1040
49.21514046054449
1040
0.0
1040
107.73557316557979
1040
43.19792419067948
1040
0.0
1040
107.73557316557979
1040
43.19792419067948
1040
0.0
1040
69.376961114066034
1040
40.30074552354403
1040
0.0
1040
69.376961114066034
1040
40.30074552354403
1040
0.0
1040
30.572318798986078
1040
42.306483089269697
1040
0.0
1040
30.572318798986078
1040
42.306483089269697
1040
0.0
1002
}
  0
ARC
  5
65A3
  8
DRG
 62
     7
 10
56.468482394088369
 20
27.861637324670479
 30
0.0
 40
12.0
 50
180.0
 51
270.0
  0
ARC
  5
65A4
  8
DRG
 62
     7
 10
56.468482394088369
 20
45.06060729124669
 30
0.0
 40
12.0
 50
90.0
 51
180.0
  0
ARC
  5
65A5
  8
DRG
 62
     7
 10
47.650196927116667
 20
72.89733173546756
 30
0.0
 40
12.0
 50
270.0
 51
0.0
  0
ARC
  5
65A6
  8
DRG
 62
     7
 10
47.650196927116667
 20
90.096301702043775
 30
0.0
 40
12.0
 50
0.0
 51
90.0
  0
ARC
  5
65A7
  8
DRG
 62
     7
 10
44.74417114794209
 20
72.655643349176444
 30
0.0
 40
3.8611993223923942
 50
180.0
 51
0.0
  0
ARC
  5
65A8
  8
DRG
 62
     7
 10
44.74417114794209
 20
90.337990088334877
 30
0.0
 40
3.8611993223923942
 50
0.0
 51
180.0
  0
ARC
  5
65A9
  8
DRG
 62
     7
 10
19.137584483414571
 20
31.0402274344309
 30
0.0
 40
12.107786932649869
 50
183.81258486583951
 51
267.37487616930952
  0
LINE
  5
65AA
  8
DRG
 62
     7
 10
27.267121908897021
 20
13.51984597021351
 30
0.0
 11
27.267121908897021
 21
25.817196576319979
 31
0.0
  0
LINE
  5
65AB
  8
DRG
 62
     7
 10
37.639779947293839
 20
13.760967175618591
 30
0.0
 11
37.639779947293839
 21
57.06060729124669
 31
0.0
  0
LINE
  5
65AC
  8
DRG
 62
     7
 10
7.7279273094568453
 20
14.846027306936771
 30
0.0
 11
19.544723264112228
 21
14.846027306936771
 31
0.0
  0
ARC
  5
65AD
  8
DRG
 62
     7
 10
18.249110221157022
 20
13.95076893658401
 30
0.0
 40
10.559203445863639
 50
175.13635846835899
 51
269.19405577571678
  0
ARC
  5
65AE
  8
DRG
 62
     7
 10
25.379351800633462
 20
15.82074347040526
 30
0.0
 40
12.432247452652581
 50
271.47404887186468
 51
350.4632534986161
  0
LINE
  5
65AF
  8
DRG
 62
     7
 10
18.100585347854121
 20
3.392610111620797
 30
0.0
 11
25.699161025414639
 21
3.392610111620797
 31
0.0
  0
ARC
  5
65B0
  8
DRG
 62
     7
 10
23.40592258650463
 20
13.51984597021351
 30
0.0
 40
3.8611993223923942
 50
180.0
 51
0.0
  0
LINE
  5
65B1
  8
DRG
 62
     7
 10
19.544723264112228
 20
13.51984597021351
 30
0.0
 11
19.544723264112228
 21
14.846027306936771
 31
0.0
  0
LINE
  5
65B2
  8
DRG
 62
     7
 10
18.821661727211438
 20
62.115696081838678
 30
0.0
 11
18.821661727211438
 21
85.569427875032716
 31
0.0
  0
ARC
  5
65B3
  8
DRG
 62
     7
 10
41.838142899665847
 20
72.89733173546756
 30
0.0
 40
12.0
 50
180.0
 51
270.0
  0
LINE
  5
65B4
  8
DRG
 62
     7
 10
7.7802673214059723
 20
102.0369718403326
 30
0.0
 11
7.7802673214059723
 21
62.115696081838678
 31
0.0
  0
ARC
  5
65B5
  8
DRG
 62
     7
 10
19.137584483414571
 20
46.032807694708133
 30
0.0
 40
12.107786932649869
 50
92.625123830690427
 51
179.34969965531249
  0
LINE
  5
65B6
  8
DRG
 62
     7
 10
7.7802673214059723
 20
62.115696081838678
 30
0.0
 11
18.821661727211438
 21
62.115696081838678
 31
0.0
  0
ARC
  5
65B7
  8
DRG
 62
     7
 10
130.4096373956734
 20
38.404095866101891
 30
0.0
 40
123.62323904739679
 50
176.39825231050591
 51
183.7888327716102
  0
ARC
  5
65B8
  8
DRG
 62
     7
 10
167.7922598686371
 20
36.46112230795859
 30
0.0
 40
123.62323904739679
 50
176.01116722839041
 51
183.98883277160959
  0
LINE
  5
65B9
  8
DRG
 62
     7
 10
27.387732575171409
 20
32.086434320449371
 30
0.0
 11
27.387732575171409
 21
44.745475926535619
 31
0.0
  0
LINE
  5
65BA
  8
DRG
 62
     7
 10
17.256300807526252
 20
30.519126263197901
 30
0.0
 11
17.256300807526252
 21
46.312783983787199
 31
0.0
  0
ARC
  5
65BB
  8
DRG
 62
     7
 10
22.554825927420261
 20
30.757839296791811
 30
0.0
 40
5.3038997311936118
 50
182.57958705316651
 51
271.39398239048438
  0
ARC
  5
65BC
  8
DRG
 62
     7
 10
21.079116203706629
 20
31.577778829510549
 30
0.0
 40
6.3290892655085571
 50
284.68766481341447
 51
4.6097118352224014
  0
ARC
  5
65BD
  8
DRG
 62
     7
 10
18.444167318675341
 20
28.04361904615444
 30
0.0
 40
9.0995321151857773
 50
270.87442572940842
 51
345.83740798549388
  0
LINE
  5
65BE
  8
DRG
 62
     7
 10
37.639779947293839
 20
57.06060729124669
 30
0.0
 11
27.267121908897021
 21
57.06060729124669
 31
0.0
  0
ARC
  5
65BF
  8
DRG
 62
     7
 10
22.554825927420261
 20
46.074070950193168
 30
0.0
 40
5.3038997311936118
 50
88.606017609515575
 51
177.42041294683341
  0
ARC
  5
65C0
  8
DRG
 62
     7
 10
21.079116203706629
 20
45.254131417474468
 30
0.0
 40
6.3290892655085571
 50
355.39028816477759
 51
75.312335186585557
  0
ARC
  5
65C1
  8
DRG
 62
     7
 10
18.444167318675341
 20
49.029416082984589
 30
0.0
 40
9.0995321151857773
 50
14.16259201450603
 51
89.125574270591571
  0
LINE
  5
65C2
  8
DRG
 62
     7
 10
27.267121908897021
 20
51.255838552819107
 30
0.0
 11
27.267121908897021
 21
57.06060729124669
 31
0.0
  0
LINE
  5
65C3
  8
DRG
 62
     7
 10
41.838142899665847
 20
60.89733173546756
 30
0.0
 11
47.650196927116667
 21
60.89733173546756
 31
0.0
  0
LINE
  5
65C4
  8
DRG
 62
     7
 10
7.7802673214059723
 20
102.0369718403326
 30
0.0
 11
18.821661727211438
 21
102.0369718403326
 31
0.0
  0
ARC
  5
65C5
  8
DRG
 62
     7
 10
26.821661727211438
 20
85.569427875032716
 30
0.0
 40
8.0
 50
90.0
 51
180.0
  0
ARC
  5
65C6
  8
DRG
 62
     7
 10
218.4362314981995
 20
81.496816718755667
 30
0.0
 40
177.77324423808651
 50
177.14934059322539
 51
182.85065940677461
  0
ARC
  5
65C7
  8
DRG
 62
     7
 10
153.16192037421459
 20
81.496816718755667
 30
0.0
 40
123.62323904739679
 50
176.01116722839041
 51
183.98883277160959
  0
ARC
  5
65C8
  8
DRG
 62
     7
 10
41.838142899665847
 20
90.096301702043775
 30
0.0
 40
12.0
 50
90.0
 51
180.0
  0
LINE
  5
65C9
  8
DRG
 62
     7
 10
18.821661727211438
 20
97.915857504065912
 30
0.0
 11
18.821661727211438
 21
102.0369718403326
 31
0.0
  0
ARC
  5
65CA
  8
DRG
 62
     7
 10
27.083354510939952
 20
91.844139685506846
 30
0.0
 40
10.2528691067876
 50
83.7965056449153
 51
143.68693404466879
  0
LINE
  5
65CB
  8
DRG
 62
     7
 10
28.191279411133561
 20
102.0369718403326
 30
0.0
 11
28.191279411133561
 21
93.569427875032716
 31
0.0
  0
LINE
  5
65CC
  8
DRG
 62
     7
 10
28.191279411133561
 20
93.569427875032716
 30
0.0
 11
26.821661727211438
 21
93.569427875032716
 31
0.0
  0
LINE
  5
65CD
  8
DRG
 62
     7
 10
41.838142899665847
 20
102.0963017020437
 30
0.0
 11
47.650196927116667
 21
102.0963017020437
 31
0.0
  0
ARC
  5
65CE
  8
DRG
 62
     7
 10
91.146199293645054
 20
26.576636016635941
 30
0.0
 40
9.5460672539884595
 50
232.98068850611
 51
293.75592135571679
  0
ARC
  5
65CF
  8
DRG
 62
     7
 10
153.28023066635379
 20
27.861637324670479
 30
0.0
 40
12.0
 50
180.0
 51
270.0
  0
ARC
  5
65D0
  8
DRG
 62
     7
 10
159.0922846938046
 20
27.861637324670479
 30
0.0
 40
12.0
 50
270.0
 51
0.0
  0
ARC
  5
65D1
  8
DRG
 62
     7
 10
62.280536421539182
 20
27.861637324670479
 30
0.0
 40
12.0
 50
270.0
 51
0.0
  0
LINE
  5
65D2
  8
DRG
 62
     7
 10
56.468482394088369
 20
15.861637324670481
 30
0.0
 11
62.280536421539182
 21
15.861637324670481
 31
0.0
  0
LINE
  5
65D3
  8
DRG
 62
     7
 10
153.28023066635379
 20
15.861637324670481
 30
0.0
 11
159.0922846938046
 21
15.861637324670481
 31
0.0
  0
ARC
  5
65D4
  8
DRG
 62
     7
 10
99.252312977960173
 20
45.06060729124669
 30
0.0
 40
12.0
 50
0.0
 51
90.0
  0
ARC
  5
65D5
  8
DRG
 62
     7
 10
103.66183676415081
 20
72.89733173546756
 30
0.0
 40
12.0
 50
270.0
 51
0.0
  0
ARC
  5
65D6
  8
DRG
 62
     7
 10
103.66183676415081
 20
90.096301702043775
 30
0.0
 40
12.0
 50
0.0
 51
90.0
  0
ARC
  5
65D7
  8
DRG
 62
     7
 10
75.331191210151701
 20
68.89733173546756
 30
0.0
 40
8.0
 50
180.0
 51
270.0
  0
LINE
  5
65D8
  8
DRG
 62
     7
 10
84.501142256151084
 20
62.072518178885268
 30
0.0
 11
84.501142256151084
 21
70.214764581409213
 31
0.0
  0
ARC
  5
65D9
  8
DRG
 62
     7
 10
97.849782736700035
 20
72.89733173546756
 30
0.0
 40
12.0
 50
180.0
 51
270.0
  0
ARC
  5
65DA
  8
DRG
 62
     7
 10
80.604973725058926
 20
67.941395133310024
 30
0.0
 40
7.044419488421358
 50
270.57609896713558
 51
303.5789717876612
  0
ARC
  5
65DB
  8
DRG
 62
     7
 10
93.358174068518778
 20
30.948196427274919
 30
0.0
 40
12.0
 50
90.0
 51
173.29457252003729
  0
ARC
  5
65DC
  8
DRG
 62
     7
 10
93.44025895050936
 20
27.861637324670479
 30
0.0
 40
12.0
 50
180.0
 51
227.9226718038604
  0
ARC
  5
65DD
  8
DRG
 62
     7
 10
93.44025895050936
 20
45.06060729124669
 30
0.0
 40
12.0
 50
90.0
 51
175.93782586434531
  0
LINE
  5
65DE
  8
DRG
 62
     7
 10
74.280536421539182
 20
45.06060729124669
 30
0.0
 11
74.280536421539182
 21
35.629722934820848
 31
0.0
  0
LINE
  5
65DF
  8
DRG
 62
     7
 10
63.235709964757007
 20
30.816887788353821
 30
0.0
 11
74.280536421539182
 21
30.816887788353821
 31
0.0
  0
LINE
  5
65E0
  8
DRG
 62
     7
 10
55.513311319972217
 20
35.629722934820848
 30
0.0
 11
74.280536421539182
 21
35.629722934820848
 31
0.0
  0
LINE
  5
65E1
  8
DRG
 62
     7
 10
63.235709964757007
 20
30.816887788353821
 30
0.0
 11
63.235709964757007
 21
27.619948938379359
 31
0.0
  0
LINE
  5
65E2
  8
DRG
 62
     7
 10
55.513311319972217
 20
35.629722934820848
 30
0.0
 11
55.513311319972217
 21
27.619948938379359
 31
0.0
  0
ARC
  5
65E3
  8
DRG
 62
     7
 10
59.374510642364612
 20
27.619948938379359
 30
0.0
 40
3.8611993223923942
 50
180.0
 51
0.0
  0
LINE
  5
65E4
  8
DRG
 62
     7
 10
74.280536421539182
 20
30.816887788353821
 30
0.0
 11
74.280536421539182
 21
27.861637324670479
 31
0.0
  0
ARC
  5
65E5
  8
DRG
 62
     7
 10
62.280536421539182
 20
45.06060729124669
 30
0.0
 40
12.0
 50
0.0
 51
90.0
  0
LINE
  5
65E6
  8
DRG
 62
     7
 10
55.513311319972217
 20
41.923431282527652
 30
0.0
 11
63.235709964757007
 21
41.923431282527652
 31
0.0
  0
ARC
  5
65E7
  8
DRG
 62
     7
 10
59.374510642364612
 20
46.690614073903127
 30
0.0
 40
3.8611993223923942
 50
0.0
 51
180.0
  0
LINE
  5
65E8
  8
DRG
 62
     7
 10
55.513311319972217
 20
46.690614073903127
 30
0.0
 11
55.513311319972217
 21
41.923431282527652
 31
0.0
  0
LINE
  5
65E9
  8
DRG
 62
     7
 10
63.235709964757007
 20
46.690614073903127
 30
0.0
 11
63.235709964757007
 21
41.923431282527652
 31
0.0
  0
LINE
  5
65EA
  8
DRG
 62
     7
 10
56.468482394088369
 20
57.06060729124669
 30
0.0
 11
62.280536421539182
 21
57.06060729124669
 31
0.0
  0
LINE
  5
65EB
  8
DRG
 62
     7
 10
75.331191210151701
 20
60.89733173546756
 30
0.0
 11
80.675802928264815
 21
60.89733173546756
 31
0.0
  0
LINE
  5
65EC
  8
DRG
 62
     7
 10
111.2523129779601
 20
45.06060729124669
 30
0.0
 11
111.2523129779601
 21
21.10260096837424
 31
0.0
  0
ARC
  5
65ED
  8
DRG
 62
     7
 10
92.427187023305351
 20
28.353548776339029
 30
0.0
 40
10.822390038051561
 50
283.70766965543032
 51
333.6028219757398
  0
ARC
  5
65EE
  8
DRG
 62
     7
 10
97.617648860406234
 20
31.597336783954741
 30
0.0
 40
5.7980507916306081
 50
86.525641605078704
 51
165.57884810514051
  0
ARC
  5
65EF
  8
DRG
 62
     7
 10
95.530005668639475
 20
29.734254501986349
 30
0.0
 40
5.9848030975807349
 50
273.19424815916329
 51
2.3998464036014582
  0
LINE
  5
65F0
  8
DRG
 62
     7
 10
92.002287191588479
 20
27.619948938379359
 30
0.0
 11
92.002287191588479
 21
33.041326503689788
 31
0.0
  0
LINE
  5
65F1
  8
DRG
 62
     7
 10
81.440258950509346
 20
32.349374231809861
 30
0.0
 11
81.440258950509346
 21
27.861637324670479
 31
0.0
  0
ARC
  5
65F2
  8
DRG
 62
     7
 10
95.863486513980874
 20
27.619948938379359
 30
0.0
 40
3.8611993223923942
 50
180.0
 51
270.0
  0
LINE
  5
65F3
  8
DRG
 62
     7
 10
102.6710305977499
 20
17.89352120355198
 30
0.0
 11
111.8021775281067
 21
17.893521203552009
 31
0.0
  0
ARC
  5
65F4
  8
DRG
 62
     7
 10
118.87875205644769
 20
22.322305930199491
 30
0.0
 40
16.801915635954131
 50
175.83705377070211
 51
195.28307330703629
  0
LINE
  5
65F5
  8
DRG
 62
     7
 10
102.1211660476033
 20
23.542010892025068
 30
0.0
 11
102.1211660476033
 21
21.102600968374329
 31
0.0
  0
ARC
  5
65F6
  8
DRG
 62
     7
 10
128.00989898680459
 20
22.322305930199519
 30
0.0
 40
16.801915635954131
 50
175.83705377070211
 51
195.28307330703629
  0
LINE
  5
65F7
  8
DRG
 62
     7
 10
101.5095597489034
 20
37.384730871555568
 30
0.0
 11
101.5095597489034
 21
29.483652989600269
 31
0.0
  0
LINE
  5
65F8
  8
DRG
 62
     7
 10
101.5095597489034
 20
37.384730871555568
 30
0.0
 11
97.266276327143615
 21
37.384730871555568
 31
0.0
  0
LINE
  5
65F9
  8
DRG
 62
     7
 10
100.2074865211779
 20
42.948196427274922
 30
0.0
 11
93.358174068518778
 21
42.948196427274922
 31
0.0
  0
ARC
  5
65FA
  8
DRG
 62
     7
 10
96.346287198785603
 20
47.313129977668268
 30
0.0
 40
3.8611993223923942
 50
0.0
 51
180.0
  0
LINE
  5
65FB
  8
DRG
 62
     7
 10
93.44025895050936
 20
57.06060729124669
 30
0.0
 11
99.252312977960173
 21
57.06060729124669
 31
0.0
  0
LINE
  5
65FC
  8
DRG
 62
     7
 10
92.485087876393209
 20
45.910674481046733
 30
0.0
 11
81.470405744524555
 21
45.910674481046733
 31
0.0
  0
LINE
  5
65FD
  8
DRG
 62
     7
 10
92.485087876393209
 20
47.313129977668268
 30
0.0
 11
92.485087876393209
 21
45.910674481046733
 31
0.0
  0
LINE
  5
65FE
  8
DRG
 62
     7
 10
100.2074865211779
 20
47.313129977668268
 30
0.0
 11
100.2074865211779
 21
42.948196427274922
 31
0.0
  0
LINE
  5
65FF
  8
DRG
 62
     7
 10
97.849782736700035
 20
60.89733173546756
 30
0.0
 11
103.66183676415081
 21
60.89733173546756
 31
0.0
  0
LINE
  5
6600
  8
DRG
 62
     7
 10
80.482556033578916
 20
69.876055965300111
 30
0.0
 11
83.501142256151056
 21
69.876055965300111
 31
0.0
  0
LINE
  5
6601
  8
DRG
 62
     7
 10
77.482556033578931
 20
94.593352860836134
 30
0.0
 11
84.553623006881026
 21
94.593352860836134
 31
0.0
  0
LINE
  5
6602
  8
DRG
 62
     7
 10
77.482556033578931
 20
101.9948050433795
 30
0.0
 11
84.553623006881026
 21
101.9948050433795
 31
0.0
  0
ARC
  5
6603
  8
DRG
 62
     7
 10
-128.9478892023152
 20
81.496816718755667
 30
0.0
 40
177.77324423808651
 50
357.1493405932253
 51
2.8506594067746178
  0
ARC
  5
6604
  8
DRG
 62
     7
 10
-63.673578078330422
 20
81.496816718755667
 30
0.0
 40
123.62323904739679
 50
356.01116722839038
 51
3.9888327716095779
  0
LINE
  5
6605
  8
DRG
 62
     7
 10
67.331191210151701
 20
94.593352860836134
 30
0.0
 11
67.331191210151701
 21
68.89733173546756
 31
0.0
  0
LINE
  5
6606
  8
DRG
 62
     7
 10
77.482556033578931
 20
94.593352860836134
 30
0.0
 11
77.482556033578931
 21
72.876055965300111
 31
0.0
  0
ARC
  5
6607
  8
DRG
 62
     7
 10
80.482556033578916
 20
72.876055965300111
 30
0.0
 40
3.0
 50
180.0
 51
270.0
  0
LINE
  5
6608
  8
DRG
 62
     7
 10
62.478989637268569
 20
101.9948050433795
 30
0.0
 11
67.331191210151701
 21
101.9948050433795
 31
0.0
  0
LINE
  5
6609
  8
DRG
 62
     7
 10
62.478989637268569
 20
94.593352860836134
 30
0.0
 11
67.331191210151701
 21
94.593352860836134
 31
0.0
  0
LINE
  5
660A
  8
DRG
 62
     7
 10
62.478989637268569
 20
94.593352860836134
 30
0.0
 11
62.478989637268569
 21
101.9948050433795
 31
0.0
  0
LINE
  5
660B
  8
DRG
 62
     7
 10
67.331191210151701
 20
107.1280725498991
 30
0.0
 11
77.482556033578931
 21
107.1280725498991
 31
0.0
  0
LINE
  5
660C
  8
DRG
 62
     7
 10
67.331191210151701
 20
107.1280725498991
 30
0.0
 11
67.331191210151701
 21
101.9948050433795
 31
0.0
  0
LINE
  5
660D
  8
DRG
 62
     7
 10
77.482556033578931
 20
101.9948050433795
 30
0.0
 11
77.482556033578931
 21
107.1280725498991
 31
0.0
  0
ARC
  5
660E
  8
DRG
 62
     7
 10
-72.936249365281071
 20
81.496816718755667
 30
0.0
 40
177.77324423808651
 50
357.1493405932253
 51
2.8506594067746178
  0
ARC
  5
660F
  8
DRG
 62
     7
 10
274.44787133523357
 20
81.496816718755667
 30
0.0
 40
177.77324423808651
 50
177.14934059322539
 51
182.85065940677461
  0
ARC
  5
6610
  8
DRG
 62
     7
 10
209.1735602112488
 20
81.496816718755667
 30
0.0
 40
123.62323904739679
 50
176.01116722839041
 51
183.98883277160959
  0
ARC
  5
6611
  8
DRG
 62
     7
 10
100.75581098497619
 20
72.655643349176444
 30
0.0
 40
3.8611993223923942
 50
180.0
 51
0.0
  0
ARC
  5
6612
  8
DRG
 62
     7
 10
82.991751330883176
 20
73.025526152493626
 30
0.0
 40
3.1903983410800212
 50
279.18737892597682
 51
298.2359877234839
  0
ARC
  5
6613
  8
DRG
 62
     7
 10
100.75581098497619
 20
90.337990088334877
 30
0.0
 40
3.8611993223923942
 50
0.0
 51
180.0
  0
ARC
  5
6614
  8
DRG
 62
     7
 10
97.849782736700035
 20
90.096301702043775
 30
0.0
 40
12.0
 50
90.0
 51
180.0
  0
LINE
  5
6615
  8
DRG
 62
     7
 10
84.553623006881026
 20
101.9948050433795
 30
0.0
 11
84.553623006881026
 21
94.593352860836134
 31
0.0
  0
LINE
  5
6616
  8
DRG
 62
     7
 10
97.849782736700035
 20
102.0963017020437
 30
0.0
 11
103.66183676415081
 21
102.0963017020437
 31
0.0
  0
LINE
  5
6617
  8
DRG
 62
     7
 10
130.05101171535759
 20
62.115696081838678
 30
0.0
 11
130.05101171535759
 21
85.569427875032716
 31
0.0
  0
LINE
  5
6618
  8
DRG
 62
     7
 10
119.0096173095521
 20
102.0369718403326
 30
0.0
 11
119.0096173095521
 21
62.115696081838678
 31
0.0
  0
LINE
  5
6619
  8
DRG
 62
     7
 10
165.4162645291251
 20
78.31140447718235
 30
0.0
 11
171.78072804963571
 21
62.115696081838678
 31
0.0
  0
LINE
  5
661A
  8
DRG
 62
     7
 10
153.2899770207527
 20
82.583583780839604
 30
0.0
 11
161.3332883364622
 21
62.115696081838678
 31
0.0
  0
LINE
  5
661B
  8
DRG
 62
     7
 10
153.2899770207527
 20
102.0369718403326
 30
0.0
 11
153.2899770207527
 21
62.115696081838678
 31
0.0
  0
LINE
  5
661C
  8
DRG
 62
     7
 10
142.11987082690661
 20
102.0369718403326
 30
0.0
 11
142.11987082690661
 21
62.115696081838678
 31
0.0
  0
ARC
  5
661D
  8
DRG
 62
     7
 10
160.28928843394391
 20
53.283870983727013
 30
0.0
 40
20.648450998997479
 50
209.50344874889601
 51
257.2400493880096
  0
LINE
  5
661E
  8
DRG
 62
     7
 10
141.28023066635379
 20
29.95929893143898
 30
0.0
 11
152.32505959223769
 21
29.95929893143898
 31
0.0
  0
ARC
  5
661F
  8
DRG
 62
     7
 10
153.28023066635379
 20
45.06060729124669
 30
0.0
 40
12.0
 50
90.0
 51
161.62913043773071
  0
LINE
  5
6620
  8
DRG
 62
     7
 10
153.2899770207527
 20
62.115696081838678
 30
0.0
 11
142.11987082690661
 21
62.115696081838678
 31
0.0
  0
LINE
  5
6621
  8
DRG
 62
     7
 10
127.2345352189994
 20
17.28637227261407
 30
0.0
 11
127.2345352189994
 21
40.740104065808111
 31
0.0
  0
LINE
  5
6622
  8
DRG
 62
     7
 10
116.19314081319391
 20
57.207648031108022
 30
0.0
 11
116.19314081319391
 21
17.28637227261407
 31
0.0
  0
LINE
  5
6623
  8
DRG
 62
     7
 10
116.19314081319391
 20
17.28637227261407
 30
0.0
 11
127.2345352189994
 21
17.28637227261407
 31
0.0
  0
LINE
  5
6624
  8
DRG
 62
     7
 10
141.28023066635379
 20
29.95929893143898
 30
0.0
 11
141.28023066635379
 21
27.861637324670479
 31
0.0
  0
ARC
  5
6625
  8
DRG
 62
     7
 10
135.496228002728
 20
47.014815876282221
 30
0.0
 40
10.2528691067876
 50
83.7965056449153
 51
143.68693404466879
  0
ARC
  5
6626
  8
DRG
 62
     7
 10
135.23453521899941
 20
40.740104065808111
 30
0.0
 40
8.0
 50
90.0
 51
180.0
  0
LINE
  5
6627
  8
DRG
 62
     7
 10
119.0096173095521
 20
62.115696081838678
 30
0.0
 11
130.05101171535759
 21
62.115696081838678
 31
0.0
  0
LINE
  5
6628
  8
DRG
 62
     7
 10
116.19314081319391
 20
57.207648031108022
 30
0.0
 11
127.2345352189994
 21
57.207648031108022
 31
0.0
  0
LINE
  5
6629
  8
DRG
 62
     7
 10
127.2345352189994
 20
53.0865336948413
 30
0.0
 11
127.2345352189994
 21
57.207648031108079
 31
0.0
  0
LINE
  5
662A
  8
DRG
 62
     7
 10
136.6041529029215
 20
57.207648031108022
 30
0.0
 11
136.6041529029215
 21
48.740104065808111
 31
0.0
  0
LINE
  5
662B
  8
DRG
 62
     7
 10
136.6041529029215
 20
48.740104065808111
 30
0.0
 11
135.23453521899941
 21
48.740104065808111
 31
0.0
  0
ARC
  5
662C
  8
DRG
 62
     7
 10
149.15275272984229
 20
46.50373678022958
 30
0.0
 40
7.6283568598071962
 50
162.14543119997589
 51
216.29372603558031
  0
ARC
  5
662D
  8
DRG
 62
     7
 10
164.68224204875119
 20
54.775095406185869
 30
0.0
 40
15.14236331012172
 50
222.29150451995909
 51
257.53093545652467
  0
ARC
  5
662E
  8
DRG
 62
     7
 10
159.223234097084
 20
28.191351553125511
 30
0.0
 40
12.0
 50
8.4721667757414814
 51
79.486612768212169
  0
LINE
  5
662F
  8
DRG
 62
     7
 10
160.04745823702251
 20
29.300230626583438
 30
0.0
 11
160.04745823702251
 21
27.619948938379359
 31
0.0
  0
LINE
  5
6630
  8
DRG
 62
     7
 10
152.32505959223769
 20
27.619948938379359
 30
0.0
 11
152.32505959223769
 21
29.95929893143898
 31
0.0
  0
ARC
  5
6631
  8
DRG
 62
     7
 10
156.18625891463009
 20
27.619948938379359
 30
0.0
 40
3.8611993223923942
 50
180.0
 51
0.0
  0
ARC
  5
6632
  8
DRG
 62
     7
 10
153.8611380906755
 20
26.699836406787622
 30
0.0
 40
6.7106338785129491
 50
22.799249772319211
 51
73.841024038773142
  0
LINE
  5
6633
  8
DRG
 62
     7
 10
171.0922846938046
 20
29.95929893143915
 30
0.0
 11
171.0922846938046
 21
27.861637324670479
 31
0.0
  0
LINE
  5
6634
  8
DRG
 62
     7
 10
171.0912486890569
 20
45.21828747592599
 30
0.0
 11
160.04745823702251
 21
45.21828747592599
 31
0.0
  0
ARC
  5
6635
  8
DRG
 62
     7
 10
159.0922846938046
 20
45.06060729124669
 30
0.0
 40
12.0
 50
0.7528890912800703
 51
90.0
  0
LINE
  5
6636
  8
DRG
 62
     7
 10
161.3332883364622
 20
62.115696081838678
 30
0.0
 11
171.78072804963571
 21
62.115696081838678
 31
0.0
  0
ARC
  5
6637
  8
DRG
 62
     7
 10
156.18625891463009
 20
46.421288526219307
 30
0.0
 40
3.8611993223923942
 50
0.0
 51
161.4735686305323
  0
ARC
  5
6638
  8
DRG
 62
     7
 10
155.35373214152469
 20
46.850626662257177
 30
0.0
 40
2.938857360854815
 50
164.25399710017811
 51
230.4135202949499
  0
LINE
  5
6639
  8
DRG
 62
     7
 10
160.04745823702251
 20
46.421288526219307
 30
0.0
 11
160.04745823702251
 21
45.21828747592599
 31
0.0
  0
LINE
  5
663A
  8
DRG
 62
     7
 10
153.28023066635379
 20
57.06060729124669
 30
0.0
 11
159.0922846938046
 21
57.06060729124669
 31
0.0
  0
LINE
  5
663B
  8
DRG
 62
     7
 10
142.11987082690661
 20
102.0369718403326
 30
0.0
 11
153.2899770207527
 21
102.0369718403326
 31
0.0
  0
ARC
  5
663C
  8
DRG
 62
     7
 10
138.05101171535759
 20
85.569427875032716
 30
0.0
 40
8.0
 50
90.0
 51
180.0
  0
ARC
  5
663D
  8
DRG
 62
     7
 10
-7.66193824129624
 20
81.496816718755667
 30
0.0
 40
123.62323904739679
 50
356.01116722839038
 51
3.9888327716095779
  0
ARC
  5
663E
  8
DRG
 62
     7
 10
138.3127044990861
 20
91.844139685506775
 30
0.0
 40
10.2528691067876
 50
83.7965056449153
 51
143.68693404466879
  0
LINE
  5
663F
  8
DRG
 62
     7
 10
119.0096173095521
 20
102.0369718403326
 30
0.0
 11
130.05101171535759
 21
102.0369718403326
 31
0.0
  0
LINE
  5
6640
  8
DRG
 62
     7
 10
130.05101171535759
 20
97.915857504065855
 30
0.0
 11
130.05101171535759
 21
102.0369718403326
 31
0.0
  0
LINE
  5
6641
  8
DRG
 62
     7
 10
139.4206293992797
 20
102.0369718403326
 30
0.0
 11
139.4206293992797
 21
93.569427875032716
 31
0.0
  0
LINE
  5
6642
  8
DRG
 62
     7
 10
139.4206293992797
 20
93.569427875032716
 30
0.0
 11
138.05101171535759
 21
93.569427875032716
 31
0.0
  0
LINE
  5
6643
  8
DRG
 62
     7
 10
153.2899770207527
 20
82.583583780839604
 30
0.0
 11
160.9346181585602
 21
102.0369718403326
 31
0.0
  0
LINE
  5
6644
  8
DRG
 62
     7
 10
176.9709164189357
 20
78.31140447718235
 30
0.0
 11
176.9709164189357
 21
86.855763084496857
 31
0.0
  0
LINE
  5
6645
  8
DRG
 62
     7
 10
176.9709164189357
 20
78.31140447718235
 30
0.0
 11
165.4162645291251
 21
78.31140447718235
 31
0.0
  0
LINE
  5
6646
  8
DRG
 62
     7
 10
160.9346181585602
 20
102.0369718403326
 30
0.0
 11
171.38205787173379
 21
102.0369718403326
 31
0.0
  0
LINE
  5
6647
  8
DRG
 62
     7
 10
165.4162645291251
 20
86.855763084496857
 30
0.0
 11
171.38205787173379
 21
102.0369718403326
 31
0.0
  0
LINE
  5
6648
  8
DRG
 62
     7
 10
176.9709164189357
 20
86.855763084496857
 30
0.0
 11
165.4162645291251
 21
86.855763084496857
 31
0.0
  0
ENDBLK
  5
664A
  8
0
  0
BLOCK
  8
0
  2
ROTORK_GEARS_LOGO0
 70
     0
 10
0.0
 20
0.0
 30
0.0
  3
ROTORK_GEARS_LOGO0
  1

  0
INSERT
  5
664C
  8
0
  2
LOGO
 10
16.592937132437999
 20
3.1720898939720419
 30
0.0
  0
ENDBLK
  5
664E
  8
0
  0
BLOCK
  8
0
 62
     7
  2
IW3F10PLAN
 70
     0
 10
0.0
 20
0.0
 30
0.0
  3
IW3F10PLAN
  1

  0
LINE
  5
6650
  8
CRS
 62
     7
 10
0.0
 20
117.5092778378441
 30
0.0
 11
0.0
 21
-90.245296605750582
 31
0.0
  0
ARC
  5
6651
  8
DRG
 62
     7
 10
0.0
 20
0.0
 30
0.0
 40
75.0
 50
323.87107252806152
 51
26.924274724306901
  0
ARC
  5
6652
  8
DRG
 62
     7
 10
0.0
 20
0.0
 30
0.0
 40
85.0
 50
311.65976544609248
 51
29.012472408898319
  0
ARC
  5
6653
  8
DRG
 62
     7
 10
-0.0000000000002274
 20
-0.0000000000002274
 30
0.0
 40
43.0
 50
271.18829953709968
 51
78.000950652034206
  0
ARC
  5
6654
  8
DRG
 62
     7
 10
0.0
 20
0.0
 30
0.0
 40
75.0
 50
153.07572527569309
 51
216.1289274719384
  0
ARC
  5
6655
  8
DRG
 62
     7
 10
0.0
 20
0.0
 30
0.0
 40
85.0
 50
150.98752759110161
 51
228.34023455390749
  0
ARC
  5
6656
  8
DRG
 62
     7
 10
-0.0000000000002274
 20
-0.0000000000002274
 30
0.0
 40
43.0
 50
101.99904934796579
 51
268.81170046290021
  0
POLYLINE
  5
6657
  8
DRG2
 62
     7
 66
     1
 10
0.0
 20
0.0
 30
0.0
 70
     1
  0
VERTEX
  5
6925
  8
DRG2
 62
     7
 10
34.267949192431161
 20
2.9999916935616961
 30
0.0
  0
VERTEX
  5
6926
  8
DRG2
 62
     7
 10
32.5358983848622
 20
-0.0000083064383034
 30
0.0
  0
VERTEX
  5
6927
  8
DRG2
 62
     7
 10
34.267949192431161
 20
-3.000008306438303
 30
0.0
  0
VERTEX
  5
6928
  8
DRG2
 62
     7
 10
37.732050807568839
 20
-3.000008306438303
 30
0.0
  0
VERTEX
  5
6929
  8
DRG2
 62
     7
 10
39.464101615137793
 20
-0.0000083064383034
 30
0.0
  0
VERTEX
  5
692A
  8
DRG2
 62
     7
 10
37.732050807568839
 20
2.9999916935616961
 30
0.0
  0
SEQEND
  5
692B
  8
DRG2
 62
     7
  0
CIRCLE
  5
6658
  8
DRG2
 62
     7
 10
35.999960278592191
 20
0.0
 30
0.0
 40
6.7500000000001128
  0
CIRCLE
  5
6659
  8
DRG2
 62
     7
 10
35.999960278592191
 20
0.0
 30
0.0
 40
6.5
  0
CIRCLE
  5
665A
  8
DRG2
 62
     7
 10
35.999960278592191
 20
0.0
 30
0.0
 40
5.4999999999998863
  0
ARC
  5
665B
  8
DRG
 62
     7
 10
35.499999999999773
 20
-59.0
 30
0.0
 40
3.0
 50
90.0
 51
180.0
  0
ARC
  5
665C
  8
DRG
 62
     7
 10
0.0
 20
0.0
 30
0.0
 40
85.0
 50
245.31387464427019
 51
294.6861253557297
  0
LINE
  5
665D
  8
DRG
 62
     7
 10
-57.0
 20
-56.0
 30
0.0
 11
56.999999999999773
 21
-56.0
 31
0.0
  0
LINE
  5
665E
  8
CRS
 62
     7
 10
-91.714767396937063
 20
0.0
 30
0.0
 11
91.714767396936864
 21
0.0
 31
0.0
  0
ARC
  5
665F
  8
DRG2
 62
     7
 10
-53.877999999999929
 20
-60.799999999999727
 30
0.0
 40
4.7999999999999998
 50
56.804328996452561
 51
123.1101257111424
  0
ARC
  5
6660
  8
DRG2
 62
     7
 10
-53.877999999999929
 20
-60.799999999999727
 30
0.0
 40
4.7999999999999998
 50
236.8898742888575
 51
303.19567100354868
  0
ARC
  5
6661
  8
DRG
 62
     7
 10
0.0
 20
0.0
 30
0.0
 40
85.0
 50
230.50911551244039
 51
232.28278764214301
  0
LINE
  5
6662
  8
DRG2
 62
     7
 10
-38.122000000000071
 20
-65.600000000000136
 30
0.0
 11
-53.877999999999929
 21
-65.600000000000136
 31
0.0
  0
LINE
  5
6663
  8
DRG2
 62
     7
 10
-53.877999999999929
 20
-65.600000000000136
 30
0.0
 11
-38.122000000000071
 21
-65.600000000000136
 31
0.0
  0
LINE
  5
6664
  8
DRG2
 62
     7
 10
-38.122000000000071
 20
-56.0
 30
0.0
 11
-53.877999999999929
 21
-56.0
 31
0.0
  0
ARC
  5
6665
  8
DRG2
 62
     7
 10
-53.877999999999929
 20
-73.56599121704744
 30
0.0
 40
4.7999999999999998
 50
236.8898742888575
 51
303.19567100354868
  0
LINE
  5
6666
  8
DRG2
 62
     7
 10
-53.877999999999929
 20
-78.365991217047167
 30
0.0
 11
-38.122000000000071
 21
-78.365991217047167
 31
0.0
  0
LINE
  5
6667
  8
DRG2
 62
     7
 10
-38.122000000000071
 20
-78.365991217047167
 30
0.0
 11
-53.877999999999929
 21
-78.365991217047167
 31
0.0
  0
LINE
  5
6668
  8
DRG2
 62
     7
 10
-35.5
 20
-69.965991217047304
 30
0.0
 11
-56.5
 21
-69.965991217047304
 31
0.0
  0
ARC
  5
6669
  8
DRG2
 62
     7
 10
-55.0
 20
3.0
 30
0.0
 40
5.0
 50
233.13010235415661
 51
306.86989764584331
  0
ARC
  5
666A
  8
DRG2
 62
     7
 10
-55.0
 20
-3.0
 30
0.0
 40
5.0
 50
53.130102354156641
 51
126.8698976458433
  0
LINE
  5
666B
  8
DRG2
 62
     7
 10
-56.5
 20
-69.965991217047304
 30
0.0
 11
-56.5
 21
-77.586577741424193
 31
0.0
  0
ARC
  5
666C
  8
DRG
 62
     7
 10
-57.0
 20
-53.0
 30
0.0
 40
3.0
 50
180.0
 51
270.0
  0
LINE
  5
666D
  8
DRG2
 62
     7
 10
-56.5
 20
-56.779413475622952
 30
0.0
 11
-56.5
 21
-64.820586524376495
 31
0.0
  0
LINE
  5
666E
  8
DRG
 62
     7
 10
-60.0
 20
-45.989129150267672
 30
0.0
 11
-60.0
 21
-53.0
 31
0.0
  0
ARC
  5
666F
  8
DRG
 62
     7
 10
-63.0
 20
-45.989129150267672
 30
0.0
 40
3.0
 50
0.0
 51
36.128927471939399
  0
LINE
  5
6670
  8
DRG2
 62
     7
 10
-60.0
 20
7.4999999999999432
 30
0.0
 11
-60.0
 21
-7.500000000000056
 31
0.0
  0
LINE
  5
6671
  8
DRG2
 62
     7
 10
-58.0
 20
7.4999999999999432
 30
0.0
 11
-58.0
 21
1.0
 31
0.0
  0
LINE
  5
6672
  8
DRG2
 62
     7
 10
-60.0
 20
-7.500000000000056
 30
0.0
 11
-58.0
 21
-7.500000000000056
 31
0.0
  0
LINE
  5
6673
  8
DRG2
 62
     7
 10
-58.0
 20
-1.0
 30
0.0
 11
-58.0
 21
-7.500000000000056
 31
0.0
  0
LINE
  5
6674
  8
DRG2
 62
     7
 10
-60.0
 20
7.5
 30
0.0
 11
-58.0
 21
7.5
 31
0.0
  0
LINE
  5
6675
  8
CRS
 62
     7
 10
0.0
 20
-23.480101284890679
 30
0.0
 11
0.0
 21
-48.519898715109768
 31
0.0
  0
LINE
  5
6676
  8
CRS
 62
     7
 10
-0.0000397214078021
 20
-24.500008306438762
 30
0.0
 11
-0.0000397214078021
 21
-47.500008306438531
 31
0.0
  0
CIRCLE
  5
6677
  8
DRG2
 62
     7
 10
-0.0000397214078021
 20
-36.00000000000022
 30
0.0
 40
6.7500000000001128
  0
CIRCLE
  5
6678
  8
DRG2
 62
     7
 10
-0.0000397214078021
 20
-36.00000000000022
 30
0.0
 40
5.4999999999998863
  0
CIRCLE
  5
6679
  8
DRG2
 62
     7
 10
-0.0000397214078021
 20
-36.00000000000022
 30
0.0
 40
6.5
  0
LINE
  5
667A
  8
DRG
 62
     7
 10
-32.5
 20
-59.0
 30
0.0
 11
-32.5
 21
-78.541390362024913
 31
0.0
  0
LINE
  5
667B
  8
DRG2
 62
     7
 10
-40.0
 20
-65.600000000000136
 30
0.0
 11
-40.0
 21
-69.965991217047304
 31
0.0
  0
LINE
  5
667C
  8
DRG2
 62
     7
 10
-40.899999999999856
 20
-65.600000000000136
 30
0.0
 11
-40.899999999999856
 21
-69.965991217047304
 31
0.0
  0
LINE
  5
667D
  8
DRG2
 62
     7
 10
-52.0
 20
-65.600000000000136
 30
0.0
 11
-52.0
 21
-69.965991217047304
 31
0.0
  0
LINE
  5
667E
  8
DRG2
 62
     7
 10
-51.100000000000129
 20
-65.600000000000136
 30
0.0
 11
-51.099999999999909
 21
-69.965991217047304
 31
0.0
  0
LINE
  5
667F
  8
CRS
 62
     7
 10
-46.0
 20
-53.749522823612772
 30
0.0
 11
-46.0
 21
-80.958762222903033
 31
0.0
  0
ARC
  5
6680
  8
DRG2
 62
     7
 10
-46.0
 20
-60.365991217047167
 30
0.0
 40
18.0
 50
253.0398316444923
 51
286.96016835550762
  0
LINE
  5
6681
  8
DRG2
 62
     7
 10
-51.25
 20
-69.965991217047304
 30
0.0
 11
-51.250722713659123
 21
-77.583131252032217
 31
0.0
  0
LINE
  5
6682
  8
DRG2
 62
     7
 10
-35.5
 20
-77.586577741424193
 30
0.0
 11
-35.5
 21
-69.965991217047304
 31
0.0
  0
LINE
  5
6683
  8
DRG2
 62
     7
 10
-40.75
 20
-77.583351641921126
 30
0.0
 11
-40.75
 21
-69.965991217047304
 31
0.0
  0
ARC
  5
6684
  8
DRG2
 62
     7
 10
-38.122000000000071
 20
-73.56599121704744
 30
0.0
 40
4.7999999999999998
 50
236.80432899645109
 51
303.11012571114242
  0
ARC
  5
6685
  8
DRG2
 62
     7
 10
-46.0
 20
-74.0
 30
0.0
 40
18.0
 50
73.039831644492324
 51
106.9601683555086
  0
ARC
  5
6686
  8
DRG2
 62
     7
 10
-46.0
 20
-47.600000000000129
 30
0.0
 40
18.0
 50
253.0398316444923
 51
286.96016835550762
  0
LINE
  5
6687
  8
DRG2
 62
     7
 10
-51.25
 20
-64.817360424873414
 30
0.0
 11
-51.25
 21
-56.782639575126723
 31
0.0
  0
ARC
  5
6688
  8
DRG
 62
     7
 10
-35.5
 20
-59.0
 30
0.0
 40
3.0
 50
0.0
 51
90.0
  0
LINE
  5
6689
  8
DRG2
 62
     7
 10
-35.5
 20
-64.820586524376495
 30
0.0
 11
-35.5
 21
-56.779413475622952
 31
0.0
  0
LINE
  5
668A
  8
DRG2
 62
     7
 10
-40.75
 20
-64.817360424873414
 30
0.0
 11
-40.75
 21
-56.782639575126041
 31
0.0
  0
ARC
  5
668B
  8
DRG2
 62
     7
 10
-38.122000000000071
 20
-60.799999999999727
 30
0.0
 40
4.7999999999999998
 50
56.889874288858913
 51
123.1956710035488
  0
ARC
  5
668C
  8
DRG2
 62
     7
 10
-38.122000000000071
 20
-60.799999999999727
 30
0.0
 40
4.7999999999999998
 50
236.80432899645109
 51
303.11012571114242
  0
LINE
  5
668D
  8
DRG
 62
     7
 10
32.499999999999773
 20
-59.0
 30
0.0
 11
32.499999999999773
 21
-78.541390362024913
 31
0.0
  0
LINE
  5
668E
  8
CRS
 62
     7
 10
10.87736325395371
 20
-36.00000000000022
 30
0.0
 11
-11.81821232294419
 21
-36.00000000000022
 31
0.0
  0
LINE
  5
668F
  8
CRS
 62
     7
 10
11.499960278592191
 20
-36.000008306438531
 30
0.0
 11
-11.5000397214078
 21
-36.000008306438531
 31
0.0
  0
LINE
  5
6690
  8
CRS
 62
     7
 10
-35.999999999999773
 20
12.519898715109321
 30
0.0
 11
-35.999999999999773
 21
-12.51989871510977
 31
0.0
  0
LINE
  5
6691
  8
CRS
 62
     7
 10
-36.000039721407568
 20
11.49999169356146
 30
0.0
 11
-36.000039721407568
 21
-11.500008306438531
 31
0.0
  0
CIRCLE
  5
6692
  8
DRG2
 62
     7
 10
-35.999999999999773
 20
0.0
 30
0.0
 40
5.4999999999998863
  0
CIRCLE
  5
6693
  8
DRG2
 62
     7
 10
-35.999999999999773
 20
0.0
 30
0.0
 40
6.7500000000001128
  0
CIRCLE
  5
6694
  8
DRG2
 62
     7
 10
-35.999999999999773
 20
0.0
 30
0.0
 40
6.5
  0
LINE
  5
6695
  8
DRG2
 62
     7
 10
-52.0
 20
7.4999999999999432
 30
0.0
 11
-52.0
 21
1.0
 31
0.0
  0
LINE
  5
6696
  8
DRG2
 62
     7
 10
-50.0
 20
7.4999999999999432
 30
0.0
 11
-50.0
 21
-7.500000000000056
 31
0.0
  0
LINE
  5
6697
  8
DRG2
 62
     7
 10
-52.0
 20
-1.0
 30
0.0
 11
-52.0
 21
-7.500000000000056
 31
0.0
  0
LINE
  5
6698
  8
DRG2
 62
     7
 10
-52.0
 20
-7.500000000000056
 30
0.0
 11
-50.0
 21
-7.500000000000056
 31
0.0
  0
POLYLINE
  5
6699
  8
DRG2
 62
     7
 66
     1
 10
0.0
 20
0.0
 30
0.0
 70
     1
  0
VERTEX
  5
692C
  8
DRG2
 62
     7
 10
-37.732011086160831
 20
2.9999916935616961
 30
0.0
  0
VERTEX
  5
692D
  8
DRG2
 62
     7
 10
-39.464061893729728
 20
-0.0000083064383034
 30
0.0
  0
VERTEX
  5
692E
  8
DRG2
 62
     7
 10
-37.732011086160831
 20
-3.000008306438303
 30
0.0
  0
VERTEX
  5
692F
  8
DRG2
 62
     7
 10
-34.267909471023103
 20
-3.000008306438303
 30
0.0
  0
VERTEX
  5
6930
  8
DRG2
 62
     7
 10
-32.535858663454171
 20
-0.0000083064383034
 30
0.0
  0
VERTEX
  5
6931
  8
DRG2
 62
     7
 10
-34.267909471023103
 20
2.9999916935616961
 30
0.0
  0
SEQEND
  5
6932
  8
DRG2
 62
     7
  0
LINE
  5
669A
  8
DRG2
 62
     7
 10
-52.0
 20
7.5
 30
0.0
 11
-50.0
 21
7.5
 31
0.0
  0
POLYLINE
  5
669B
  8
DRG2
 62
     7
 66
     1
 10
0.0
 20
0.0
 30
0.0
 70
     1
  0
VERTEX
  5
6933
  8
DRG2
 62
     7
 10
-1.732050807568839
 20
-33.000008306438531
 30
0.0
  0
VERTEX
  5
6934
  8
DRG2
 62
     7
 10
-3.4641016151377921
 20
-36.000008306438531
 30
0.0
  0
VERTEX
  5
6935
  8
DRG2
 62
     7
 10
-1.732050807568839
 20
-39.000008306438531
 30
0.0
  0
VERTEX
  5
6936
  8
DRG2
 62
     7
 10
1.732050807568839
 20
-39.000008306438531
 30
0.0
  0
VERTEX
  5
6937
  8
DRG2
 62
     7
 10
3.4641016151377921
 20
-36.000008306438531
 30
0.0
  0
VERTEX
  5
6938
  8
DRG2
 62
     7
 10
1.732050807568839
 20
-33.000008306438531
 30
0.0
  0
SEQEND
  5
6939
  8
DRG2
 62
     7
  0
LINE
  5
669C
  8
DRG2
 62
     7
 10
39.999999999999773
 20
-65.600000000000136
 30
0.0
 11
39.999999999999773
 21
-69.965991217047304
 31
0.0
  0
LINE
  5
669D
  8
DRG2
 62
     7
 10
40.899999999999856
 20
-65.600000000000136
 30
0.0
 11
40.899999999999856
 21
-69.965991217047304
 31
0.0
  0
LINE
  5
669E
  8
DRG2
 62
     7
 10
51.999999999999773
 20
-65.600000000000136
 30
0.0
 11
51.999999999999773
 21
-69.965991217047304
 31
0.0
  0
LINE
  5
669F
  8
DRG2
 62
     7
 10
51.099999999999909
 20
-65.600000000000136
 30
0.0
 11
51.099999999999682
 21
-69.965991217047304
 31
0.0
  0
LINE
  5
66A0
  8
CRS
 62
     7
 10
45.999999999999773
 20
-53.749522823612772
 30
0.0
 11
45.999999999999773
 21
-80.958762222903033
 31
0.0
  0
ARC
  5
66A1
  8
DRG2
 62
     7
 10
53.877999999999929
 20
-73.56599121704744
 30
0.0
 40
4.7999999999999998
 50
236.80432899645109
 51
303.11012571114242
  0
LINE
  5
66A2
  8
DRG2
 62
     7
 10
38.122000000000071
 20
-78.365991217047167
 30
0.0
 11
53.877999999999929
 21
-78.365991217047167
 31
0.0
  0
LINE
  5
66A3
  8
DRG2
 62
     7
 10
53.877999999999929
 20
-78.365991217047167
 30
0.0
 11
38.122000000000071
 21
-78.365991217047167
 31
0.0
  0
LINE
  5
66A4
  8
DRG2
 62
     7
 10
35.499999999999773
 20
-69.965991217047304
 30
0.0
 11
56.499999999999773
 21
-69.965991217047304
 31
0.0
  0
ARC
  5
66A5
  8
DRG2
 62
     7
 10
45.999999999999773
 20
-60.365991217047167
 30
0.0
 40
18.0
 50
253.0398316444923
 51
286.96016835550762
  0
LINE
  5
66A6
  8
DRG2
 62
     7
 10
40.749999999999773
 20
-77.583351641921126
 30
0.0
 11
40.749999999999773
 21
-69.965991217047304
 31
0.0
  0
LINE
  5
66A7
  8
DRG2
 62
     7
 10
35.499999999999773
 20
-77.586577741424193
 30
0.0
 11
35.499999999999773
 21
-69.965991217047304
 31
0.0
  0
ARC
  5
66A8
  8
DRG2
 62
     7
 10
38.122000000000071
 20
-73.56599121704744
 30
0.0
 40
4.7999999999999998
 50
236.8898742888575
 51
303.19567100354737
  0
LINE
  5
66A9
  8
DRG2
 62
     7
 10
51.249999999999773
 20
-69.965991217047304
 30
0.0
 11
51.250722713659123
 21
-77.583131252032217
 31
0.0
  0
LINE
  5
66AA
  8
DRG2
 62
     7
 10
56.499999999999773
 20
-69.965991217047304
 30
0.0
 11
56.499999999999773
 21
-77.586577741424193
 31
0.0
  0
ARC
  5
66AB
  8
DRG2
 62
     7
 10
53.877999999999929
 20
-60.799999999999727
 30
0.0
 40
4.7999999999999998
 50
56.889874288857563
 51
123.1956710035474
  0
ARC
  5
66AC
  8
DRG2
 62
     7
 10
53.877999999999929
 20
-60.799999999999727
 30
0.0
 40
4.7999999999999998
 50
236.80432899645109
 51
303.11012571114242
  0
ARC
  5
66AD
  8
DRG
 62
     7
 10
0.0
 20
0.0
 30
0.0
 40
85.0
 50
307.71721235785691
 51
309.49088448755953
  0
LINE
  5
66AE
  8
DRG2
 62
     7
 10
38.122000000000071
 20
-56.0
 30
0.0
 11
53.877999999999929
 21
-56.0
 31
0.0
  0
LINE
  5
66AF
  8
DRG2
 62
     7
 10
53.877999999999929
 20
-65.600000000000136
 30
0.0
 11
38.122000000000071
 21
-65.600000000000136
 31
0.0
  0
LINE
  5
66B0
  8
DRG2
 62
     7
 10
38.122000000000071
 20
-65.600000000000136
 30
0.0
 11
53.877999999999929
 21
-65.600000000000136
 31
0.0
  0
ARC
  5
66B1
  8
DRG2
 62
     7
 10
45.999999999999773
 20
-74.0
 30
0.0
 40
18.0
 50
73.039831644491372
 51
106.96016835550761
  0
ARC
  5
66B2
  8
DRG2
 62
     7
 10
45.999999999999773
 20
-47.600000000000129
 30
0.0
 40
18.0
 50
253.0398316444923
 51
286.96016835550762
  0
LINE
  5
66B3
  8
DRG2
 62
     7
 10
40.749999999999773
 20
-64.817360424873414
 30
0.0
 11
40.749999999999773
 21
-56.782639575126041
 31
0.0
  0
LINE
  5
66B4
  8
DRG2
 62
     7
 10
35.499999999999773
 20
-64.820586524376495
 30
0.0
 11
35.499999999999773
 21
-56.779413475622952
 31
0.0
  0
ARC
  5
66B5
  8
DRG2
 62
     7
 10
38.122000000000071
 20
-60.799999999999727
 30
0.0
 40
4.7999999999999998
 50
56.80432899645119
 51
123.110125711141
  0
ARC
  5
66B6
  8
DRG2
 62
     7
 10
38.122000000000071
 20
-60.799999999999727
 30
0.0
 40
4.7999999999999998
 50
236.8898742888575
 51
303.19567100354737
  0
LINE
  5
66B7
  8
DRG2
 62
     7
 10
51.249999999999773
 20
-64.817360424873414
 30
0.0
 11
51.249999999999773
 21
-56.782639575126723
 31
0.0
  0
ARC
  5
66B8
  8
DRG
 62
     7
 10
56.999999999999773
 20
-53.0
 30
0.0
 40
3.0
 50
270.0
 51
0.0
  0
LINE
  5
66B9
  8
DRG2
 62
     7
 10
56.499999999999773
 20
-56.779413475622952
 30
0.0
 11
56.499999999999773
 21
-64.820586524376495
 31
0.0
  0
LINE
  5
66BA
  8
DRG
 62
     7
 10
59.999999999999773
 20
-45.989129150267672
 30
0.0
 11
59.999999999999773
 21
-53.0
 31
0.0
  0
ARC
  5
66BB
  8
DRG
 62
     7
 10
62.999999999999773
 20
-45.989129150267672
 30
0.0
 40
3.0
 50
143.87107252806149
 51
180.0
  0
LINE
  5
66BC
  8
CRS
 62
     7
 10
36.00000000000022
 20
-12.519898715109541
 30
0.0
 11
36.00000000000022
 21
12.519898715109541
 31
0.0
  0
LINE
  5
66BD
  8
CRS
 62
     7
 10
35.999960278592191
 20
11.499991693561689
 30
0.0
 11
35.999960278592191
 21
-11.5000083064383
 31
0.0
  0
ARC
  5
66BE
  8
DRG2
 62
     7
 10
54.999956968450562
 20
-3.0000606854604248
 30
0.0
 40
5.0
 50
53.130039135572062
 51
126.8698344272601
  0
ARC
  5
66BF
  8
DRG2
 62
     7
 10
54.999963588685212
 20
2.9999393145359359
 30
0.0
 40
5.0
 50
233.13003913557071
 51
306.86983442726012
  0
LINE
  5
66C0
  8
DRG2
 62
     7
 10
49.999968553864221
 20
7.4999448313953394
 30
0.0
 11
49.999952003277627
 21
-7.5000551685955648
 31
0.0
  0
LINE
  5
66C1
  8
DRG2
 62
     7
 10
51.999968553862999
 20
7.4999426246504859
 30
0.0
 11
51.999961381942143
 21
0.9999426246544658
 31
0.0
  0
LINE
  5
66C2
  8
DRG2
 62
     7
 10
51.999952003276412
 20
-7.5000573753404183
 30
0.0
 11
49.999952003277592
 21
-7.5000551685955648
 31
0.0
  0
LINE
  5
66C3
  8
DRG2
 62
     7
 10
51.999959175197262
 20
-1.000057375344283
 30
0.0
 11
51.999952003276412
 21
-7.5000573753404183
 31
0.0
  0
LINE
  5
66C4
  8
DRG2
 62
     7
 10
51.999968553862999
 20
7.4999426246505427
 30
0.0
 11
49.999968553864221
 21
7.4999448313953962
 31
0.0
  0
LINE
  5
66C5
  8
DRG2
 62
     7
 10
57.999968553859333
 20
7.499936004415872
 30
0.0
 11
57.999961381938469
 21
0.999936004419851
 31
0.0
  0
LINE
  5
66C6
  8
DRG2
 62
     7
 10
59.99996855385811
 20
7.4999337976709617
 30
0.0
 11
59.999952003271552
 21
-7.5000662023199416
 31
0.0
  0
LINE
  5
66C7
  8
DRG2
 62
     7
 10
57.999959175193602
 20
-1.0000639955788979
 30
0.0
 11
57.999952003272767
 21
-7.500063995575033
 31
0.0
  0
LINE
  5
66C8
  8
DRG2
 62
     7
 10
59.999952003271552
 20
-7.5000662023199416
 30
0.0
 11
57.999952003272767
 21
-7.500063995575033
 31
0.0
  0
LINE
  5
66C9
  8
DRG2
 62
     7
 10
59.99996855385811
 20
7.4999337976710194
 30
0.0
 11
57.999968553859333
 21
7.499936004415928
 31
0.0
  0
LINE
  5
66CA
  8
DRG
 62
     7
 10
-47.0
 20
61.224999999999909
 30
0.0
 11
47.000000000000227
 21
61.224999999999909
 31
0.0
  0
LINE
  5
66CB
  8
DRG
 62
     7
 10
-42.607695154587638
 20
105.22499999999989
 30
0.0
 11
42.607695154585826
 21
105.22499999999989
 31
0.0
  0
LINE
  5
66CC
  8
DRG
 62
     7
 10
-47.0
 20
97.224999999999909
 30
0.0
 11
47.000000000000227
 21
97.224999999999909
 31
0.0
  0
LINE
  5
66CD
  8
CRS
 62
     7
 10
-88.455833052303888
 20
76.224999999999909
 30
0.0
 11
161.674060090653
 21
76.224999999999909
 31
0.0
  0
ARC
  5
66CE
  8
DRG
 62
     7
 10
-53.0
 20
105.22499999999989
 30
0.0
 40
6.0
 50
30.000000000003361
 51
90.0
  0
LINE
  5
66CF
  8
DRG
 62
     7
 10
-72.0
 20
111.22499999999989
 30
0.0
 11
-72.0
 21
41.224999999999902
 31
0.0
  0
LINE
  5
66D0
  8
DRG
 62
     7
 10
-80.25
 20
111.22499999999989
 30
0.0
 11
-80.25
 21
41.224999999999902
 31
0.0
  0
LINE
  5
66D1
  8
DRG2
 62
     7
 10
-85.849999999999909
 20
81.499672521968023
 30
0.0
 11
-85.849999999999909
 21
70.995672521968118
 31
0.0
  0
LINE
  5
66D2
  8
DRG2
 62
     7
 10
-85.849999999999909
 20
70.995672521968118
 30
0.0
 11
-85.849999999999909
 21
81.499672521968023
 31
0.0
  0
ARC
  5
66D3
  8
DRG2
 62
     7
 10
-73.849999999999895
 20
76.24767252196807
 30
0.0
 40
12.0
 50
163.03983164449019
 51
196.96016835550969
  0
LINE
  5
66D4
  8
DRG2
 62
     7
 10
-80.25
 20
69.24767252196807
 30
0.0
 11
-80.25
 21
83.24767252196807
 31
0.0
  0
ARC
  5
66D5
  8
DRG2
 62
     7
 10
-73.849999999999895
 20
49.702327478031748
 30
0.0
 40
12.0
 50
163.03983164449019
 51
196.96016835550969
  0
LINE
  5
66D6
  8
DRG2
 62
     7
 10
-85.849999999999909
 20
54.954327478031701
 30
0.0
 11
-85.849999999999909
 21
44.450327478031788
 31
0.0
  0
LINE
  5
66D7
  8
DRG2
 62
     7
 10
-85.849999999999909
 20
44.450327478031788
 30
0.0
 11
-85.849999999999909
 21
54.954327478031701
 31
0.0
  0
LINE
  5
66D8
  8
DRG2
 62
     7
 10
-80.25
 20
56.702327478031748
 30
0.0
 11
-80.25
 21
42.702327478031741
 31
0.0
  0
LINE
  5
66D9
  8
DRG
 62
     7
 10
-80.25
 20
41.224999999999902
 30
0.0
 11
-72.0
 21
41.224999999999902
 31
0.0
  0
LINE
  5
66DA
  8
DRG2
 62
     7
 10
-80.25
 20
42.702327478031741
 30
0.0
 11
-85.330391016251255
 21
42.702327478031741
 31
0.0
  0
LINE
  5
66DB
  8
DRG2
 62
     7
 10
-80.25
 20
46.202327478031741
 30
0.0
 11
-85.328093356656595
 21
46.201845668926119
 31
0.0
  0
ARC
  5
66DC
  8
DRG2
 62
     7
 10
-82.650000000000091
 20
44.450327478031788
 30
0.0
 40
3.2000000000000002
 50
146.804328996452
 51
213.1101257111402
  0
ARC
  5
66DD
  8
DRG
 62
     7
 10
-71.328461184859634
 20
36.224999999999909
 30
0.0
 40
5.0
 50
333.075725275693
 51
90.0
  0
LINE
  5
66DE
  8
DRG
 62
     7
 10
-72.0
 20
41.224999999999902
 30
0.0
 11
-71.328461184859634
 21
41.224999999999902
 31
0.0
  0
LINE
  5
66DF
  8
DRG2
 62
     7
 10
-85.330391016251255
 20
56.702327478031748
 30
0.0
 11
-80.25
 21
56.702327478031748
 31
0.0
  0
LINE
  5
66E0
  8
DRG2
 62
     7
 10
-85.328240283249215
 20
53.202327478031741
 30
0.0
 11
-80.25
 21
53.202327478031741
 31
0.0
  0
LINE
  5
66E1
  8
CRS
 62
     7
 10
-87.844057049006764
 20
49.724999999999909
 30
0.0
 11
-78.66741806207915
 21
49.724999999999909
 31
0.0
  0
ARC
  5
66E2
  8
DRG2
 62
     7
 10
-82.650000000000091
 20
54.954327478031701
 30
0.0
 40
3.2000000000000002
 50
146.8898742888598
 51
213.19567100354789
  0
LINE
  5
66E3
  8
DRG2
 62
     7
 10
-85.330391016251255
 20
69.24767252196807
 30
0.0
 11
-80.25
 21
69.24767252196807
 31
0.0
  0
LINE
  5
66E4
  8
DRG2
 62
     7
 10
-85.328240283249215
 20
72.74767252196807
 30
0.0
 11
-80.25
 21
72.74767252196807
 31
0.0
  0
ARC
  5
66E5
  8
DRG2
 62
     7
 10
-82.650000000000091
 20
70.995672521968118
 30
0.0
 40
3.2000000000000002
 50
146.804328996452
 51
213.1101257111402
  0
ARC
  5
66E6
  8
DRG2
 62
     7
 10
-82.650000000000091
 20
107.99967252196799
 30
0.0
 40
3.2000000000000002
 50
146.8898742888598
 51
213.19567100354789
  0
LINE
  5
66E7
  8
DRG2
 62
     7
 10
-80.25
 20
95.74767252196807
 30
0.0
 11
-80.25
 21
109.747672521968
 31
0.0
  0
LINE
  5
66E8
  8
DRG2
 62
     7
 10
-80.25
 20
79.74767252196807
 30
0.0
 11
-85.328093356656595
 21
79.748154331073692
 31
0.0
  0
LINE
  5
66E9
  8
DRG2
 62
     7
 10
-80.25
 20
83.24767252196807
 30
0.0
 11
-85.330391016251255
 21
83.24767252196807
 31
0.0
  0
ARC
  5
66EA
  8
DRG2
 62
     7
 10
-82.650000000000091
 20
81.499672521968023
 30
0.0
 40
3.2000000000000002
 50
146.8898742888598
 51
213.19567100354789
  0
LINE
  5
66EB
  8
DRG2
 62
     7
 10
-80.25
 20
106.247672521968
 30
0.0
 11
-85.328093356656595
 21
106.24815433107359
 31
0.0
  0
LINE
  5
66EC
  8
DRG2
 62
     7
 10
-85.328240283249215
 20
99.247672521968084
 30
0.0
 11
-80.25
 21
99.247672521968084
 31
0.0
  0
LINE
  5
66ED
  8
DRG2
 62
     7
 10
-85.330391016251255
 20
95.74767252196807
 30
0.0
 11
-80.25
 21
95.74767252196807
 31
0.0
  0
LINE
  5
66EE
  8
CRS
 62
     7
 10
-87.844057049006764
 20
102.72499999999989
 30
0.0
 11
-78.66741806207915
 21
102.72499999999989
 31
0.0
  0
ARC
  5
66EF
  8
DRG2
 62
     7
 10
-73.849999999999895
 20
102.747672521968
 30
0.0
 40
12.0
 50
163.03983164449019
 51
196.96016835550969
  0
ARC
  5
66F0
  8
DRG2
 62
     7
 10
-82.650000000000091
 20
97.495672521968103
 30
0.0
 40
3.2000000000000002
 50
146.804328996452
 51
213.1101257111402
  0
LINE
  5
66F1
  8
DRG2
 62
     7
 10
-85.849999999999909
 20
107.99967252196799
 30
0.0
 11
-85.849999999999909
 21
97.495672521968103
 31
0.0
  0
LINE
  5
66F2
  8
DRG2
 62
     7
 10
-85.849999999999909
 20
97.495672521968103
 30
0.0
 11
-85.849999999999909
 21
107.99967252196799
 31
0.0
  0
LINE
  5
66F3
  8
DRG
 62
     7
 10
-80.25
 20
111.22500000000031
 30
0.0
 11
-53.0
 21
111.22500000000009
 31
0.0
  0
LINE
  5
66F4
  8
DRG2
 62
     7
 10
-80.25
 20
109.747672521968
 30
0.0
 11
-85.330391016251255
 21
109.747672521968
 31
0.0
  0
LINE
  5
66F5
  8
DRG
 62
     7
 10
-47.0
 20
107.1374997682007
 30
0.0
 11
-47.0
 21
41.224999999999902
 31
0.0
  0
LINE
  5
66F6
  8
CRS
 62
     7
 10
10.87736325395371
 20
35.999999999999773
 30
0.0
 11
-11.81821232294419
 21
35.999999999999773
 31
0.0
  0
LINE
  5
66F7
  8
CRS
 62
     7
 10
11.499960278592191
 20
35.999991693561469
 30
0.0
 11
-11.5000397214078
 21
35.999991693561469
 31
0.0
  0
LINE
  5
66F8
  8
DRG
 62
     7
 10
0.0
 20
50.999999999999773
 30
0.0
 11
-8.9395048383209996
 21
42.060495161678773
 31
0.0
  0
LINE
  5
66F9
  8
DRG
 62
     7
 10
0.0
 20
50.999999999999773
 30
0.0
 11
8.9395048383207723
 21
42.060495161679
 31
0.0
  0
LINE
  5
66FA
  8
CRS
 62
     7
 10
0.0
 20
48.519898715109321
 30
0.0
 11
0.0
 21
23.480101284890221
 31
0.0
  0
LINE
  5
66FB
  8
CRS
 62
     7
 10
-0.0000397214078021
 20
47.499991693561462
 30
0.0
 11
-0.0000397214078021
 21
24.499991693561459
 31
0.0
  0
CIRCLE
  5
66FC
  8
DRG2
 62
     7
 10
-0.0000397214078021
 20
35.999999999999773
 30
0.0
 40
5.4999999999998863
  0
POLYLINE
  5
66FD
  8
DRG2
 62
     7
 66
     1
 10
0.0
 20
0.0
 30
0.0
 70
     1
  0
VERTEX
  5
693A
  8
DRG2
 62
     7
 10
-1.732050807568839
 20
38.999991693561469
 30
0.0
  0
VERTEX
  5
693B
  8
DRG2
 62
     7
 10
-3.4641016151377921
 20
35.999991693561469
 30
0.0
  0
VERTEX
  5
693C
  8
DRG2
 62
     7
 10
-1.732050807568839
 20
32.999991693561469
 30
0.0
  0
VERTEX
  5
693D
  8
DRG2
 62
     7
 10
1.732050807568839
 20
32.999991693561469
 30
0.0
  0
VERTEX
  5
693E
  8
DRG2
 62
     7
 10
3.4641016151377921
 20
35.999991693561469
 30
0.0
  0
VERTEX
  5
693F
  8
DRG2
 62
     7
 10
1.732050807568839
 20
38.999991693561469
 30
0.0
  0
SEQEND
  5
6940
  8
DRG2
 62
     7
  0
CIRCLE
  5
66FE
  8
DRG2
 62
     7
 10
-0.0000397214078021
 20
35.999999999999773
 30
0.0
 40
6.5
  0
CIRCLE
  5
66FF
  8
DRG2
 62
     7
 10
-0.0000397214078021
 20
35.999999999999773
 30
0.0
 40
6.7500000000001128
  0
ARC
  5
6700
  8
DRG2
 62
     7
 10
-2.9999999999973852
 20
55.000000000001357
 30
0.0
 40
4.9999999999973994
 50
306.86989764580488
 51
53.130102354169658
  0
ARC
  5
6701
  8
DRG2
 62
     7
 10
2.999999999999829
 20
55.000000000000057
 30
0.0
 40
4.9999999999998153
 50
126.8698976458433
 51
233.13010235416121
  0
LINE
  5
6702
  8
DRG2
 62
     7
 10
-3.0
 20
50.000000000000057
 30
0.0
 11
-3.0
 21
60.000000000000057
 31
0.0
  0
LINE
  5
6703
  8
DRG2
 62
     7
 10
-5.0
 20
50.000000000000057
 30
0.0
 11
-5.0
 21
60.000000000000057
 31
0.0
  0
LINE
  5
6704
  8
DRG2
 62
     7
 10
-5.0
 20
60.000000000000057
 30
0.0
 11
-3.0
 21
60.0
 31
0.0
  0
LINE
  5
6705
  8
DRG2
 62
     7
 10
-5.0
 20
50.000000000000057
 30
0.0
 11
-3.0
 21
50.000000000000057
 31
0.0
  0
LINE
  5
6706
  8
DRG2
 62
     7
 10
-5.0
 20
60.0
 30
0.0
 11
-3.4999999999998859
 21
60.000000000000057
 31
0.0
  0
LINE
  5
6707
  8
DRG2
 62
     7
 10
-5.0
 20
50.000000000000057
 30
0.0
 11
-3.4999999999999432
 21
50.000000000000107
 31
0.0
  0
LINE
  5
6708
  8
DRG2
 62
     7
 10
3.0000000000002269
 20
60.000000000000057
 30
0.0
 11
5.0000000000002274
 21
60.000000000000057
 31
0.0
  0
LINE
  5
6709
  8
DRG2
 62
     7
 10
3.0000000000002549
 20
50.000000000000057
 30
0.0
 11
5.0000000000002549
 21
50.000000000000107
 31
0.0
  0
LINE
  5
670A
  8
DRG2
 62
     7
 10
3.0000000000002269
 20
60.0
 30
0.0
 11
3.0000000000002549
 21
50.000000000000107
 31
0.0
  0
LINE
  5
670B
  8
DRG2
 62
     7
 10
3.5000000000001128
 20
60.0
 30
0.0
 11
5.0000000000002274
 21
60.0
 31
0.0
  0
LINE
  5
670C
  8
DRG2
 62
     7
 10
3.5000000000002269
 20
50.000000000000107
 30
0.0
 11
5.0000000000002274
 21
50.000000000000107
 31
0.0
  0
LINE
  5
670D
  8
DRG2
 62
     7
 10
5.0000000000002274
 20
60.0
 30
0.0
 11
5.0000000000002549
 21
50.000000000000107
 31
0.0
  0
ARC
  5
670E
  8
DRG
 62
     7
 10
-42.607695154587638
 20
111.22499999999989
 30
0.0
 40
6.0
 50
210.00000000000051
 51
270.0
  0
LINE
  5
670F
  8
DRG
 62
     7
 10
80.250000000000227
 20
83.724999999999909
 30
0.0
 11
157.24999999999969
 21
83.724999999999909
 31
0.0
  0
LINE
  5
6710
  8
DRG
 62
     7
 10
80.250000000000227
 20
68.724999999999909
 30
0.0
 11
157.24999999999969
 21
68.724999999999909
 31
0.0
  0
LINE
  5
6711
  8
DRG2
 62
     7
 10
85.850000000000136
 20
81.499672521968023
 30
0.0
 11
85.850000000000136
 21
70.995672521968118
 31
0.0
  0
LINE
  5
6712
  8
DRG2
 62
     7
 10
85.850000000000136
 20
70.995672521968118
 30
0.0
 11
85.850000000000136
 21
81.499672521968023
 31
0.0
  0
ARC
  5
6713
  8
DRG2
 62
     7
 10
73.850000000000136
 20
76.24767252196807
 30
0.0
 40
12.0
 50
343.03983164449028
 51
16.960168355509708
  0
LINE
  5
6714
  8
DRG
 62
     7
 10
72.0
 20
111.22499999999989
 30
0.0
 11
72.0
 21
41.224999999999902
 31
0.0
  0
LINE
  5
6715
  8
DRG
 62
     7
 10
47.0
 20
107.1374997682003
 30
0.0
 11
47.0
 21
41.224999999999902
 31
0.0
  0
LINE
  5
6716
  8
DRG
 62
     7
 10
80.249999999999773
 20
111.22499999999989
 30
0.0
 11
80.250000000000227
 21
41.224999999999902
 31
0.0
  0
LINE
  5
6717
  8
DRG
 62
     7
 10
72.0
 20
41.224999999999902
 30
0.0
 11
80.250000000000227
 21
41.224999999999902
 31
0.0
  0
ARC
  5
6718
  8
DRG
 62
     7
 10
71.328461184859407
 20
36.224999999999909
 30
0.0
 40
5.0
 50
90.0
 51
206.9242747243068
  0
LINE
  5
6719
  8
DRG
 62
     7
 10
71.328461184859407
 20
41.224999999999902
 30
0.0
 11
72.0
 21
41.224999999999902
 31
0.0
  0
LINE
  5
671A
  8
DRG2
 62
     7
 10
85.850000000000136
 20
54.954327478031701
 30
0.0
 11
85.850000000000136
 21
44.450327478031788
 31
0.0
  0
LINE
  5
671B
  8
DRG2
 62
     7
 10
85.850000000000136
 20
44.450327478031788
 30
0.0
 11
85.850000000000136
 21
54.954327478031701
 31
0.0
  0
ARC
  5
671C
  8
DRG2
 62
     7
 10
73.850000000000136
 20
49.702327478031748
 30
0.0
 40
12.0
 50
343.03983164449028
 51
16.960168355509708
  0
ARC
  5
671D
  8
DRG2
 62
     7
 10
82.650000000000318
 20
44.450327478031788
 30
0.0
 40
3.2000000000000002
 50
326.8898742888598
 51
33.195671003547908
  0
LINE
  5
671E
  8
DRG2
 62
     7
 10
80.250000000000227
 20
46.202327478031741
 30
0.0
 11
85.328093356656836
 21
46.201845668926119
 31
0.0
  0
LINE
  5
671F
  8
DRG2
 62
     7
 10
80.250000000000227
 20
42.702327478031741
 30
0.0
 11
85.330391016251497
 21
42.702327478031741
 31
0.0
  0
ARC
  5
6720
  8
DRG2
 62
     7
 10
82.650000000000318
 20
54.954327478031701
 30
0.0
 40
3.2000000000000002
 50
326.80432899645211
 51
33.110125711140192
  0
LINE
  5
6721
  8
CRS
 62
     7
 10
87.844057049006764
 20
49.724999999999909
 30
0.0
 11
78.66741806207915
 21
49.724999999999909
 31
0.0
  0
LINE
  5
6722
  8
DRG2
 62
     7
 10
85.328240283249428
 20
53.202327478031741
 30
0.0
 11
80.250000000000227
 21
53.202327478031741
 31
0.0
  0
LINE
  5
6723
  8
DRG2
 62
     7
 10
85.330391016251497
 20
56.702327478031748
 30
0.0
 11
80.250000000000227
 21
56.702327478031748
 31
0.0
  0
ARC
  5
6724
  8
DRG2
 62
     7
 10
82.650000000000318
 20
70.995672521968118
 30
0.0
 40
3.2000000000000002
 50
326.8898742888598
 51
33.195671003547908
  0
LINE
  5
6725
  8
DRG2
 62
     7
 10
85.330391016251497
 20
69.24767252196807
 30
0.0
 11
80.250000000000227
 21
69.24767252196807
 31
0.0
  0
LINE
  5
6726
  8
DRG2
 62
     7
 10
85.328240283249428
 20
72.74767252196807
 30
0.0
 11
80.250000000000227
 21
72.74767252196807
 31
0.0
  0
LINE
  5
6727
  8
DRG
 62
     7
 10
71.999999999999773
 20
111.22499999999989
 30
0.0
 11
80.249999999999773
 21
111.22499999999989
 31
0.0
  0
ARC
  5
6728
  8
DRG
 62
     7
 10
53.0
 20
105.22499999999989
 30
0.0
 40
6.0
 50
90.0
 51
150.0000000000031
  0
ARC
  5
6729
  8
DRG
 62
     7
 10
42.607695154585826
 20
111.22499999999989
 30
0.0
 40
6.0
 50
270.0
 51
330.00000000000023
  0
LINE
  5
672A
  8
DRG
 62
     7
 10
53.0
 20
111.22499999999989
 30
0.0
 11
72.0
 21
111.22499999999989
 31
0.0
  0
ARC
  5
672B
  8
DRG2
 62
     7
 10
82.650000000000318
 20
107.99967252196799
 30
0.0
 40
3.2000000000000002
 50
326.80432899645211
 51
33.110125711140192
  0
ARC
  5
672C
  8
DRG2
 62
     7
 10
82.650000000000318
 20
81.499672521968023
 30
0.0
 40
3.2000000000000002
 50
326.80432899645211
 51
33.110125711140192
  0
LINE
  5
672D
  8
DRG2
 62
     7
 10
80.250000000000227
 20
83.24767252196807
 30
0.0
 11
85.330391016251497
 21
83.24767252196807
 31
0.0
  0
LINE
  5
672E
  8
DRG2
 62
     7
 10
80.250000000000227
 20
79.74767252196807
 30
0.0
 11
85.328093356656836
 21
79.748154331073692
 31
0.0
  0
ARC
  5
672F
  8
DRG2
 62
     7
 10
82.650000000000318
 20
97.495672521968103
 30
0.0
 40
3.2000000000000002
 50
326.8898742888598
 51
33.195671003547908
  0
ARC
  5
6730
  8
DRG2
 62
     7
 10
73.850000000000136
 20
102.747672521968
 30
0.0
 40
12.0
 50
343.03983164449028
 51
16.960168355509708
  0
LINE
  5
6731
  8
CRS
 62
     7
 10
87.844057049006764
 20
102.72499999999989
 30
0.0
 11
78.66741806207915
 21
102.72499999999989
 31
0.0
  0
LINE
  5
6732
  8
DRG2
 62
     7
 10
85.330391016251497
 20
95.74767252196807
 30
0.0
 11
80.250000000000227
 21
95.74767252196807
 31
0.0
  0
LINE
  5
6733
  8
DRG2
 62
     7
 10
85.328240283249428
 20
99.247672521968084
 30
0.0
 11
80.250000000000227
 21
99.247672521968084
 31
0.0
  0
LINE
  5
6734
  8
DRG2
 62
     7
 10
80.250000000000227
 20
106.247672521968
 30
0.0
 11
85.328093356656836
 21
106.24815433107359
 31
0.0
  0
LINE
  5
6735
  8
DRG2
 62
     7
 10
85.850000000000136
 20
107.99967252196799
 30
0.0
 11
85.850000000000136
 21
97.495672521968103
 31
0.0
  0
LINE
  5
6736
  8
DRG2
 62
     7
 10
85.850000000000136
 20
97.495672521968103
 30
0.0
 11
85.850000000000136
 21
107.99967252196799
 31
0.0
  0
LINE
  5
6737
  8
DRG2
 62
     7
 10
80.250000000000227
 20
109.747672521968
 30
0.0
 11
85.330391016251497
 21
109.747672521968
 31
0.0
  0
LINE
  5
6738
  8
DRG
 62
     7
 10
157.24999999999969
 20
83.724999999999909
 30
0.0
 11
157.24999999999969
 21
68.724999999999909
 31
0.0
  0
LINE
  5
6739
  8
DRG
 62
     7
 10
157.99999999999969
 20
82.974999999999895
 30
0.0
 11
157.99999999999969
 21
69.474999999999895
 31
0.0
  0
LINE
  5
673A
  8
DRG
 62
     7
 10
157.24999999999969
 20
68.724999999999909
 30
0.0
 11
157.99999999999969
 21
69.474999999999895
 31
0.0
  0
LINE
  5
673B
  8
DRG
 62
     7
 10
157.24999999999969
 20
83.724999999999909
 30
0.0
 11
157.99999999999969
 21
82.974999999999895
 31
0.0
  0
ENDBLK
  5
673D
  8
0
 62
     7
  0
BLOCK
  8
0
  2
KEYWAY
 70
     0
 10
0.0
 20
0.0
 30
0.0
  3
KEYWAY
  1

  0
LINE
  5
673F
  8
CRS
 62
     7
 10
-0.0000000000000568
 20
-135.00000000000011
 30
0.0
 11
0.0
 21
134.9999999999998
 31
0.0
  0
POLYLINE
  5
6740
  8
DRG
 62
     7
 66
     1
 10
0.0
 20
0.0
 30
0.0
 70
     1
  0
VERTEX
  5
6942
  8
DRG
 62
     7
 10
-219.7024851172595
 20
-195.8105627110981
 30
0.0
  0
VERTEX
  5
6943
  8
DRG
 62
     7
 10
227.7674573586211
 20
-195.8105627110981
 30
0.0
  0
VERTEX
  5
6944
  8
DRG
 62
     7
 10
227.7674573586211
 20
270.50319609235561
 30
0.0
  0
VERTEX
  5
6945
  8
DRG
 62
     7
 10
-219.7024851172595
 20
270.50319609235561
 30
0.0
  0
SEQEND
  5
6946
  8
DRG
 62
     7
  0
TEXT
  5
6741
  8
0
 10
-14.401659586233791
 20
-166.53978582622179
 30
0.0
 40
20.0
  1
X3
  0
LINE
  5
6742
  8
DRG
 62
     7
 10
-42.607695154587702
 20
105.2249999999997
 30
0.0
 11
42.607695154585763
 21
105.2249999999997
 31
0.0
  0
ARC
  5
6743
  8
DRG
 62
     7
 10
-0.0000000000000568
 20
-0.0000000000001137
 30
0.0
 40
85.0
 50
270.0
 51
29.012472408899111
  0
LINE
  5
6744
  8
DRG
 62
     7
 10
-45.923850012820253
 20
-56.000000000000121
 30
0.0
 11
45.923850012820083
 21
-56.000000000000121
 31
0.0
  0
LINE
  5
6745
  8
CRS
 62
     7
 10
-135.0
 20
-0.0000000000001137
 30
0.0
 11
134.99999999999989
 21
-0.0000000000001137
 31
0.0
  0
LINE
  5
6746
  8
CRS
 62
     7
 10
-95.459415460183948
 20
-95.459415460184005
 30
0.0
 11
95.459415460183948
 21
95.45941546018372
 31
0.0
  0
LINE
  5
6747
  8
CRS
 62
     7
 10
95.459415460183834
 20
-95.459415460184005
 30
0.0
 11
-95.459415460183834
 21
95.459415460183877
 31
0.0
  0
TEXT
  5
6748
  8
DRG
 62
     7
 10
-150.00626375449221
 20
225.57508922389729
 30
0.0
 40
10.0
  1
SHOWING STANDARD KEYWAY POSITIONS.
  0
TEXT
  5
6749
  8
DRG
 62
     7
 10
-148.99617380968169
 20
208.90842255723061
 30
0.0
 40
10.0
  1
ALTERNATIVES AVAILABLE ON REQUEST
  0
LINE
  5
674A
  8
DRG
 62
     7
 10
-72.000000000000057
 20
111.2249999999997
 30
0.0
 11
-72.000000000000057
 21
41.224999999999802
 31
0.0
  0
LINE
  5
674B
  8
DRG
 62
     7
 10
-80.250000000000057
 20
111.2249999999997
 30
0.0
 11
-80.250000000000057
 21
41.224999999999802
 31
0.0
  0
LINE
  5
674C
  8
DRG2
 62
     7
 10
-80.250000000000057
 20
56.702327478031627
 30
0.0
 11
-80.250000000000057
 21
42.702327478031627
 31
0.0
  0
ARC
  5
674D
  8
DRG
 62
     7
 10
-0.0000000000000568
 20
-0.0000000000001137
 30
0.0
 40
85.0
 50
150.98752759110079
 51
270.0
  0
TEXT
  5
674E
  8
0
 10
-134.60238914624591
 20
-125.15696321242071
 30
0.0
 40
20.0
  1
Z3
  0
TEXT
  5
674F
  8
0
 10
-181.0665367214242
 20
-10.09252903908509
 30
0.0
 40
20.0
  1
X4
  0
ARC
  5
6750
  8
DRG
 62
     7
 10
-0.0000000000000568
 20
-0.0000000000001137
 30
0.0
 40
75.0
 50
153.07572527569229
 51
225.0474639810752
  0
ARC
  5
6751
  8
DRG
 62
     7
 10
-45.923850012820189
 20
-46.000000000000107
 30
0.0
 40
10.0
 50
225.0474639810752
 51
270.0
  0
CIRCLE
  5
6752
  8
DRG
 62
     7
 10
-0.0000000000000568
 20
-0.0000000000001137
 30
0.0
 40
34.400136074086419
  0
LINE
  5
6753
  8
DRG
 62
     7
 10
-80.250000000000057
 20
41.224999999999802
 30
0.0
 11
-72.000000000000057
 21
41.224999999999802
 31
0.0
  0
ARC
  5
6754
  8
DRG
 62
     7
 10
-71.328461184859691
 20
36.224999999999788
 30
0.0
 40
5.0
 50
333.07572527569238
 51
90.0
  0
LINE
  5
6755
  8
DRG
 62
     7
 10
-72.000000000000057
 20
41.224999999999802
 30
0.0
 11
-71.328461184859691
 21
41.224999999999802
 31
0.0
  0
TEXT
  5
6756
  8
0
 10
-130.56202852417931
 20
102.9532307622796
 30
0.0
 40
20.0
  1
Z4
  0
LINE
  5
6757
  8
DRG2
 62
     7
 10
-80.250000000000057
 20
95.747672521967957
 30
0.0
 11
-80.250000000000057
 21
109.7476725219679
 31
0.0
  0
LINE
  5
6758
  8
DRG2
 62
     7
 10
-80.250000000000057
 20
69.247672521967957
 30
0.0
 11
-80.250000000000057
 21
83.247672521967957
 31
0.0
  0
LINE
  5
6759
  8
DRG
 62
     7
 10
-80.250000000000057
 20
111.22500000000019
 30
0.0
 11
-53.000000000000057
 21
111.22499999999999
 31
0.0
  0
ARC
  5
675A
  8
DRG
 62
     7
 10
-42.607695154587702
 20
111.2249999999997
 30
0.0
 40
6.0
 50
210.00000000000051
 51
270.0
  0
ARC
  5
675B
  8
DRG
 62
     7
 10
-53.000000000000057
 20
105.2249999999997
 30
0.0
 40
6.0
 50
30.000000000003361
 51
90.0
  0
TEXT
  5
675C
  8
0
 10
-14.401659586233791
 20
146.3547277480516
 30
0.0
 40
20.0
  1
X1
  0
LINE
  5
675D
  8
DRG
 62
     7
 10
71.999999999999943
 20
111.2249999999997
 30
0.0
 11
71.999999999999943
 21
41.224999999999802
 31
0.0
  0
LINE
  5
675E
  8
DRG
 62
     7
 10
80.249999999999716
 20
111.2249999999997
 30
0.0
 11
80.250000000000185
 21
41.224999999999802
 31
0.0
  0
TEXT
  5
675F
  8
0
 10
145.69763122203901
 20
-10.09252903908509
 30
0.0
 40
20.0
  1
X2
  0
ARC
  5
6760
  8
DRG
 62
     7
 10
-0.0000000000000568
 20
-0.0000000000001137
 30
0.0
 40
75.0
 50
314.95253601892477
 51
26.924274724307629
  0
ARC
  5
6761
  8
DRG
 62
     7
 10
45.923850012820083
 20
-46.000000000000107
 30
0.0
 40
10.0
 50
270.0
 51
314.95253601892477
  0
TEXT
  5
6762
  8
0
 10
102.7687992965222
 20
-124.1476260264353
 30
0.0
 40
20.0
  1
Z2
  0
ARC
  5
6763
  8
DRG
 62
     7
 10
71.32846118485935
 20
36.224999999999788
 30
0.0
 40
5.0
 50
90.0
 51
206.92427472430759
  0
LINE
  5
6764
  8
DRG
 62
     7
 10
71.999999999999943
 20
41.224999999999802
 30
0.0
 11
80.250000000000185
 21
41.224999999999802
 31
0.0
  0
LINE
  5
6765
  8
DRG
 62
     7
 10
71.32846118485935
 20
41.224999999999802
 30
0.0
 11
71.999999999999943
 21
41.224999999999802
 31
0.0
  0
LINE
  5
6766
  8
DRG
 62
     7
 10
52.999999999999943
 20
111.2249999999997
 30
0.0
 11
71.999999999999943
 21
111.2249999999997
 31
0.0
  0
ARC
  5
6767
  8
DRG
 62
     7
 10
52.999999999999943
 20
105.2249999999997
 30
0.0
 40
6.0
 50
90.0
 51
150.00000000000389
  0
ARC
  5
6768
  8
DRG
 62
     7
 10
42.607695154585763
 20
111.2249999999997
 30
0.0
 40
6.0
 50
270.0
 51
329.99999999999937
  0
LINE
  5
6769
  8
DRG
 62
     7
 10
71.999999999999716
 20
111.2249999999997
 30
0.0
 11
80.249999999999716
 21
111.2249999999997
 31
0.0
  0
TEXT
  5
676A
  8
0
 10
102.7687992965222
 20
102.9532307622796
 30
0.0
 40
20.0
  1
Z1
  0
TEXT
  5
676B
  8
DRG
 62
     7
 10
-180.30896884140401
 20
242.24175589056401
 30
0.0
 40
10.0
  1
PLAN VIEW OF GEARBOX IN CLOSED POSITION
  0
ENDBLK
  5
676D
  8
0
  0
BLOCK
  8
0
  2
ROTORK_GEARS_LOGO
 70
     0
 10
0.0
 20
0.0
 30
0.0
  3
ROTORK_GEARS_LOGO
  1

  0
INSERT
  5
67AE
  8
0
  2
LOGO
 10
16.592937132437989
 20
3.172089893972041
 30
0.0
  0
ENDBLK
  5
67B0
  8
0
  0
BLOCK
  8
0
  2
AS6
 70
     0
 10
0.0
 20
0.0
 30
0.0
  3
AS6
  1

  0
LINE
  5
67D0
  8
DRG
 62
     7
 10
-99.999999999999545
 20
-164.9999999999998
 30
0.0
 11
-99.999999999999545
 21
165.00000000000011
 31
0.0
  0
LINE
  5
67D1
  8
DRG
 62
     7
 10
-90.0
 20
164.9999999999998
 30
0.0
 11
-90.0
 21
-164.9999999999998
 31
0.0
  0
LINE
  5
67D2
  8
CRS
 62
     7
 10
-75.000002416295501
 20
-155.9999999999996
 30
0.0
 11
-95.0
 21
-155.9999999999996
 31
0.0
  0
LINE
  5
67D3
  8
DRG2
 62
     7
 10
-80.000002416295501
 20
-163.1349514510874
 30
0.0
 11
-81.000002416295487
 21
-164.1349514510874
 31
0.0
  0
LINE
  5
67D4
  8
DRG2
 62
     7
 10
-81.000002416295274
 20
-164.1349514510874
 30
0.0
 11
-81.000002416295487
 21
-147.86495145108759
 31
0.0
  0
LINE
  5
67D5
  8
DRG
 62
     7
 10
-99.999999999999545
 20
-164.9999999999998
 30
0.0
 11
-89.999999999999545
 21
-164.9999999999998
 31
0.0
  0
LINE
  5
67D6
  8
DRG2
 62
     7
 10
-90.000002416295501
 20
-164.1349514510874
 30
0.0
 11
-81.000002416295274
 21
-164.1349514510874
 31
0.0
  0
LINE
  5
67D7
  8
DRG2
 62
     7
 10
-90.000002416295501
 20
-147.86495145108759
 30
0.0
 11
-81.000002416295487
 21
-147.86495145108759
 31
0.0
  0
LINE
  5
67D8
  8
DRG2
 62
     7
 10
-81.000002416295487
 20
-147.86495145108759
 30
0.0
 11
-80.000002416295501
 21
-148.86495145108759
 31
0.0
  0
LINE
  5
67D9
  8
DRG2
 62
     7
 10
-80.000002416295501
 20
-163.1349514510874
 30
0.0
 11
-80.000002416295501
 21
-148.86495145108759
 31
0.0
  0
LINE
  5
67DA
  8
DRG
 62
     7
 10
0.0000000000002274
 20
63.749999999999893
 30
0.0
 11
-0.0000000000002274
 21
-63.75
 31
0.0
  0
LINE
  5
67DB
  8
DRG
 62
     7
 10
-17.49999999999886
 20
-63.75
 30
0.0
 11
-17.49999999999886
 21
63.749999999999893
 31
0.0
  0
LINE
  5
67DC
  8
DRG
 62
     7
 10
-80.0
 20
6.0
 30
0.0
 11
-22.499999999999321
 21
6.0
 31
0.0
  0
LINE
  5
67DD
  8
DRG
 62
     7
 10
-80.0
 20
-6.0
 30
0.0
 11
-22.49999999999886
 21
-6.0
 31
0.0
  0
LINE
  5
67DE
  8
CRS
 62
     7
 10
-75.000002416295501
 20
-110.3086578651012
 30
0.0
 11
-95.0
 21
-110.3086578651012
 31
0.0
  0
LINE
  5
67DF
  8
DRG
 62
     7
 10
-80.0
 20
-55.000000000000107
 30
0.0
 11
-29.49999999999886
 21
-55.000000000000107
 31
0.0
  0
LINE
  5
67E0
  8
DRG
 62
     7
 10
-17.499999999999769
 20
-63.75
 30
0.0
 11
-89.999999999999545
 21
-139.9999999999998
 31
0.0
  0
ARC
  5
67E1
  8
DRG
 62
     7
 10
-80.0
 20
-65.0
 30
0.0
 40
10.0
 50
90.0
 51
180.0
  0
LINE
  5
67E2
  8
DRG
 62
     7
 10
-89.999999999999545
 20
-130.9999999999998
 30
0.0
 11
-90.0
 21
-67.0
 31
0.0
  0
LINE
  5
67E3
  8
DRG2
 62
     7
 10
-90.000002416295501
 20
-102.173609316189
 30
0.0
 11
-81.000002416295487
 21
-102.173609316189
 31
0.0
  0
LINE
  5
67E4
  8
DRG2
 62
     7
 10
-81.000002416295487
 20
-102.173609316189
 30
0.0
 11
-80.000002416295501
 21
-103.173609316189
 31
0.0
  0
LINE
  5
67E5
  8
DRG2
 62
     7
 10
-90.000002416295501
 20
-118.443609316189
 30
0.0
 11
-81.000002416295274
 21
-118.443609316189
 31
0.0
  0
LINE
  5
67E6
  8
DRG2
 62
     7
 10
-80.000002416295501
 20
-117.443609316189
 30
0.0
 11
-81.000002416295487
 21
-118.443609316189
 31
0.0
  0
LINE
  5
67E7
  8
DRG2
 62
     7
 10
-81.000002416295274
 20
-118.443609316189
 30
0.0
 11
-81.000002416295487
 21
-102.173609316189
 31
0.0
  0
LINE
  5
67E8
  8
DRG2
 62
     7
 10
-80.000002416295501
 20
-117.443609316189
 30
0.0
 11
-80.000002416295501
 21
-103.173609316189
 31
0.0
  0
LINE
  5
67E9
  8
DRG2
 62
     7
 10
-90.000002416295501
 20
8.1349514510877725
 30
0.0
 11
-81.000002416295274
 21
8.1349514510877725
 31
0.0
  0
LINE
  5
67EA
  8
DRG2
 62
     7
 10
-80.000002416295501
 20
7.1349514510877716
 30
0.0
 11
-81.000002416295487
 21
8.1349514510877725
 31
0.0
  0
LINE
  5
67EB
  8
DRG2
 62
     7
 10
-90.000002416295501
 20
-8.1350485489120956
 30
0.0
 11
-81.000002416295487
 21
-8.1350485489120956
 31
0.0
  0
LINE
  5
67EC
  8
DRG2
 62
     7
 10
-81.000002416295487
 20
-8.1350485489120956
 30
0.0
 11
-80.000002416295501
 21
-7.1350485489120947
 31
0.0
  0
LINE
  5
67ED
  8
DRG2
 62
     7
 10
-81.000002416295274
 20
8.1349514510877725
 30
0.0
 11
-81.000002416295487
 21
-8.1350485489120956
 31
0.0
  0
LINE
  5
67EE
  8
DRG2
 62
     7
 10
-80.000002416295501
 20
7.1349514510877716
 30
0.0
 11
-80.000002416295501
 21
-7.1350485489120947
 31
0.0
  0
LINE
  5
67EF
  8
DRG2
 62
     7
 10
-29.49999999999886
 20
-41.697474683058537
 30
0.0
 11
-29.49999999999886
 21
-57.297474683058446
 31
0.0
  0
LINE
  5
67F0
  8
DRG2
 62
     7
 10
-28.299999999999041
 20
-40.497474683058499
 30
0.0
 11
-28.29999999999859
 21
-58.497474683058492
 31
0.0
  0
LINE
  5
67F1
  8
DRG
 62
     7
 10
-17.499999999999769
 20
-63.75
 30
0.0
 11
0.0000000000002274
 21
-63.75
 31
0.0
  0
LINE
  5
67F2
  8
DRG2
 62
     7
 10
-28.29999999999859
 20
-58.497474683058492
 30
0.0
 11
-29.49999999999886
 21
-57.297474683058446
 31
0.0
  0
LINE
  5
67F3
  8
DRG2
 62
     7
 10
-17.49999999999886
 20
-58.497474683058492
 30
0.0
 11
-28.29999999999859
 21
-58.497474683058492
 31
0.0
  0
LINE
  5
67F4
  8
CRS
 62
     7
 10
-12.49999999999886
 20
-49.497474683058613
 30
0.0
 11
-34.499999999998863
 21
-49.497474683058613
 31
0.0
  0
ARC
  5
67F5
  8
DRG
 62
     7
 10
-22.49999999999886
 20
-11.0
 30
0.0
 40
5.0
 50
0.0
 51
90.0
  0
LINE
  5
67F6
  8
DRG2
 62
     7
 10
-29.49999999999886
 20
-41.697474683058537
 30
0.0
 11
-28.29999999999859
 21
-40.497474683058499
 31
0.0
  0
LINE
  5
67F7
  8
DRG2
 62
     7
 10
-17.49999999999886
 20
-40.497474683058499
 30
0.0
 11
-28.299999999999041
 21
-40.497474683058499
 31
0.0
  0
ARC
  5
67F8
  8
DRG
 62
     7
 10
-22.499999999999321
 20
11.0
 30
0.0
 40
5.0
 50
270.0
 51
0.0
  0
LINE
  5
67F9
  8
CRS
 62
     7
 10
-75.000002416295501
 20
155.9999999999998
 30
0.0
 11
-95.0
 21
155.9999999999998
 31
0.0
  0
LINE
  5
67FA
  8
CRS
 62
     7
 10
-75.000002416295501
 20
110.30865786510149
 30
0.0
 11
-95.0
 21
110.30865786510149
 31
0.0
  0
LINE
  5
67FB
  8
DRG
 62
     7
 10
-80.0
 20
55.000000000000107
 30
0.0
 11
-29.49999999999886
 21
55.000000000000107
 31
0.0
  0
LINE
  5
67FC
  8
DRG
 62
     7
 10
-17.499999999999769
 20
63.749999999999893
 30
0.0
 11
-89.999999999999545
 21
140.00000000000011
 31
0.0
  0
ARC
  5
67FD
  8
DRG
 62
     7
 10
-80.0
 20
65.000000000000114
 30
0.0
 40
10.0
 50
180.0
 51
270.0
  0
LINE
  5
67FE
  8
DRG2
 62
     7
 10
-90.000002416295501
 20
118.4436093161892
 30
0.0
 11
-81.000002416295274
 21
118.4436093161892
 31
0.0
  0
LINE
  5
67FF
  8
DRG2
 62
     7
 10
-80.000002416295501
 20
117.4436093161892
 30
0.0
 11
-81.000002416295487
 21
118.4436093161892
 31
0.0
  0
LINE
  5
6800
  8
DRG2
 62
     7
 10
-90.000002416295501
 20
102.1736093161893
 30
0.0
 11
-81.000002416295487
 21
102.1736093161893
 31
0.0
  0
LINE
  5
6801
  8
DRG2
 62
     7
 10
-81.000002416295487
 20
102.1736093161893
 30
0.0
 11
-80.000002416295501
 21
103.1736093161893
 31
0.0
  0
LINE
  5
6802
  8
DRG2
 62
     7
 10
-80.000002416295501
 20
117.4436093161892
 30
0.0
 11
-80.000002416295501
 21
103.1736093161893
 31
0.0
  0
LINE
  5
6803
  8
DRG2
 62
     7
 10
-81.000002416295274
 20
118.4436093161892
 30
0.0
 11
-81.000002416295487
 21
102.1736093161893
 31
0.0
  0
LINE
  5
6804
  8
DRG
 62
     7
 10
-99.999999999999545
 20
165.00000000000011
 30
0.0
 11
-89.999999999999545
 21
164.9999999999998
 31
0.0
  0
LINE
  5
6805
  8
DRG2
 62
     7
 10
-90.000002416295501
 20
164.1349514510876
 30
0.0
 11
-81.000002416295274
 21
164.1349514510876
 31
0.0
  0
LINE
  5
6806
  8
DRG2
 62
     7
 10
-80.000002416295501
 20
163.1349514510876
 30
0.0
 11
-81.000002416295487
 21
164.1349514510876
 31
0.0
  0
LINE
  5
6807
  8
DRG2
 62
     7
 10
-90.000002416295501
 20
147.8649514510879
 30
0.0
 11
-81.000002416295487
 21
147.8649514510879
 31
0.0
  0
LINE
  5
6808
  8
DRG2
 62
     7
 10
-81.000002416295487
 20
147.8649514510879
 30
0.0
 11
-80.000002416295501
 21
148.8649514510879
 31
0.0
  0
LINE
  5
6809
  8
DRG2
 62
     7
 10
-80.000002416295501
 20
163.1349514510876
 30
0.0
 11
-80.000002416295501
 21
148.8649514510879
 31
0.0
  0
LINE
  5
680A
  8
DRG2
 62
     7
 10
-81.000002416295274
 20
164.1349514510876
 30
0.0
 11
-81.000002416295487
 21
147.8649514510879
 31
0.0
  0
LINE
  5
680B
  8
CRS
 62
     7
 10
-12.49999999999886
 20
49.497474683058613
 30
0.0
 11
-34.499999999998863
 21
49.497474683058613
 31
0.0
  0
LINE
  5
680C
  8
DRG
 62
     7
 10
-17.499999999999769
 20
63.749999999999893
 30
0.0
 11
0.0000000000002274
 21
63.749999999999893
 31
0.0
  0
LINE
  5
680D
  8
DRG2
 62
     7
 10
-28.299999999999041
 20
40.497474683058613
 30
0.0
 11
-28.29999999999859
 21
58.497474683058613
 31
0.0
  0
LINE
  5
680E
  8
DRG2
 62
     7
 10
-28.29999999999859
 20
58.497474683058613
 30
0.0
 11
-29.49999999999886
 21
57.29747468305856
 31
0.0
  0
LINE
  5
680F
  8
DRG2
 62
     7
 10
-29.49999999999886
 20
41.697474683058658
 30
0.0
 11
-28.29999999999859
 21
40.497474683058613
 31
0.0
  0
LINE
  5
6810
  8
DRG2
 62
     7
 10
-29.49999999999886
 20
41.697474683058658
 30
0.0
 11
-29.49999999999886
 21
57.29747468305856
 31
0.0
  0
LINE
  5
6811
  8
DRG2
 62
     7
 10
-17.49999999999886
 20
40.497474683058613
 30
0.0
 11
-28.299999999999041
 21
40.497474683058613
 31
0.0
  0
LINE
  5
6812
  8
DRG2
 62
     7
 10
-17.49999999999886
 20
58.497474683058613
 30
0.0
 11
-28.29999999999859
 21
58.497474683058613
 31
0.0
  0
ENDBLK
  5
6814
  8
0
  0
BLOCK
  8
0
  2
*U6
 70
     1
 10
0.0
 20
0.0
 30
0.0
  3
*U6
  1

  0
SOLID
  5
682D
  8
DRG
  6
CONTINUOUS
 62
     7
 10
33.5305051013693
 20
6.4335459870298406
 30
0.0
 11
18.100585347853119
 21
3.392610111620797
 31
0.0
 12
25.69916102541524
 22
3.392610111620797
 32
0.0
 13
25.69916102541524
 23
3.392610111620797
 33
0.0
  0
SOLID
  5
682E
  8
DRG
  6
CONTINUOUS
 62
     7
 10
10.42249809221936
 20
6.8626859803606273
 30
0.0
 11
18.100585347853119
 21
3.392610111620797
 31
0.0
 12
33.5305051013693
 22
6.4335459870298406
 32
0.0
 13
33.5305051013693
 23
6.4335459870298406
 33
0.0
210
0.0
220
0.0
230
1.0
  0
SOLID
  5
682F
  8
DRG
  6
CONTINUOUS
 62
     7
 10
23.40592258650463
 20
9.658646647821115
 30
0.0
 11
10.42249809221936
 21
6.8626859803606273
 31
0.0
 12
33.5305051013693
 22
6.4335459870298406
 32
0.0
 13
33.5305051013693
 23
6.4335459870298406
 33
0.0
210
0.0
220
0.0
230
1.0
  0
SOLID
  5
6830
  8
DRG
  6
CONTINUOUS
 62
     7
 10
20.675642362128059
 20
10.78956574583694
 30
0.0
 11
10.42249809221936
 21
6.8626859803606273
 31
0.0
 12
23.40592258650463
 22
9.658646647821115
 32
0.0
 13
23.40592258650463
 23
9.658646647821115
 33
0.0
210
0.0
220
0.0
230
1.0
  0
SOLID
  5
6831
  8
DRG
  6
CONTINUOUS
 62
     7
 10
26.136202810881191
 20
10.78956574583694
 30
0.0
 11
23.40592258650463
 21
9.658646647821115
 31
0.0
 12
33.5305051013693
 22
6.4335459870298406
 32
0.0
 13
33.5305051013693
 23
6.4335459870298406
 33
0.0
210
0.0
220
0.0
230
1.0
  0
SOLID
  5
6832
  8
DRG
  6
CONTINUOUS
 62
     7
 10
19.544723264112228
 20
13.51984597021351
 30
0.0
 11
10.42249809221936
 21
6.8626859803606273
 31
0.0
 12
20.675642362128059
 22
10.78956574583694
 32
0.0
 13
20.675642362128059
 23
10.78956574583694
 33
0.0
210
0.0
220
0.0
230
1.0
  0
SOLID
  5
6833
  8
DRG
  6
CONTINUOUS
 62
     7
 10
27.267121908897021
 20
13.51984597021351
 30
0.0
 11
26.136202810881191
 21
10.78956574583694
 31
0.0
 12
33.5305051013693
 22
6.4335459870298406
 32
0.0
 13
33.5305051013693
 23
6.4335459870298406
 33
0.0
210
0.0
220
0.0
230
1.0
  0
SOLID
  5
6834
  8
DRG
  6
CONTINUOUS
 62
     7
 10
37.639779947293839
 20
13.760967175618781
 30
0.0
 11
27.267121908897021
 21
13.51984597021351
 31
0.0
 12
33.5305051013693
 22
6.4335459870298406
 32
0.0
 13
33.5305051013693
 23
6.4335459870298406
 33
0.0
210
0.0
220
0.0
230
1.0
  0
SOLID
  5
6835
  8
DRG
  6
CONTINUOUS
 62
     7
 10
19.544723264112228
 20
13.51984597021351
 30
0.0
 11
19.544723264112239
 21
14.846027306936771
 31
0.0
 12
7.7279273094568479
 22
14.846027306936771
 32
0.0
 13
7.7279273094568479
 23
14.846027306936771
 33
0.0
210
0.0
220
0.0
230
1.0
  0
SOLID
  5
6836
  8
DRG
  6
CONTINUOUS
 62
     7
 10
7.7279273094568479
 20
14.846027306936771
 30
0.0
 11
10.42249809221936
 21
6.8626859803606273
 31
0.0
 12
19.544723264112228
 22
13.51984597021351
 32
0.0
 13
19.544723264112228
 23
13.51984597021351
 33
0.0
210
0.0
220
0.0
230
1.0
  0
SOLID
  5
6837
  8
DRG
  6
CONTINUOUS
 62
     7
 10
85.398663329684837
 20
18.95474449545469
 30
0.0
 11
90.043755964704772
 21
17.09444119032354
 31
0.0
 12
94.991749269489972
 22
17.839408458597301
 32
0.0
 13
94.991749269489972
 23
17.839408458597301
 33
0.0
  0
SOLID
  5
6838
  8
DRG
  6
CONTINUOUS
 62
     7
 10
47.983201019849872
 20
19.37635595043184
 30
0.0
 11
56.468482394088369
 21
15.861637324670481
 31
0.0
 12
62.280536421539182
 22
15.861637324670481
 32
0.0
 13
62.280536421539182
 23
15.861637324670481
 33
0.0
210
0.0
220
0.0
230
1.0
  0
SOLID
  5
6839
  8
DRG
  6
CONTINUOUS
 62
     7
 10
167.57756606804321
 20
19.376355950431901
 30
0.0
 11
153.28023066635379
 21
15.861637324670481
 31
0.0
 12
159.0922846938046
 22
15.861637324670481
 32
0.0
 13
159.0922846938046
 23
15.861637324670481
 33
0.0
210
0.0
220
0.0
230
1.0
  0
SOLID
  5
683A
  8
DRG
  6
CONTINUOUS
 62
     7
 10
70.76581779577775
 20
19.376355950431901
 30
0.0
 11
47.983201019849872
 21
19.37635595043184
 31
0.0
 12
62.280536421539182
 22
15.861637324670481
 32
0.0
 13
62.280536421539182
 23
15.861637324670481
 33
0.0
210
0.0
220
0.0
230
1.0
  0
SOLID
  5
683B
  8
DRG
  6
CONTINUOUS
 62
     7
 10
144.79494929211521
 20
19.376355950431911
 30
0.0
 11
153.28023066635379
 21
15.861637324670481
 31
0.0
 12
167.57756606804321
 22
19.376355950431901
 32
0.0
 13
167.57756606804321
 23
19.376355950431901
 33
0.0
210
0.0
220
0.0
230
1.0
  0
SOLID
  5
683C
  8
DRG
  6
CONTINUOUS
 62
     7
 10
102.3181837587821
 20
19.484710699009419
 30
0.0
 11
102.6710305977499
 21
17.89352120355198
 31
0.0
 12
111.8021775281067
 22
17.893521203552009
 32
0.0
 13
111.8021775281067
 23
17.893521203552009
 33
0.0
210
0.0
220
0.0
230
1.0
  0
SOLID
  5
683D
  8
DRG
  6
CONTINUOUS
 62
     7
 10
99.18720752242109
 20
19.902143627652059
 30
0.0
 11
85.398663329684837
 21
18.95474449545469
 31
0.0
 12
94.991749269489972
 22
17.839408458597301
 32
0.0
 13
94.991749269489972
 23
17.839408458597301
 33
0.0
210
0.0
220
0.0
230
1.0
  0
SOLID
  5
683E
  8
DRG
  6
CONTINUOUS
 62
     7
 10
111.2870334115631
 20
20.69438210209054
 30
0.0
 11
102.3181837587821
 21
19.484710699009419
 31
0.0
 12
111.8021775281067
 22
17.893521203552009
 32
0.0
 13
111.8021775281067
 23
17.893521203552009
 33
0.0
210
0.0
220
0.0
230
1.0
  0
SOLID
  5
683F
  8
DRG
  6
CONTINUOUS
 62
     7
 10
102.1211660476033
 20
21.102600968374279
 30
0.0
 11
102.3181837587821
 21
19.484710699009419
 31
0.0
 12
111.2870334115631
 22
20.69438210209054
 32
0.0
 13
111.2870334115631
 23
20.69438210209054
 33
0.0
210
0.0
220
0.0
230
1.0
  0
SOLID
  5
6840
  8
DRG
  6
CONTINUOUS
 62
     7
 10
10.665263297999569
 20
22.390471476161601
 30
0.0
 11
18.58303542025671
 21
18.945146626805109
 31
0.0
 12
24.090833070868062
 22
20.90802862921548
 32
0.0
 13
24.090833070868062
 23
20.90802862921548
 33
0.0
  0
SOLID
  5
6841
  8
DRG
  6
CONTINUOUS
 62
     7
 10
82.474422287265327
 20
22.98819641756462
 30
0.0
 11
85.398663329684837
 21
18.95474449545469
 31
0.0
 12
99.18720752242109
 22
19.902143627652059
 32
0.0
 13
99.18720752242109
 23
19.902143627652059
 33
0.0
210
0.0
220
0.0
230
1.0
  0
SOLID
  5
6842
  8
DRG
  6
CONTINUOUS
 62
     7
 10
111.2523129779601
 20
23.54201089202471
 30
0.0
 11
102.1211660476033
 21
21.102600968374279
 31
0.0
 12
111.2870334115631
 22
20.69438210209054
 32
0.0
 13
111.2870334115631
 23
20.69438210209054
 33
0.0
210
0.0
220
0.0
230
1.0
  0
SOLID
  5
6843
  8
DRG
  6
CONTINUOUS
 62
     7
 10
102.1211660476033
 20
23.542010892025001
 30
0.0
 11
82.474422287265327
 21
22.98819641756462
 31
0.0
 12
99.18720752242109
 22
19.902143627652059
 32
0.0
 13
99.18720752242109
 23
19.902143627652059
 33
0.0
210
0.0
220
0.0
230
1.0
  0
SOLID
  5
6844
  8
DRG
  6
CONTINUOUS
 62
     7
 10
102.1211660476033
 20
23.542010892025001
 30
0.0
 11
102.1211660476033
 21
21.102600968374279
 31
0.0
 12
111.2523129779601
 22
23.54201089202471
 32
0.0
 13
111.2523129779601
 23
23.54201089202471
 33
0.0
210
0.0
220
0.0
230
1.0
  0
SOLID
  5
6845
  8
DRG
  6
CONTINUOUS
 62
     7
 10
156.18625891463009
 20
23.758749615986972
 30
0.0
 11
144.79494929211521
 21
19.376355950431911
 31
0.0
 12
167.57756606804321
 22
19.376355950431901
 32
0.0
 13
167.57756606804321
 23
19.376355950431901
 33
0.0
210
0.0
220
0.0
230
1.0
  0
SOLID
  5
6846
  8
DRG
  6
CONTINUOUS
 62
     7
 10
95.863486513980718
 20
23.758749615986972
 30
0.0
 11
102.1211660476033
 21
23.542010892025001
 31
0.0
 12
111.2523129779601
 22
23.54201089202471
 32
0.0
 13
111.2523129779601
 23
23.54201089202471
 33
0.0
210
0.0
220
0.0
230
1.0
  0
SOLID
  5
6847
  8
DRG
  6
CONTINUOUS
 62
     7
 10
95.863486513980718
 20
23.758749615986972
 30
0.0
 11
82.474422287265327
 21
22.98819641756462
 31
0.0
 12
102.1211660476033
 22
23.542010892025001
 32
0.0
 13
102.1211660476033
 23
23.542010892025001
 33
0.0
210
0.0
220
0.0
230
1.0
  0
SOLID
  5
6848
  8
DRG
  6
CONTINUOUS
 62
     7
 10
59.374510642364612
 20
23.758749615986979
 30
0.0
 11
47.983201019849872
 21
19.37635595043184
 31
0.0
 12
70.76581779577775
 22
19.376355950431901
 32
0.0
 13
70.76581779577775
 23
19.376355950431901
 33
0.0
210
0.0
220
0.0
230
1.0
  0
SOLID
  5
6849
  8
DRG
  6
CONTINUOUS
 62
     7
 10
153.45597869025349
 20
24.889668714002791
 30
0.0
 11
144.79494929211521
 21
19.376355950431911
 31
0.0
 12
156.18625891463009
 22
23.758749615986972
 32
0.0
 13
156.18625891463009
 23
23.758749615986972
 33
0.0
210
0.0
220
0.0
230
1.0
  0
SOLID
  5
684A
  8
DRG
  6
CONTINUOUS
 62
     7
 10
158.9165391390066
 20
24.889668714002799
 30
0.0
 11
156.18625891463009
 21
23.758749615986972
 31
0.0
 12
167.57756606804321
 22
19.376355950431901
 32
0.0
 13
167.57756606804321
 23
19.376355950431901
 33
0.0
210
0.0
220
0.0
230
1.0
  0
SOLID
  5
684B
  8
DRG
  6
CONTINUOUS
 62
     7
 10
56.644230417988048
 20
24.889668714002799
 30
0.0
 11
47.983201019849872
 21
19.37635595043184
 31
0.0
 12
59.374510642364612
 22
23.758749615986979
 32
0.0
 13
59.374510642364612
 23
23.758749615986979
 33
0.0
210
0.0
220
0.0
230
1.0
  0
SOLID
  5
684C
  8
DRG
  6
CONTINUOUS
 62
     7
 10
62.104790866741169
 20
24.889668714002809
 30
0.0
 11
59.374510642364612
 21
23.758749615986979
 31
0.0
 12
70.76581779577775
 22
19.376355950431901
 32
0.0
 13
70.76581779577775
 23
19.376355950431901
 33
0.0
  0
SOLID
  5
684D
  8
DRG
  6
CONTINUOUS
 62
     7
 10
93.13320628960426
 20
24.889668714002859
 30
0.0
 11
82.474422287265327
 21
22.98819641756462
 31
0.0
 12
95.863486513980718
 22
23.758749615986972
 32
0.0
 13
95.863486513980718
 23
23.758749615986972
 33
0.0
210
0.0
220
0.0
230
1.0
  0
SOLID
  5
684E
  8
DRG
  6
CONTINUOUS
 62
     7
 10
22.683854862926161
 20
25.455509253088579
 30
0.0
 11
10.665263297999569
 21
22.390471476161601
 31
0.0
 12
24.090833070868062
 22
20.90802862921548
 32
0.0
 13
24.090833070868062
 23
20.90802862921548
 33
0.0
210
0.0
220
0.0
230
1.0
  0
SOLID
  5
684F
  8
DRG
  6
CONTINUOUS
 62
     7
 10
99.963368130020584
 20
25.713910561123939
 30
0.0
 11
95.863486513980718
 21
23.758749615986972
 31
0.0
 12
111.2523129779601
 22
23.54201089202471
 32
0.0
 13
111.2523129779601
 23
23.54201089202471
 33
0.0
210
0.0
220
0.0
230
1.0
  0
SOLID
  5
6850
  8
DRG
  6
CONTINUOUS
 62
     7
 10
27.267121908897021
 20
25.817196576320061
 30
0.0
 11
22.683854862926161
 21
25.455509253088579
 31
0.0
 12
24.090833070868062
 22
20.90802862921548
 32
0.0
 13
24.090833070868062
 23
20.90802862921548
 33
0.0
210
0.0
220
0.0
230
1.0
  0
SOLID
  5
6851
  8
DRG
  6
CONTINUOUS
 62
     7
 10
27.267121908897021
 20
25.817196576320061
 30
0.0
 11
27.267121908897021
 21
13.51984597021351
 31
0.0
 12
37.639779947293839
 22
13.760967175618781
 32
0.0
 13
37.639779947293839
 23
13.760967175618781
 33
0.0
  0
SOLID
  5
6852
  8
DRG
  6
CONTINUOUS
 62
     7
 10
18.936680407078839
 20
26.87964701788286
 30
0.0
 11
10.665263297999569
 21
22.390471476161601
 31
0.0
 12
22.683854862926161
 22
25.455509253088579
 32
0.0
 13
22.683854862926161
 23
25.455509253088579
 33
0.0
  0
SOLID
  5
6853
  8
DRG
  6
CONTINUOUS
 62
     7
 10
152.32505959223769
 20
27.619948938379359
 30
0.0
 11
144.79494929211521
 21
19.376355950431911
 31
0.0
 12
153.45597869025349
 22
24.889668714002791
 32
0.0
 13
153.45597869025349
 23
24.889668714002791
 33
0.0
210
0.0
220
0.0
230
1.0
  0
SOLID
  5
6854
  8
DRG
  6
CONTINUOUS
 62
     7
 10
92.002287191588479
 20
27.619948938379359
 30
0.0
 11
82.474422287265327
 21
22.98819641756462
 31
0.0
 12
93.13320628960426
 22
24.889668714002859
 32
0.0
 13
93.13320628960426
 23
24.889668714002859
 33
0.0
210
0.0
220
0.0
230
1.0
  0
SOLID
  5
6855
  8
DRG
  6
CONTINUOUS
 62
     7
 10
160.04745823702251
 20
27.619948938379359
 30
0.0
 11
158.9165391390066
 21
24.889668714002799
 31
0.0
 12
167.57756606804321
 22
19.376355950431901
 32
0.0
 13
167.57756606804321
 23
19.376355950431901
 33
0.0
210
0.0
220
0.0
230
1.0
  0
SOLID
  5
6856
  8
DRG
  6
CONTINUOUS
 62
     7
 10
55.513311319972217
 20
27.61994893837937
 30
0.0
 11
47.983201019849872
 21
19.37635595043184
 31
0.0
 12
56.644230417988048
 22
24.889668714002799
 32
0.0
 13
56.644230417988048
 23
24.889668714002799
 33
0.0
210
0.0
220
0.0
230
1.0
  0
SOLID
  5
6857
  8
DRG
  6
CONTINUOUS
 62
     7
 10
63.235709964757007
 20
27.61994893837937
 30
0.0
 11
62.104790866741169
 21
24.889668714002809
 31
0.0
 12
70.76581779577775
 22
19.376355950431901
 32
0.0
 13
70.76581779577775
 23
19.376355950431901
 33
0.0
210
0.0
220
0.0
230
1.0
  0
SOLID
  5
6858
  8
DRG
  6
CONTINUOUS
 62
     7
 10
44.468482394088362
 20
27.861637324670291
 30
0.0
 11
47.983201019849872
 21
19.37635595043184
 31
0.0
 12
55.513311319972217
 22
27.61994893837937
 32
0.0
 13
55.513311319972217
 23
27.61994893837937
 33
0.0
210
0.0
220
0.0
230
1.0
  0
SOLID
  5
6859
  8
DRG
  6
CONTINUOUS
 62
     7
 10
171.0922846938046
 20
27.861637324670479
 30
0.0
 11
160.04745823702251
 21
27.619948938379359
 31
0.0
 12
167.57756606804321
 22
19.376355950431901
 32
0.0
 13
167.57756606804321
 23
19.376355950431901
 33
0.0
210
0.0
220
0.0
230
1.0
  0
SOLID
  5
685A
  8
DRG
  6
CONTINUOUS
 62
     7
 10
74.280536421539182
 20
27.861637324670479
 30
0.0
 11
63.235709964757007
 21
27.61994893837937
 31
0.0
 12
70.76581779577775
 22
19.376355950431901
 32
0.0
 13
70.76581779577775
 23
19.376355950431901
 33
0.0
210
0.0
220
0.0
230
1.0
  0
SOLID
  5
685B
  8
DRG
  6
CONTINUOUS
 62
     7
 10
141.28023066635379
 20
27.861637324670479
 30
0.0
 11
144.79494929211521
 21
19.376355950431911
 31
0.0
 12
152.32505959223769
 22
27.619948938379359
 32
0.0
 13
152.32505959223769
 23
27.619948938379359
 33
0.0
210
0.0
220
0.0
230
1.0
  0
SOLID
  5
685C
  8
DRG
  6
CONTINUOUS
 62
     7
 10
81.440258950509346
 20
27.861637324670479
 30
0.0
 11
82.474422287265327
 21
22.98819641756462
 31
0.0
 12
92.002287191588479
 22
27.619948938379359
 32
0.0
 13
92.002287191588479
 23
27.619948938379359
 33
0.0
210
0.0
220
0.0
230
1.0
  0
SOLID
  5
685D
  8
DRG
  6
CONTINUOUS
 62
     7
 10
26.241246459003619
 20
27.915841888747771
 30
0.0
 11
22.683854862926161
 21
25.455509253088579
 31
0.0
 12
27.267121908897021
 22
25.817196576320061
 32
0.0
 13
27.267121908897021
 23
25.817196576320061
 33
0.0
210
0.0
220
0.0
230
1.0
  0
SOLID
  5
685E
  8
DRG
  6
CONTINUOUS
 62
     7
 10
160.04745823702251
 20
29.300230626583549
 30
0.0
 11
160.04745823702251
 21
27.619948938379359
 31
0.0
 12
171.0922846938046
 22
27.861637324670479
 32
0.0
 13
171.0922846938046
 23
27.861637324670479
 33
0.0
210
0.0
220
0.0
230
1.0
  0
SOLID
  5
685F
  8
DRG
  6
CONTINUOUS
 62
     7
 10
152.32505959223769
 20
29.959298931438969
 30
0.0
 11
141.28023066635379
 21
27.861637324670479
 31
0.0
 12
152.32505959223769
 22
27.619948938379359
 32
0.0
 13
152.32505959223769
 23
27.619948938379359
 33
0.0
210
0.0
220
0.0
230
1.0
  0
SOLID
  5
6860
  8
DRG
  6
CONTINUOUS
 62
     7
 10
141.28023066635379
 20
29.95929893143898
 30
0.0
 11
141.28023066635379
 21
27.861637324670479
 31
0.0
 12
152.32505959223769
 22
29.959298931438969
 32
0.0
 13
152.32505959223769
 23
29.959298931438969
 33
0.0
210
0.0
220
0.0
230
1.0
  0
SOLID
  5
6861
  8
DRG
  6
CONTINUOUS
 62
     7
 10
171.0922846938046
 20
29.95929893143904
 30
0.0
 11
160.04745823702251
 21
29.300230626583549
 31
0.0
 12
171.0922846938046
 22
27.861637324670479
 32
0.0
 13
171.0922846938046
 23
27.861637324670479
 33
0.0
210
0.0
220
0.0
230
1.0
  0
SOLID
  5
6862
  8
DRG
  6
CONTINUOUS
 62
     7
 10
101.5095597489034
 20
29.984856014372749
 30
0.0
 11
99.963368130020584
 21
25.713910561123939
 31
0.0
 12
111.2523129779601
 22
23.54201089202471
 32
0.0
 13
111.2523129779601
 23
23.54201089202471
 33
0.0
210
0.0
220
0.0
230
1.0
  0
SOLID
  5
6863
  8
DRG
  6
CONTINUOUS
 62
     7
 10
7.0565934473582743
 20
30.23514359210488
 30
0.0
 11
10.665263297999569
 21
22.390471476161601
 31
0.0
 12
18.936680407078839
 22
26.87964701788286
 32
0.0
 13
18.936680407078839
 23
26.87964701788286
 33
0.0
210
0.0
220
0.0
230
1.0
  0
SOLID
  5
6864
  8
DRG
  6
CONTINUOUS
 62
     7
 10
17.256300807526252
 20
30.5191262631974
 30
0.0
 11
7.0565934473582743
 21
30.23514359210488
 31
0.0
 12
18.936680407078839
 22
26.87964701788286
 32
0.0
 13
18.936680407078839
 23
26.87964701788286
 33
0.0
210
0.0
220
0.0
230
1.0
  0
SOLID
  5
6865
  8
DRG
  6
CONTINUOUS
 62
     7
 10
63.235709964757
 20
30.81688778835381
 30
0.0
 11
63.235709964757007
 21
27.61994893837937
 31
0.0
 12
74.280536421539182
 22
27.861637324670479
 32
0.0
 13
74.280536421539182
 23
27.861637324670479
 33
0.0
210
0.0
220
0.0
230
1.0
  0
SOLID
  5
6866
  8
DRG
  6
CONTINUOUS
 62
     7
 10
74.280536421539196
 20
30.816887788353831
 30
0.0
 11
63.235709964757
 21
30.81688778835381
 31
0.0
 12
74.280536421539182
 22
27.861637324670479
 32
0.0
 13
74.280536421539182
 23
27.861637324670479
 33
0.0
210
0.0
220
0.0
230
1.0
  0
SOLID
  5
6867
  8
DRG
  6
CONTINUOUS
 62
     7
 10
158.32349423287391
 20
31.711820516063149
 30
0.0
 11
160.04745823702251
 21
29.300230626583549
 31
0.0
 12
171.0922846938046
 22
29.95929893143904
 32
0.0
 13
171.0922846938046
 23
29.95929893143904
 33
0.0
  0
SOLID
  5
6868
  8
DRG
  6
CONTINUOUS
 62
     7
 10
27.387732575171409
 20
32.086434320449378
 30
0.0
 11
26.241246459003619
 21
27.915841888747771
 31
0.0
 12
27.267121908897021
 22
25.817196576320061
 32
0.0
 13
27.267121908897021
 23
25.817196576320061
 33
0.0
210
0.0
220
0.0
230
1.0
  0
SOLID
  5
6869
  8
DRG
  6
CONTINUOUS
 62
     7
 10
27.387732575171409
 20
32.086434320449378
 30
0.0
 11
27.267121908897021
 21
25.817196576320061
 31
0.0
 12
37.639779947293839
 22
13.760967175618781
 32
0.0
 13
37.639779947293839
 23
13.760967175618781
 33
0.0
210
0.0
220
0.0
230
1.0
  0
SOLID
  5
686A
  8
DRG
  6
CONTINUOUS
 62
     7
 10
81.440258950509346
 20
32.349374231810209
 30
0.0
 11
81.440258950509346
 21
27.861637324670479
 31
0.0
 12
92.002287191588479
 22
27.619948938379359
 32
0.0
 13
92.002287191588479
 23
27.619948938379359
 33
0.0
210
0.0
220
0.0
230
1.0
  0
SOLID
  5
686B
  8
DRG
  6
CONTINUOUS
 62
     7
 10
92.002287191588479
 20
33.041326503689838
 30
0.0
 11
81.440258950509346
 21
32.349374231810209
 31
0.0
 12
92.002287191588479
 22
27.619948938379359
 32
0.0
 13
92.002287191588479
 23
27.619948938379359
 33
0.0
210
0.0
220
0.0
230
1.0
  0
SOLID
  5
686C
  8
DRG
  6
CONTINUOUS
 62
     7
 10
155.72873071743231
 20
33.145354604103439
 30
0.0
 11
158.32349423287391
 21
31.711820516063149
 31
0.0
 12
171.0922846938046
 22
29.95929893143904
 32
0.0
 13
171.0922846938046
 23
29.95929893143904
 33
0.0
210
0.0
220
0.0
230
1.0
  0
SOLID
  5
686D
  8
DRG
  6
CONTINUOUS
 62
     7
 10
55.513311319972232
 20
35.629722934820848
 30
0.0
 11
44.468482394088362
 21
27.861637324670291
 31
0.0
 12
55.513311319972217
 22
27.61994893837937
 32
0.0
 13
55.513311319972217
 23
27.61994893837937
 33
0.0
210
0.0
220
0.0
230
1.0
  0
SOLID
  5
686E
  8
DRG
  6
CONTINUOUS
 62
     7
 10
94.205364320613299
 20
36.284948884141627
 30
0.0
 11
81.440258950509346
 21
32.349374231810209
 31
0.0
 12
92.002287191588479
 22
33.041326503689838
 32
0.0
 13
92.002287191588479
 23
33.041326503689838
 33
0.0
210
0.0
220
0.0
230
1.0
  0
SOLID
  5
686F
  8
DRG
  6
CONTINUOUS
 62
     7
 10
44.169020821240288
 20
36.461122307958632
 30
0.0
 11
55.513311319972232
 21
35.629722934820848
 31
0.0
 12
74.280536421539182
 22
35.629722934820848
 32
0.0
 13
74.280536421539182
 23
35.629722934820848
 33
0.0
210
0.0
220
0.0
230
1.0
  0
SOLID
  5
6870
  8
DRG
  6
CONTINUOUS
 62
     7
 10
44.169020821240288
 20
36.461122307958632
 30
0.0
 11
44.468482394088362
 21
27.861637324670291
 31
0.0
 12
55.513311319972232
 22
35.629722934820848
 32
0.0
 13
55.513311319972232
 23
35.629722934820848
 33
0.0
210
0.0
220
0.0
230
1.0
  0
SOLID
  5
6871
  8
DRG
  6
CONTINUOUS
 62
     7
 10
167.85830970219251
 20
36.524146360035118
 30
0.0
 11
155.72873071743231
 21
33.145354604103439
 31
0.0
 12
171.0922846938046
 22
29.95929893143904
 32
0.0
 13
171.0922846938046
 23
29.95929893143904
 33
0.0
  0
SOLID
  5
6872
  8
DRG
  6
CONTINUOUS
 62
     7
 10
147.96999619585119
 20
36.713005966762211
 30
0.0
 11
155.72873071743231
 21
33.145354604103439
 31
0.0
 12
167.85830970219251
 22
36.524146360035118
 32
0.0
 13
167.85830970219251
 23
36.524146360035118
 33
0.0
210
0.0
220
0.0
230
1.0
  0
SOLID
  5
6873
  8
DRG
  6
CONTINUOUS
 62
     7
 10
101.5095597489034
 20
37.384730871555568
 30
0.0
 11
101.5095597489034
 21
29.984856014372749
 31
0.0
 12
111.2523129779601
 22
23.54201089202471
 32
0.0
 13
111.2523129779601
 23
23.54201089202471
 33
0.0
210
0.0
220
0.0
230
1.0
  0
SOLID
  5
6874
  8
DRG
  6
CONTINUOUS
 62
     7
 10
6.7865631049779154
 20
38.202265524009427
 30
0.0
 11
7.0565934473582743
 21
30.23514359210488
 31
0.0
 12
17.256300807526252
 22
30.5191262631974
 32
0.0
 13
17.256300807526252
 23
30.5191262631974
 33
0.0
210
0.0
220
0.0
230
1.0
  0
SOLID
  5
6875
  8
DRG
  6
CONTINUOUS
 62
     7
 10
85.383656329320502
 20
39.91519519091996
 30
0.0
 11
94.205364320613299
 21
36.284948884141627
 31
0.0
 12
97.969021393668683
 22
37.384730871555568
 32
0.0
 13
97.969021393668683
 23
37.384730871555568
 33
0.0
210
0.0
220
0.0
230
1.0
  0
SOLID
  5
6876
  8
DRG
  6
CONTINUOUS
 62
     7
 10
85.383656329320502
 20
39.91519519091996
 30
0.0
 11
81.440258950509346
 21
32.349374231810209
 31
0.0
 12
94.205364320613299
 22
36.284948884141627
 32
0.0
 13
94.205364320613299
 23
36.284948884141627
 33
0.0
210
0.0
220
0.0
230
1.0
  0
SOLID
  5
6877
  8
DRG
  6
CONTINUOUS
 62
     7
 10
161.4128172083947
 20
39.98989916707626
 30
0.0
 11
147.96999619585119
 21
36.713005966762211
 31
0.0
 12
167.85830970219251
 22
36.524146360035118
 32
0.0
 13
167.85830970219251
 23
36.524146360035118
 33
0.0
210
0.0
220
0.0
230
1.0
  0
SOLID
  5
6878
  8
DRG
  6
CONTINUOUS
 62
     7
 10
127.2345352189994
 20
40.740104065808097
 30
0.0
 11
116.19314081319391
 21
17.28637227261407
 31
0.0
 12
127.2345352189994
 22
17.28637227261407
 32
0.0
 13
127.2345352189994
 23
17.28637227261407
 33
0.0
210
0.0
220
0.0
230
1.0
  0
SOLID
  5
6879
  8
DRG
  6
CONTINUOUS
 62
     7
 10
157.0907498111003
 20
41.67317141688541
 30
0.0
 11
147.96999619585119
 21
36.713005966762211
 31
0.0
 12
161.4128172083947
 22
39.98989916707626
 32
0.0
 13
161.4128172083947
 23
39.98989916707626
 33
0.0
210
0.0
220
0.0
230
1.0
  0
SOLID
  5
687A
  8
DRG
  6
CONTINUOUS
 62
     7
 10
55.51331131997221
 20
41.923431282527638
 30
0.0
 11
44.169020821240288
 21
36.461122307958632
 31
0.0
 12
74.280536421539182
 22
35.629722934820848
 32
0.0
 13
74.280536421539182
 23
35.629722934820848
 33
0.0
210
0.0
220
0.0
230
1.0
  0
SOLID
  5
687B
  8
DRG
  6
CONTINUOUS
 62
     7
 10
63.235709964756971
 20
41.923431282527652
 30
0.0
 11
55.51331131997221
 21
41.923431282527638
 31
0.0
 12
74.280536421539182
 22
35.629722934820848
 32
0.0
 13
74.280536421539182
 23
35.629722934820848
 33
0.0
210
0.0
220
0.0
230
1.0
  0
SOLID
  5
687C
  8
DRG
  6
CONTINUOUS
 62
     7
 10
93.358174068518778
 20
42.948196427274922
 30
0.0
 11
85.383656329320502
 21
39.91519519091996
 31
0.0
 12
97.969021393668683
 22
37.384730871555568
 32
0.0
 13
97.969021393668683
 23
37.384730871555568
 33
0.0
210
0.0
220
0.0
230
1.0
  0
SOLID
  5
687D
  8
DRG
  6
CONTINUOUS
 62
     7
 10
93.358174068518778
 20
42.948196427274922
 30
0.0
 11
97.969021393668683
 21
37.384730871555568
 31
0.0
 12
101.5095597489034
 22
37.384730871555568
 32
0.0
 13
101.5095597489034
 23
37.384730871555568
 33
0.0
210
0.0
220
0.0
230
1.0
  0
SOLID
  5
687E
  8
DRG
  6
CONTINUOUS
 62
     7
 10
101.5095597489034
 20
37.384730871555568
 30
0.0
 11
100.207486521178
 21
42.948196427274922
 31
0.0
 12
93.358174068518778
 22
42.948196427274922
 32
0.0
 13
93.358174068518778
 23
42.948196427274922
 33
0.0
  0
SOLID
  5
687F
  8
DRG
  6
CONTINUOUS
 62
     7
 10
100.207486521178
 20
42.948196427274922
 30
0.0
 11
101.5095597489034
 21
37.384730871555568
 31
0.0
 12
111.2523129779601
 22
23.54201089202471
 32
0.0
 13
111.2523129779601
 23
23.54201089202471
 33
0.0
  0
SOLID
  5
6880
  8
DRG
  6
CONTINUOUS
 62
     7
 10
142.3184035466634
 20
43.11500550983493
 30
0.0
 11
147.96999619585119
 21
36.713005966762211
 31
0.0
 12
157.0907498111003
 22
41.67317141688541
 32
0.0
 13
157.0907498111003
 23
41.67317141688541
 33
0.0
210
0.0
220
0.0
230
1.0
  0
SOLID
  5
6881
  8
DRG
  6
CONTINUOUS
 62
     7
 10
153.4809683549079
 20
44.585756161105429
 30
0.0
 11
142.3184035466634
 21
43.11500550983493
 31
0.0
 12
157.0907498111003
 22
41.67317141688541
 32
0.0
 13
157.0907498111003
 23
41.67317141688541
 33
0.0
210
0.0
220
0.0
230
1.0
  0
SOLID
  5
6882
  8
DRG
  6
CONTINUOUS
 62
     7
 10
27.387732575171409
 20
44.745475926535612
 30
0.0
 11
27.387732575171409
 21
32.086434320449378
 31
0.0
 12
37.639779947293839
 22
13.760967175618781
 32
0.0
 13
37.639779947293839
 23
13.760967175618781
 33
0.0
210
0.0
220
0.0
230
1.0
  0
SOLID
  5
6883
  8
DRG
  6
CONTINUOUS
 62
     7
 10
74.280536421539182
 20
45.06060729124669
 30
0.0
 11
63.235709964756971
 21
41.923431282527652
 31
0.0
 12
74.280536421539182
 22
35.629722934820848
 32
0.0
 13
74.280536421539182
 23
35.629722934820848
 33
0.0
  0
SOLID
  5
6884
  8
DRG
  6
CONTINUOUS
 62
     7
 10
111.2523129779601
 20
45.06060729124669
 30
0.0
 11
100.207486521178
 21
42.948196427274922
 31
0.0
 12
111.2523129779601
 22
23.54201089202471
 32
0.0
 13
111.2523129779601
 23
23.54201089202471
 33
0.0
  0
SOLID
  5
6885
  8
DRG
  6
CONTINUOUS
 62
     7
 10
44.468482394088362
 20
45.06060729124696
 30
0.0
 11
44.169020821240288
 21
36.461122307958632
 31
0.0
 12
55.51331131997221
 22
41.923431282527638
 32
0.0
 13
55.51331131997221
 23
41.923431282527638
 33
0.0
210
0.0
220
0.0
230
1.0
  0
SOLID
  5
6886
  8
DRG
  6
CONTINUOUS
 62
     7
 10
141.54546826268481
 20
45.937122787892669
 30
0.0
 11
142.3184035466634
 21
43.11500550983493
 31
0.0
 12
153.4809683549079
 22
44.585756161105429
 32
0.0
 13
153.4809683549079
 23
44.585756161105429
 33
0.0
210
0.0
220
0.0
230
1.0
  0
SOLID
  5
6887
  8
DRG
  6
CONTINUOUS
 62
     7
 10
152.54834175226111
 20
45.975031235545693
 30
0.0
 11
141.54546826268481
 21
45.937122787892669
 31
0.0
 12
153.4809683549079
 22
44.585756161105429
 32
0.0
 13
153.4809683549079
 23
44.585756161105429
 33
0.0
210
0.0
220
0.0
230
1.0
  0
SOLID
  5
6888
  8
DRG
  6
CONTINUOUS
 62
     7
 10
7.0305774038875759
 20
46.17022669896302
 30
0.0
 11
6.7865631049779154
 21
38.202265524009427
 31
0.0
 12
17.256300807526252
 22
30.5191262631974
 32
0.0
 13
17.256300807526252
 23
30.5191262631974
 33
0.0
  0
SOLID
  5
6889
  8
DRG
  6
CONTINUOUS
 62
     7
 10
17.256300807526252
 20
46.312783983787632
 30
0.0
 11
7.0305774038875759
 21
46.17022669896302
 31
0.0
 12
17.256300807526252
 22
30.5191262631974
 32
0.0
 13
17.256300807526252
 23
30.5191262631974
 33
0.0
210
0.0
220
0.0
230
1.0
  0
SOLID
  5
688A
  8
DRG
  6
CONTINUOUS
 62
     7
 10
129.57768096950701
 20
46.396958315300481
 30
0.0
 11
116.19314081319391
 21
17.28637227261407
 31
0.0
 12
127.2345352189994
 22
40.740104065808097
 32
0.0
 13
127.2345352189994
 23
40.740104065808097
 33
0.0
210
0.0
220
0.0
230
1.0
  0
SOLID
  5
688B
  8
DRG
  6
CONTINUOUS
 62
     7
 10
160.04745823702251
 20
46.421288526219293
 30
0.0
 11
160.04745823702251
 21
45.21828747592599
 31
0.0
 12
171.0912486890569
 22
45.21828747592599
 32
0.0
 13
171.0912486890569
 23
45.21828747592599
 33
0.0
210
0.0
220
0.0
230
1.0
  0
SOLID
  5
688C
  8
DRG
  6
CONTINUOUS
 62
     7
 10
63.235709964757007
 20
46.690614073903127
 30
0.0
 11
63.235709964756971
 21
41.923431282527652
 31
0.0
 12
74.280536421539182
 22
45.06060729124669
 32
0.0
 13
74.280536421539182
 23
45.06060729124669
 33
0.0
210
0.0
220
0.0
230
1.0
  0
SOLID
  5
688D
  8
DRG
  6
CONTINUOUS
 62
     7
 10
55.513311319972217
 20
46.690614073903141
 30
0.0
 11
44.468482394088362
 21
45.06060729124696
 31
0.0
 12
55.51331131997221
 22
41.923431282527638
 32
0.0
 13
55.51331131997221
 23
41.923431282527638
 33
0.0
210
0.0
220
0.0
230
1.0
  0
SOLID
  5
688E
  8
DRG
  6
CONTINUOUS
 62
     7
 10
92.485087876393209
 20
47.313129977668268
 30
0.0
 11
81.470405744524527
 21
45.910674481046733
 31
0.0
 12
92.485087876393209
 22
45.910674481046733
 32
0.0
 13
92.485087876393209
 23
45.910674481046733
 33
0.0
210
0.0
220
0.0
230
1.0
  0
SOLID
  5
688F
  8
DRG
  6
CONTINUOUS
 62
     7
 10
100.2074865211779
 20
47.313129977668268
 30
0.0
 11
100.207486521178
 21
42.948196427274922
 31
0.0
 12
111.2523129779601
 22
45.06060729124669
 32
0.0
 13
111.2523129779601
 23
45.06060729124669
 33
0.0
210
0.0
220
0.0
230
1.0
  0
SOLID
  5
6890
  8
DRG
  6
CONTINUOUS
 62
     7
 10
152.52515784094209
 20
47.648154099737518
 30
0.0
 11
141.54546826268481
 21
45.937122787892669
 31
0.0
 12
152.54834175226111
 22
45.975031235545693
 32
0.0
 13
152.54834175226111
 23
45.975031235545693
 33
0.0
210
0.0
220
0.0
230
1.0
  0
SOLID
  5
6891
  8
DRG
  6
CONTINUOUS
 62
     7
 10
141.8917942032017
 20
48.84260609145101
 30
0.0
 11
141.54546826268481
 21
45.937122787892669
 31
0.0
 12
152.52515784094209
 22
47.648154099737518
 32
0.0
 13
152.52515784094209
 23
47.648154099737518
 33
0.0
210
0.0
220
0.0
230
1.0
  0
SOLID
  5
6892
  8
DRG
  6
CONTINUOUS
 62
     7
 10
26.241246459003669
 20
48.91606835823719
 30
0.0
 11
27.387732575171409
 21
44.745475926535612
 31
0.0
 12
37.639779947293839
 22
13.760967175618781
 32
0.0
 13
37.639779947293839
 23
13.760967175618781
 33
0.0
210
0.0
220
0.0
230
1.0
  0
SOLID
  5
6893
  8
DRG
  6
CONTINUOUS
 62
     7
 10
159.12809020671349
 20
48.922186136310927
 30
0.0
 11
160.04745823702251
 21
46.421288526219293
 31
0.0
 12
171.0912486890569
 22
45.21828747592599
 32
0.0
 13
171.0912486890569
 23
45.21828747592599
 33
0.0
210
0.0
220
0.0
230
1.0
  0
SOLID
  5
6894
  8
DRG
  6
CONTINUOUS
 62
     7
 10
62.104790866741169
 20
49.420894298279691
 30
0.0
 11
63.235709964757007
 21
46.690614073903127
 31
0.0
 12
74.280536421539182
 22
45.06060729124669
 32
0.0
 13
74.280536421539182
 23
45.06060729124669
 33
0.0
210
0.0
220
0.0
230
1.0
  0
SOLID
  5
6895
  8
DRG
  6
CONTINUOUS
 62
     7
 10
56.644230417988048
 20
49.420894298279698
 30
0.0
 11
44.468482394088362
 21
45.06060729124696
 31
0.0
 12
55.513311319972217
 22
46.690614073903141
 32
0.0
 13
55.513311319972217
 23
46.690614073903141
 33
0.0
210
0.0
220
0.0
230
1.0
  0
SOLID
  5
6896
  8
DRG
  6
CONTINUOUS
 62
     7
 10
154.19152207815719
 20
49.72732620907496
 30
0.0
 11
141.8917942032017
 21
48.84260609145101
 31
0.0
 12
152.52515784094209
 22
47.648154099737518
 32
0.0
 13
152.52515784094209
 23
47.648154099737518
 33
0.0
210
0.0
220
0.0
230
1.0
  0
SOLID
  5
6897
  8
DRG
  6
CONTINUOUS
 62
     7
 10
18.93668040707891
 20
49.952263229102194
 30
0.0
 11
7.0305774038875759
 21
46.17022669896302
 31
0.0
 12
17.256300807526252
 22
46.312783983787632
 32
0.0
 13
17.256300807526252
 23
46.312783983787632
 33
0.0
210
0.0
220
0.0
230
1.0
  0
SOLID
  5
6898
  8
DRG
  6
CONTINUOUS
 62
     7
 10
93.616006974409046
 20
50.043410202044832
 30
0.0
 11
81.470405744524527
 21
45.910674481046733
 31
0.0
 12
92.485087876393209
 22
47.313129977668268
 32
0.0
 13
92.485087876393209
 23
47.313129977668268
 33
0.0
210
0.0
220
0.0
230
1.0
  0
SOLID
  5
6899
  8
DRG
  6
CONTINUOUS
 62
     7
 10
99.07656742316216
 20
50.043410202044832
 30
0.0
 11
100.2074865211779
 21
47.313129977668268
 31
0.0
 12
111.2523129779601
 22
45.06060729124669
 32
0.0
 13
111.2523129779601
 23
45.06060729124669
 33
0.0
210
0.0
220
0.0
230
1.0
  0
SOLID
  5
689A
  8
DRG
  6
CONTINUOUS
 62
     7
 10
156.80779701575881
 20
50.232134967115158
 30
0.0
 11
141.8917942032017
 21
48.84260609145101
 31
0.0
 12
154.19152207815719
 22
49.72732620907496
 32
0.0
 13
154.19152207815719
 23
49.72732620907496
 33
0.0
210
0.0
220
0.0
230
1.0
  0
SOLID
  5
689B
  8
DRG
  6
CONTINUOUS
 62
     7
 10
156.80779701575881
 20
50.232134967115158
 30
0.0
 11
159.12809020671349
 21
48.922186136310927
 31
0.0
 12
171.0912486890569
 22
45.21828747592599
 32
0.0
 13
171.0912486890569
 23
45.21828747592599
 33
0.0
210
0.0
220
0.0
230
1.0
  0
SOLID
  5
689C
  8
DRG
  6
CONTINUOUS
 62
     7
 10
59.374510642364612
 20
50.551813396295529
 30
0.0
 11
44.468482394088362
 21
45.06060729124696
 31
0.0
 12
56.644230417988048
 22
49.420894298279698
 32
0.0
 13
56.644230417988048
 23
49.420894298279698
 33
0.0
210
0.0
220
0.0
230
1.0
  0
SOLID
  5
689D
  8
DRG
  6
CONTINUOUS
 62
     7
 10
59.374510642364612
 20
50.551813396295529
 30
0.0
 11
62.104790866741169
 21
49.420894298279691
 31
0.0
 12
74.280536421539182
 22
45.06060729124669
 32
0.0
 13
74.280536421539182
 23
45.06060729124669
 33
0.0
210
0.0
220
0.0
230
1.0
  0
SOLID
  5
689E
  8
DRG
  6
CONTINUOUS
 62
     7
 10
96.346287198785603
 20
51.174329300060663
 30
0.0
 11
81.470405744524527
 21
45.910674481046733
 31
0.0
 12
93.616006974409046
 22
50.043410202044832
 32
0.0
 13
93.616006974409046
 23
50.043410202044832
 33
0.0
  0
SOLID
  5
689F
  8
DRG
  6
CONTINUOUS
 62
     7
 10
96.346287198785603
 20
51.174329300060663
 30
0.0
 11
99.07656742316216
 21
50.043410202044832
 31
0.0
 12
111.2523129779601
 22
45.06060729124669
 32
0.0
 13
111.2523129779601
 23
45.06060729124669
 33
0.0
210
0.0
220
0.0
230
1.0
  0
SOLID
  5
68A0
  8
DRG
  6
CONTINUOUS
 62
     7
 10
27.267121908897021
 20
51.255838552818979
 30
0.0
 11
26.241246459003669
 21
48.91606835823719
 31
0.0
 12
37.639779947293839
 22
13.760967175618781
 32
0.0
 13
37.639779947293839
 23
13.760967175618781
 33
0.0
210
0.0
220
0.0
230
1.0
  0
SOLID
  5
68A1
  8
DRG
  6
CONTINUOUS
 62
     7
 10
22.683854862926282
 20
51.376400993896397
 30
0.0
 11
7.0305774038875759
 21
46.17022669896302
 31
0.0
 12
18.93668040707891
 22
49.952263229102194
 32
0.0
 13
18.93668040707891
 23
49.952263229102194
 33
0.0
210
0.0
220
0.0
230
1.0
  0
SOLID
  5
68A2
  8
DRG
  6
CONTINUOUS
 62
     7
 10
22.683854862926282
 20
51.376400993896397
 30
0.0
 11
26.241246459003669
 21
48.91606835823719
 31
0.0
 12
27.267121908897021
 22
51.255838552818979
 32
0.0
 13
27.267121908897021
 23
51.255838552818979
 33
0.0
  0
SOLID
  5
68A3
  8
DRG
  6
CONTINUOUS
 62
     7
 10
127.2345352189994
 20
53.086533694841222
 30
0.0
 11
135.23453521899941
 21
48.740104065808111
 31
0.0
 12
136.6041529029215
 22
48.740104065808111
 32
0.0
 13
136.6041529029215
 23
48.740104065808111
 33
0.0
210
0.0
220
0.0
230
1.0
  0
SOLID
  5
68A4
  8
DRG
  6
CONTINUOUS
 62
     7
 10
127.2345352189994
 20
53.086533694841222
 30
0.0
 11
129.57768096950701
 21
46.396958315300481
 31
0.0
 12
135.23453521899941
 22
48.740104065808111
 32
0.0
 13
135.23453521899941
 23
48.740104065808111
 33
0.0
210
0.0
220
0.0
230
1.0
  0
SOLID
  5
68A5
  8
DRG
  6
CONTINUOUS
 62
     7
 10
127.2345352189994
 20
53.086533694841222
 30
0.0
 11
116.19314081319391
 21
17.28637227261407
 31
0.0
 12
129.57768096950701
 22
46.396958315300481
 32
0.0
 13
129.57768096950701
 23
46.396958315300481
 33
0.0
210
0.0
220
0.0
230
1.0
  0
SOLID
  5
68A6
  8
DRG
  6
CONTINUOUS
 62
     7
 10
70.76581779577775
 20
53.545888665485258
 30
0.0
 11
59.374510642364612
 21
50.551813396295529
 31
0.0
 12
74.280536421539182
 22
45.06060729124669
 32
0.0
 13
74.280536421539182
 23
45.06060729124669
 33
0.0
210
0.0
220
0.0
230
1.0
  0
SOLID
  5
68A7
  8
DRG
  6
CONTINUOUS
 62
     7
 10
107.7375943521987
 20
53.545888665485258
 30
0.0
 11
96.346287198785603
 21
51.174329300060663
 31
0.0
 12
111.2523129779601
 22
45.06060729124669
 32
0.0
 13
111.2523129779601
 23
45.06060729124669
 33
0.0
210
0.0
220
0.0
230
1.0
  0
SOLID
  5
68A8
  8
DRG
  6
CONTINUOUS
 62
     7
 10
47.983201019849879
 20
53.54588866548535
 30
0.0
 11
59.374510642364612
 21
50.551813396295529
 31
0.0
 12
70.76581779577775
 22
53.545888665485258
 32
0.0
 13
70.76581779577775
 23
53.545888665485258
 33
0.0
210
0.0
220
0.0
230
1.0
  0
SOLID
  5
68A9
  8
DRG
  6
CONTINUOUS
 62
     7
 10
47.983201019849879
 20
53.54588866548535
 30
0.0
 11
44.468482394088362
 21
45.06060729124696
 31
0.0
 12
59.374510642364612
 22
50.551813396295529
 32
0.0
 13
59.374510642364612
 23
50.551813396295529
 33
0.0
210
0.0
220
0.0
230
1.0
  0
SOLID
  5
68AA
  8
DRG
  6
CONTINUOUS
 62
     7
 10
167.52163335736839
 20
53.601455089215932
 30
0.0
 11
156.80779701575881
 21
50.232134967115158
 31
0.0
 12
171.0912486890569
 22
45.21828747592599
 32
0.0
 13
171.0912486890569
 23
45.21828747592599
 33
0.0
210
0.0
220
0.0
230
1.0
  0
SOLID
  5
68AB
  8
DRG
  6
CONTINUOUS
 62
     7
 10
85.261041575894609
 20
53.841290814686097
 30
0.0
 11
96.346287198785603
 21
51.174329300060663
 31
0.0
 12
107.7375943521987
 22
53.545888665485258
 32
0.0
 13
107.7375943521987
 23
53.545888665485258
 33
0.0
210
0.0
220
0.0
230
1.0
  0
SOLID
  5
68AC
  8
DRG
  6
CONTINUOUS
 62
     7
 10
85.261041575894609
 20
53.841290814686097
 30
0.0
 11
81.470405744524527
 21
45.910674481046733
 31
0.0
 12
96.346287198785603
 22
51.174329300060663
 32
0.0
 13
96.346287198785603
 23
51.174329300060663
 33
0.0
  0
SOLID
  5
68AD
  8
DRG
  6
CONTINUOUS
 62
     7
 10
10.42981956125807
 20
54.445496591066302
 30
0.0
 11
7.0305774038875759
 21
46.17022669896302
 31
0.0
 12
22.683854862926282
 22
51.376400993896397
 32
0.0
 13
22.683854862926282
 23
51.376400993896397
 33
0.0
210
0.0
220
0.0
230
1.0
  0
SOLID
  5
68AE
  8
DRG
  6
CONTINUOUS
 62
     7
 10
146.2582646169646
 20
54.791588372372388
 30
0.0
 11
156.80779701575881
 21
50.232134967115158
 31
0.0
 12
167.52163335736839
 22
53.601455089215932
 32
0.0
 13
167.52163335736839
 23
53.601455089215932
 33
0.0
210
0.0
220
0.0
230
1.0
  0
SOLID
  5
68AF
  8
DRG
  6
CONTINUOUS
 62
     7
 10
146.2582646169646
 20
54.791588372372388
 30
0.0
 11
141.8917942032017
 21
48.84260609145101
 31
0.0
 12
156.80779701575881
 22
50.232134967115158
 32
0.0
 13
156.80779701575881
 23
50.232134967115158
 33
0.0
  0
SOLID
  5
68B0
  8
DRG
  6
CONTINUOUS
 62
     7
 10
24.090833070868062
 20
56.165006499923557
 30
0.0
 11
10.42981956125807
 21
54.445496591066302
 31
0.0
 12
22.683854862926282
 22
51.376400993896397
 32
0.0
 13
22.683854862926282
 23
51.376400993896397
 33
0.0
210
0.0
220
0.0
230
1.0
  0
SOLID
  5
68B1
  8
DRG
  6
CONTINUOUS
 62
     7
 10
24.090833070868062
 20
56.165006499923557
 30
0.0
 11
22.683854862926282
 21
51.376400993896397
 31
0.0
 12
27.267121908897021
 22
51.255838552818979
 32
0.0
 13
27.267121908897021
 23
51.255838552818979
 33
0.0
210
0.0
220
0.0
230
1.0
  0
SOLID
  5
68B2
  8
DRG
  6
CONTINUOUS
 62
     7
 10
131.36827517159969
 20
56.399981316747272
 30
0.0
 11
127.2345352189994
 21
53.086533694841222
 31
0.0
 12
136.6041529029215
 22
48.740104065808111
 32
0.0
 13
136.6041529029215
 23
48.740104065808111
 33
0.0
210
0.0
220
0.0
230
1.0
  0
SOLID
  5
68B3
  8
DRG
  6
CONTINUOUS
 62
     7
 10
47.983201019849879
 20
53.54588866548535
 30
0.0
 11
62.280536421539182
 21
57.06060729124669
 31
0.0
 12
56.468482394088369
 22
57.06060729124669
 32
0.0
 13
56.468482394088369
 23
57.06060729124669
 33
0.0
210
0.0
220
0.0
230
1.0
  0
SOLID
  5
68B4
  8
DRG
  6
CONTINUOUS
 62
     7
 10
62.280536421539182
 20
57.06060729124669
 30
0.0
 11
47.983201019849879
 21
53.54588866548535
 31
0.0
 12
70.76581779577775
 22
53.545888665485258
 32
0.0
 13
70.76581779577775
 23
53.545888665485258
 33
0.0
  0
SOLID
  5
68B5
  8
DRG
  6
CONTINUOUS
 62
     7
 10
27.267121908897021
 20
51.255838552818979
 30
0.0
 11
37.639779947293832
 21
57.06060729124669
 31
0.0
 12
27.267121908897028
 22
57.06060729124669
 32
0.0
 13
27.267121908897028
 23
57.06060729124669
 33
0.0
210
0.0
220
0.0
230
1.0
  0
SOLID
  5
68B6
  8
DRG
  6
CONTINUOUS
 62
     7
 10
37.639779947293832
 20
57.06060729124669
 30
0.0
 11
27.267121908897021
 21
51.255838552818979
 31
0.0
 12
37.639779947293839
 22
13.760967175618781
 32
0.0
 13
37.639779947293839
 23
13.760967175618781
 33
0.0
  0
SOLID
  5
68B7
  8
DRG
  6
CONTINUOUS
 62
     7
 10
85.261041575894609
 20
53.841290814686097
 30
0.0
 11
99.252312977960173
 21
57.06060729124669
 31
0.0
 12
93.440258950509346
 22
57.06060729124669
 32
0.0
 13
93.440258950509346
 23
57.06060729124669
 33
0.0
210
0.0
220
0.0
230
1.0
  0
SOLID
  5
68B8
  8
DRG
  6
CONTINUOUS
 62
     7
 10
99.252312977960173
 20
57.06060729124669
 30
0.0
 11
85.261041575894609
 21
53.841290814686097
 31
0.0
 12
107.7375943521987
 22
53.545888665485258
 32
0.0
 13
107.7375943521987
 23
53.545888665485258
 33
0.0
  0
SOLID
  5
68B9
  8
DRG
  6
CONTINUOUS
 62
     7
 10
146.2582646169646
 20
54.791588372372388
 30
0.0
 11
159.0922846938046
 21
57.06060729124669
 31
0.0
 12
153.28023066635379
 22
57.06060729124669
 32
0.0
 13
153.28023066635379
 23
57.06060729124669
 33
0.0
210
0.0
220
0.0
230
1.0
  0
SOLID
  5
68BA
  8
DRG
  6
CONTINUOUS
 62
     7
 10
159.0922846938046
 20
57.06060729124669
 30
0.0
 11
146.2582646169646
 21
54.791588372372388
 31
0.0
 12
167.52163335736839
 22
53.601455089215932
 32
0.0
 13
167.52163335736839
 23
53.601455089215932
 33
0.0
210
0.0
220
0.0
230
1.0
  0
SOLID
  5
68BB
  8
DRG
  6
CONTINUOUS
 62
     7
 10
136.6041529029215
 20
57.207648031108022
 30
0.0
 11
131.36827517159969
 21
56.399981316747272
 31
0.0
 12
136.6041529029215
 22
48.740104065808111
 32
0.0
 13
136.6041529029215
 23
48.740104065808111
 33
0.0
210
0.0
220
0.0
230
1.0
  0
SOLID
  5
68BC
  8
DRG
  6
CONTINUOUS
 62
     7
 10
127.2345352189994
 20
53.086533694841222
 30
0.0
 11
127.2345352189994
 21
57.207648031108022
 31
0.0
 12
116.19314081319391
 22
57.207648031108022
 32
0.0
 13
116.19314081319391
 23
57.207648031108022
 33
0.0
210
0.0
220
0.0
230
1.0
  0
SOLID
  5
68BD
  8
DRG
  6
CONTINUOUS
 62
     7
 10
116.19314081319391
 20
57.207648031108022
 30
0.0
 11
116.19314081319391
 21
17.28637227261407
 31
0.0
 12
127.2345352189994
 22
53.086533694841222
 32
0.0
 13
127.2345352189994
 23
53.086533694841222
 33
0.0
210
0.0
220
0.0
230
1.0
  0
SOLID
  5
68BE
  8
DRG
  6
CONTINUOUS
 62
     7
 10
18.58303542025671
 20
58.127888502333931
 30
0.0
 11
10.42981956125807
 21
54.445496591066302
 31
0.0
 12
24.090833070868062
 22
56.165006499923557
 32
0.0
 13
24.090833070868062
 23
56.165006499923557
 33
0.0
210
0.0
220
0.0
230
1.0
  0
SOLID
  5
68BF
  8
DRG
  6
CONTINUOUS
 62
     7
 10
82.673677075028507
 20
61.207576574819242
 30
0.0
 11
75.331191210151701
 21
60.89733173546756
 31
0.0
 12
80.675802928262684
 22
60.89733173546756
 32
0.0
 13
80.675802928262684
 23
60.89733173546756
 33
0.0
210
0.0
220
0.0
230
1.0
  0
SOLID
  5
68C0
  8
DRG
  6
CONTINUOUS
 62
     7
 10
84.501142256151084
 20
62.072518178885289
 30
0.0
 11
75.331191210151701
 21
60.89733173546756
 31
0.0
 12
82.673677075028507
 22
61.207576574819242
 32
0.0
 13
82.673677075028507
 23
61.207576574819242
 33
0.0
210
0.0
220
0.0
230
1.0
  0
SOLID
  5
68C1
  8
DRG
  6
CONTINUOUS
 62
     7
 10
69.674336960659303
 20
63.240477485975177
 30
0.0
 11
75.331191210151701
 21
60.89733173546756
 31
0.0
 12
84.501142256151084
 22
62.072518178885289
 32
0.0
 13
84.501142256151084
 23
62.072518178885289
 33
0.0
210
0.0
220
0.0
230
1.0
  0
SOLID
  5
68C2
  8
DRG
  6
CONTINUOUS
 62
     7
 10
56.135465782143832
 20
64.412037842036057
 30
0.0
 11
41.838142899665847
 21
60.89733173546756
 31
0.0
 12
47.650196927116667
 22
60.89733173546756
 32
0.0
 13
47.650196927116667
 23
60.89733173546756
 33
0.0
  0
SOLID
  5
68C3
  8
DRG
  6
CONTINUOUS
 62
     7
 10
112.14710561917801
 20
64.412037842036057
 30
0.0
 11
97.849782736700035
 21
60.89733173546756
 31
0.0
 12
103.66183676415081
 22
60.89733173546756
 32
0.0
 13
103.66183676415081
 23
60.89733173546756
 33
0.0
210
0.0
220
0.0
230
1.0
  0
SOLID
  5
68C4
  8
DRG
  6
CONTINUOUS
 62
     7
 10
33.352861525427407
 20
64.412050361228864
 30
0.0
 11
41.838142899665847
 21
60.89733173546756
 31
0.0
 12
56.135465782143832
 22
64.412037842036057
 32
0.0
 13
56.135465782143832
 23
64.412037842036057
 33
0.0
210
0.0
220
0.0
230
1.0
  0
SOLID
  5
68C5
  8
DRG
  6
CONTINUOUS
 62
     7
 10
89.364501362461496
 20
64.412050361228964
 30
0.0
 11
97.849782736700035
 21
60.89733173546756
 31
0.0
 12
112.14710561917801
 22
64.412037842036057
 32
0.0
 13
112.14710561917801
 23
64.412037842036057
 33
0.0
210
0.0
220
0.0
230
1.0
  0
SOLID
  5
68C6
  8
DRG
  6
CONTINUOUS
 62
     7
 10
44.744171147941039
 20
68.794444026784149
 30
0.0
 11
33.352861525427407
 21
64.412050361228864
 31
0.0
 12
56.135465782143832
 22
64.412037842036057
 32
0.0
 13
56.135465782143832
 23
64.412037842036057
 33
0.0
210
0.0
220
0.0
230
1.0
  0
SOLID
  5
68C7
  8
DRG
  6
CONTINUOUS
 62
     7
 10
100.7558109849752
 20
68.794444026784163
 30
0.0
 11
89.364501362461496
 21
64.412050361228964
 31
0.0
 12
112.14710561917801
 22
64.412037842036057
 32
0.0
 13
112.14710561917801
 23
64.412037842036057
 33
0.0
210
0.0
220
0.0
230
1.0
  0
SOLID
  5
68C8
  8
DRG
  6
CONTINUOUS
 62
     7
 10
67.331191210151701
 20
68.89733173546756
 30
0.0
 11
69.674336960659303
 21
63.240477485975177
 31
0.0
 12
84.501142256151084
 22
62.072518178885289
 32
0.0
 13
84.501142256151084
 23
62.072518178885289
 33
0.0
210
0.0
220
0.0
230
1.0
  0
SOLID
  5
68C9
  8
DRG
  6
CONTINUOUS
 62
     7
 10
80.482556033578916
 20
69.876055965300111
 30
0.0
 11
67.331191210151701
 21
68.89733173546756
 31
0.0
 12
84.501142256151084
 22
62.072518178885289
 32
0.0
 13
84.501142256151084
 23
62.072518178885289
 33
0.0
210
0.0
220
0.0
230
1.0
  0
SOLID
  5
68CA
  8
DRG
  6
CONTINUOUS
 62
     7
 10
84.501142256151084
 20
62.072518178885289
 30
0.0
 11
83.501142256151255
 21
69.876055965300111
 31
0.0
 12
80.482556033578916
 22
69.876055965300111
 32
0.0
 13
80.482556033578916
 23
69.876055965300111
 33
0.0
210
0.0
220
0.0
230
1.0
  0
SOLID
  5
68CB
  8
DRG
  6
CONTINUOUS
 62
     7
 10
47.474451372317922
 20
69.925363124799233
 30
0.0
 11
44.744171147941039
 21
68.794444026784149
 31
0.0
 12
56.135465782143832
 22
64.412037842036057
 32
0.0
 13
56.135465782143832
 23
64.412037842036057
 33
0.0
210
0.0
220
0.0
230
1.0
  0
SOLID
  5
68CC
  8
DRG
  6
CONTINUOUS
 62
     7
 10
103.4860912093521
 20
69.925363124799233
 30
0.0
 11
100.7558109849752
 21
68.794444026784163
 31
0.0
 12
112.14710561917801
 22
64.412037842036057
 32
0.0
 13
112.14710561917801
 23
64.412037842036057
 33
0.0
210
0.0
220
0.0
230
1.0
  0
SOLID
  5
68CD
  8
DRG
  6
CONTINUOUS
 62
     7
 10
42.01389092356478
 20
69.925363124800725
 30
0.0
 11
33.352861525427407
 21
64.412050361228864
 31
0.0
 12
44.744171147941039
 22
68.794444026784149
 32
0.0
 13
44.744171147941039
 23
68.794444026784149
 33
0.0
210
0.0
220
0.0
230
1.0
  0
SOLID
  5
68CE
  8
DRG
  6
CONTINUOUS
 62
     7
 10
98.025530760598997
 20
69.925363124800725
 30
0.0
 11
89.364501362461496
 21
64.412050361228964
 31
0.0
 12
100.7558109849752
 22
68.794444026784163
 32
0.0
 13
100.7558109849752
 23
68.794444026784163
 33
0.0
210
0.0
220
0.0
230
1.0
  0
SOLID
  5
68CF
  8
DRG
  6
CONTINUOUS
 62
     7
 10
84.015250681967487
 20
70.00375669518948
 30
0.0
 11
83.501142256151255
 21
69.876055965300111
 31
0.0
 12
84.501142256151084
 22
62.072518178885289
 32
0.0
 13
84.501142256151084
 23
62.072518178885289
 33
0.0
  0
SOLID
  5
68D0
  8
DRG
  6
CONTINUOUS
 62
     7
 10
84.501142256151084
 20
70.214764581409185
 30
0.0
 11
84.015250681967487
 21
70.00375669518948
 31
0.0
 12
84.501142256151084
 22
62.072518178885289
 32
0.0
 13
84.501142256151084
 23
62.072518178885289
 33
0.0
210
0.0
220
0.0
230
1.0
  0
SOLID
  5
68D1
  8
DRG
  6
CONTINUOUS
 62
     7
 10
78.361235690019285
 20
70.754735621740465
 30
0.0
 11
67.331191210151701
 21
68.89733173546756
 31
0.0
 12
80.482556033578916
 22
69.876055965300111
 32
0.0
 13
80.482556033578916
 23
69.876055965300111
 33
0.0
210
0.0
220
0.0
230
1.0
  0
SOLID
  5
68D2
  8
DRG
  6
CONTINUOUS
 62
     7
 10
48.605370470334492
 20
72.655643349175492
 30
0.0
 11
47.474451372317922
 21
69.925363124799233
 31
0.0
 12
56.135465782143832
 22
64.412037842036057
 32
0.0
 13
56.135465782143832
 23
64.412037842036057
 33
0.0
  0
SOLID
  5
68D3
  8
DRG
  6
CONTINUOUS
 62
     7
 10
104.6170103073686
 20
72.655643349175506
 30
0.0
 11
103.4860912093521
 21
69.925363124799233
 31
0.0
 12
112.14710561917801
 22
64.412037842036057
 32
0.0
 13
112.14710561917801
 23
64.412037842036057
 33
0.0
  0
SOLID
  5
68D4
  8
DRG
  6
CONTINUOUS
 62
     7
 10
40.882971825549703
 20
72.655643349177566
 30
0.0
 11
33.352861525427407
 21
64.412050361228864
 31
0.0
 12
42.01389092356478
 22
69.925363124800725
 32
0.0
 13
42.01389092356478
 23
69.925363124800725
 33
0.0
210
0.0
220
0.0
230
1.0
  0
SOLID
  5
68D5
  8
DRG
  6
CONTINUOUS
 62
     7
 10
96.894611662583884
 20
72.655643349177595
 30
0.0
 11
89.364501362461496
 21
64.412050361228964
 31
0.0
 12
98.025530760598997
 22
69.925363124800725
 32
0.0
 13
98.025530760598997
 23
69.925363124800725
 33
0.0
210
0.0
220
0.0
230
1.0
  0
SOLID
  5
68D6
  8
DRG
  6
CONTINUOUS
 62
     7
 10
77.482556033578931
 20
72.876055965300111
 30
0.0
 11
67.331191210151701
 21
68.89733173546756
 31
0.0
 12
78.361235690019285
 22
70.754735621740465
 32
0.0
 13
78.361235690019285
 23
70.754735621740465
 33
0.0
210
0.0
220
0.0
230
1.0
  0
SOLID
  5
68D7
  8
DRG
  6
CONTINUOUS
 62
     7
 10
115.6618367640986
 20
72.897296325816527
 30
0.0
 11
104.6170103073686
 21
72.655643349175506
 31
0.0
 12
112.14710561917801
 22
64.412037842036057
 32
0.0
 13
112.14710561917801
 23
64.412037842036057
 33
0.0
  0
SOLID
  5
68D8
  8
DRG
  6
CONTINUOUS
 62
     7
 10
59.650196927064421
 20
72.897296325816555
 30
0.0
 11
48.605370470334492
 21
72.655643349175492
 31
0.0
 12
56.135465782143832
 22
64.412037842036057
 32
0.0
 13
56.135465782143832
 23
64.412037842036057
 33
0.0
210
0.0
220
0.0
230
1.0
  0
SOLID
  5
68D9
  8
DRG
  6
CONTINUOUS
 62
     7
 10
29.838142899665851
 20
72.897331735467191
 30
0.0
 11
33.352861525427407
 21
64.412050361228864
 31
0.0
 12
40.882971825549703
 22
72.655643349177566
 32
0.0
 13
40.882971825549703
 23
72.655643349177566
 33
0.0
  0
SOLID
  5
68DA
  8
DRG
  6
CONTINUOUS
 62
     7
 10
85.849782736700035
 20
72.897331735467475
 30
0.0
 11
89.364501362461496
 21
64.412050361228964
 31
0.0
 12
96.894611662583884
 22
72.655643349177595
 32
0.0
 13
96.894611662583884
 23
72.655643349177595
 33
0.0
210
0.0
220
0.0
230
1.0
  0
SOLID
  5
68DB
  8
DRG
  6
CONTINUOUS
 62
     7
 10
165.4162645291251
 20
78.311404477182364
 30
0.0
 11
161.3332883364622
 21
62.115696081838678
 31
0.0
 12
171.78072804963571
 22
62.115696081838678
 32
0.0
 13
171.78072804963571
 23
62.115696081838678
 33
0.0
210
0.0
220
0.0
230
1.0
  0
SOLID
  5
68DC
  8
DRG
  6
CONTINUOUS
 62
     7
 10
104.83699487280531
 20
81.496816718755184
 30
0.0
 11
104.6170103073686
 21
72.655643349175506
 31
0.0
 12
115.6618367640986
 22
72.897296325816527
 32
0.0
 13
115.6618367640986
 23
72.897296325816527
 33
0.0
210
0.0
220
0.0
230
1.0
  0
SOLID
  5
68DD
  8
DRG
  6
CONTINUOUS
 62
     7
 10
48.825355035771203
 20
81.496816718755184
 30
0.0
 11
48.605370470334492
 21
72.655643349175492
 31
0.0
 12
59.650196927064421
 22
72.897296325816555
 32
0.0
 13
59.650196927064421
 23
72.897296325816555
 33
0.0
210
0.0
220
0.0
230
1.0
  0
SOLID
  5
68DE
  8
DRG
  6
CONTINUOUS
 62
     7
 10
115.9613008061006
 20
81.496816718755412
 30
0.0
 11
104.83699487280531
 21
81.496816718755184
 31
0.0
 12
115.6618367640986
 22
72.897296325816527
 32
0.0
 13
115.6618367640986
 23
72.897296325816527
 33
0.0
210
0.0
220
0.0
230
1.0
  0
SOLID
  5
68DF
  8
DRG
  6
CONTINUOUS
 62
     7
 10
59.9496609690664
 20
81.49681671875544
 30
0.0
 11
48.825355035771203
 21
81.496816718755184
 31
0.0
 12
59.650196927064421
 22
72.897296325816555
 32
0.0
 13
59.650196927064421
 23
72.897296325816555
 33
0.0
210
0.0
220
0.0
230
1.0
  0
SOLID
  5
68E0
  8
DRG
  6
CONTINUOUS
 62
     7
 10
29.538681326817759
 20
81.496816718755596
 30
0.0
 11
29.838142899665851
 21
72.897331735467191
 31
0.0
 12
40.882971825549703
 22
72.655643349177566
 32
0.0
 13
40.882971825549703
 23
72.655643349177566
 33
0.0
  0
SOLID
  5
68E1
  8
DRG
  6
CONTINUOUS
 62
     7
 10
85.550321163851976
 20
81.496816718755767
 30
0.0
 11
85.849782736700035
 21
72.897331735467475
 31
0.0
 12
96.894611662583884
 22
72.655643349177595
 32
0.0
 13
96.894611662583884
 23
72.655643349177595
 33
0.0
210
0.0
220
0.0
230
1.0
  0
SOLID
  5
68E2
  8
DRG
  6
CONTINUOUS
 62
     7
 10
40.662987260112992
 20
81.496816718755866
 30
0.0
 11
29.538681326817759
 21
81.496816718755596
 31
0.0
 12
40.882971825549703
 22
72.655643349177566
 32
0.0
 13
40.882971825549703
 23
72.655643349177566
 33
0.0
210
0.0
220
0.0
230
1.0
  0
SOLID
  5
68E3
  8
DRG
  6
CONTINUOUS
 62
     7
 10
96.674627097147194
 20
81.496816718756293
 30
0.0
 11
85.550321163851976
 21
81.496816718755767
 31
0.0
 12
96.894611662583884
 22
72.655643349177595
 32
0.0
 13
96.894611662583884
 23
72.655643349177595
 33
0.0
210
0.0
220
0.0
230
1.0
  0
SOLID
  5
68E4
  8
DRG
  6
CONTINUOUS
 62
     7
 10
153.2899770207527
 20
82.583583780839575
 30
0.0
 11
161.3332883364622
 21
62.115696081838678
 31
0.0
 12
165.4162645291251
 22
78.311404477182364
 32
0.0
 13
165.4162645291251
 23
78.311404477182364
 33
0.0
210
0.0
220
0.0
230
1.0
  0
SOLID
  5
68E5
  8
DRG
  6
CONTINUOUS
 62
     7
 10
18.821661727211438
 20
85.569427875032716
 30
0.0
 11
7.7802673214059723
 21
62.115696081838671
 31
0.0
 12
18.821661727211438
 22
62.115696081838678
 32
0.0
 13
18.821661727211438
 23
62.115696081838678
 33
0.0
  0
SOLID
  5
68E6
  8
DRG
  6
CONTINUOUS
 62
     7
 10
130.05101171535759
 20
85.569427875032716
 30
0.0
 11
119.0096173095521
 21
62.115696081838678
 31
0.0
 12
130.05101171535759
 22
62.115696081838671
 32
0.0
 13
130.05101171535759
 23
62.115696081838671
 33
0.0
210
0.0
220
0.0
230
1.0
  0
SOLID
  5
68E7
  8
DRG
  6
CONTINUOUS
 62
     7
 10
176.9709164189357
 20
86.855763084496857
 30
0.0
 11
153.2899770207527
 21
82.583583780839575
 31
0.0
 12
165.4162645291251
 22
78.311404477182364
 32
0.0
 13
165.4162645291251
 23
78.311404477182364
 33
0.0
210
0.0
220
0.0
230
1.0
  0
SOLID
  5
68E8
  8
DRG
  6
CONTINUOUS
 62
     7
 10
176.9709164189357
 20
86.855763084496857
 30
0.0
 11
165.4162645291251
 21
78.311404477182364
 31
0.0
 12
176.9709164189357
 22
78.31140447718235
 32
0.0
 13
176.9709164189357
 23
78.31140447718235
 33
0.0
210
0.0
220
0.0
230
1.0
  0
SOLID
  5
68E9
  8
DRG
  6
CONTINUOUS
 62
     7
 10
165.4162645291251
 20
86.855763084496886
 30
0.0
 11
153.2899770207527
 21
82.583583780839575
 31
0.0
 12
176.9709164189357
 22
86.855763084496857
 32
0.0
 13
176.9709164189357
 23
86.855763084496857
 33
0.0
210
0.0
220
0.0
230
1.0
  0
SOLID
  5
68EA
  8
DRG
  6
CONTINUOUS
 62
     7
 10
29.83814289966584
 20
90.096301702044016
 30
0.0
 11
29.538681326817759
 21
81.496816718755596
 31
0.0
 12
40.662987260112992
 22
81.496816718755866
 32
0.0
 13
40.662987260112992
 23
81.496816718755866
 33
0.0
210
0.0
220
0.0
230
1.0
  0
SOLID
  5
68EB
  8
DRG
  6
CONTINUOUS
 62
     7
 10
85.849782736700035
 20
90.096301702044045
 30
0.0
 11
85.550321163851976
 21
81.496816718755767
 31
0.0
 12
96.674627097147194
 22
81.496816718756293
 32
0.0
 13
96.674627097147194
 23
81.496816718756293
 33
0.0
210
0.0
220
0.0
230
1.0
  0
SOLID
  5
68EC
  8
DRG
  6
CONTINUOUS
 62
     7
 10
115.6618367640986
 20
90.096337111694325
 30
0.0
 11
104.83699487280531
 21
81.496816718755184
 31
0.0
 12
115.9613008061006
 22
81.496816718755412
 32
0.0
 13
115.9613008061006
 23
81.496816718755412
 33
0.0
210
0.0
220
0.0
230
1.0
  0
SOLID
  5
68ED
  8
DRG
  6
CONTINUOUS
 62
     7
 10
59.650196927064421
 20
90.096337111694368
 30
0.0
 11
48.825355035771203
 21
81.496816718755184
 31
0.0
 12
59.9496609690664
 22
81.49681671875544
 32
0.0
 13
59.9496609690664
 23
81.49681671875544
 33
0.0
210
0.0
220
0.0
230
1.0
  0
SOLID
  5
68EE
  8
DRG
  6
CONTINUOUS
 62
     7
 10
40.882971825549703
 20
90.337990088334166
 30
0.0
 11
29.83814289966584
 21
90.096301702044016
 31
0.0
 12
40.662987260112992
 22
81.496816718755866
 32
0.0
 13
40.662987260112992
 23
81.496816718755866
 33
0.0
  0
SOLID
  5
68EF
  8
DRG
  6
CONTINUOUS
 62
     7
 10
104.6170103073686
 20
90.337990088334735
 30
0.0
 11
104.83699487280531
 21
81.496816718755184
 31
0.0
 12
115.6618367640986
 22
90.096337111694325
 32
0.0
 13
115.6618367640986
 23
90.096337111694325
 33
0.0
210
0.0
220
0.0
230
1.0
  0
SOLID
  5
68F0
  8
DRG
  6
CONTINUOUS
 62
     7
 10
48.605370470334456
 20
90.337990088334735
 30
0.0
 11
48.825355035771203
 21
81.496816718755184
 31
0.0
 12
59.650196927064421
 22
90.096337111694368
 32
0.0
 13
59.650196927064421
 23
90.096337111694368
 33
0.0
210
0.0
220
0.0
230
1.0
  0
SOLID
  5
68F1
  8
DRG
  6
CONTINUOUS
 62
     7
 10
96.894611662583884
 20
90.337990088335033
 30
0.0
 11
85.849782736700035
 21
90.096301702044045
 31
0.0
 12
96.674627097147194
 22
81.496816718756293
 32
0.0
 13
96.674627097147194
 23
81.496816718756293
 33
0.0
210
0.0
220
0.0
230
1.0
  0
SOLID
  5
68F2
  8
DRG
  6
CONTINUOUS
 62
     7
 10
132.39415746586519
 20
91.226282124525085
 30
0.0
 11
119.0096173095521
 21
62.115696081838678
 31
0.0
 12
130.05101171535759
 22
85.569427875032716
 32
0.0
 13
130.05101171535759
 23
85.569427875032716
 33
0.0
210
0.0
220
0.0
230
1.0
  0
SOLID
  5
68F3
  8
DRG
  6
CONTINUOUS
 62
     7
 10
21.164807477719059
 20
91.226282124525085
 30
0.0
 11
7.7802673214059723
 21
62.115696081838671
 31
0.0
 12
18.821661727211438
 22
85.569427875032716
 32
0.0
 13
18.821661727211438
 23
85.569427875032716
 33
0.0
210
0.0
220
0.0
230
1.0
  0
SOLID
  5
68F4
  8
DRG
  6
CONTINUOUS
 62
     7
 10
42.01389092356532
 20
93.068270312710808
 30
0.0
 11
29.83814289966584
 21
90.096301702044016
 31
0.0
 12
40.882971825549703
 22
90.337990088334166
 32
0.0
 13
40.882971825549703
 23
90.337990088334166
 33
0.0
  0
SOLID
  5
68F5
  8
DRG
  6
CONTINUOUS
 62
     7
 10
47.474451372318462
 20
93.068270312711235
 30
0.0
 11
48.605370470334456
 21
90.337990088334735
 31
0.0
 12
59.650196927064421
 22
90.096337111694368
 32
0.0
 13
59.650196927064421
 23
90.096337111694368
 33
0.0
  0
SOLID
  5
68F6
  8
DRG
  6
CONTINUOUS
 62
     7
 10
103.48609120935291
 20
93.068270312711377
 30
0.0
 11
104.6170103073686
 21
90.337990088334735
 31
0.0
 12
115.6618367640986
 22
90.096337111694325
 32
0.0
 13
115.6618367640986
 23
90.096337111694325
 33
0.0
210
0.0
220
0.0
230
1.0
  0
SOLID
  5
68F7
  8
DRG
  6
CONTINUOUS
 62
     7
 10
98.025530760599821
 20
93.068270312711576
 30
0.0
 11
85.849782736700035
 21
90.096301702044045
 31
0.0
 12
96.894611662583884
 22
90.337990088335033
 32
0.0
 13
96.894611662583884
 23
90.337990088335033
 33
0.0
210
0.0
220
0.0
230
1.0
  0
SOLID
  5
68F8
  8
DRG
  6
CONTINUOUS
 62
     7
 10
44.744171147941813
 20
94.199189410726845
 30
0.0
 11
29.83814289966584
 21
90.096301702044016
 31
0.0
 12
42.01389092356532
 22
93.068270312710808
 32
0.0
 13
42.01389092356532
 23
93.068270312710808
 33
0.0
210
0.0
220
0.0
230
1.0
  0
SOLID
  5
68F9
  8
DRG
  6
CONTINUOUS
 62
     7
 10
44.744171147941813
 20
94.199189410726845
 30
0.0
 11
47.474451372318462
 21
93.068270312711235
 31
0.0
 12
59.650196927064421
 22
90.096337111694368
 32
0.0
 13
59.650196927064421
 23
90.096337111694368
 33
0.0
210
0.0
220
0.0
230
1.0
  0
SOLID
  5
68FA
  8
DRG
  6
CONTINUOUS
 62
     7
 10
100.75581098497641
 20
94.199189410727286
 30
0.0
 11
85.849782736700035
 21
90.096301702044045
 31
0.0
 12
98.025530760599821
 22
93.068270312711576
 32
0.0
 13
98.025530760599821
 23
93.068270312711576
 33
0.0
210
0.0
220
0.0
230
1.0
  0
SOLID
  5
68FB
  8
DRG
  6
CONTINUOUS
 62
     7
 10
100.75581098497641
 20
94.199189410727286
 30
0.0
 11
103.48609120935291
 21
93.068270312711377
 31
0.0
 12
115.6618367640986
 22
90.096337111694325
 32
0.0
 13
115.6618367640986
 23
90.096337111694325
 33
0.0
210
0.0
220
0.0
230
1.0
  0
SOLID
  5
68FC
  8
DRG
  6
CONTINUOUS
 62
     7
 10
77.482556033578931
 20
94.593352860836134
 30
0.0
 11
67.331191210151701
 21
68.89733173546756
 31
0.0
 12
77.482556033578931
 22
72.876055965300111
 32
0.0
 13
77.482556033578931
 23
72.876055965300111
 33
0.0
210
0.0
220
0.0
230
1.0
  0
SOLID
  5
68FD
  8
DRG
  6
CONTINUOUS
 62
     7
 10
67.331191210151687
 20
94.593352860836134
 30
0.0
 11
77.482556033578931
 21
94.593352860836134
 31
0.0
 12
84.553623006881026
 22
94.593352860836134
 32
0.0
 13
84.553623006881026
 23
94.593352860836134
 33
0.0
210
0.0
220
0.0
230
1.0
  0
SOLID
  5
68FE
  8
DRG
  6
CONTINUOUS
 62
     7
 10
67.331191210151687
 20
94.593352860836134
 30
0.0
 11
67.331191210151701
 21
68.89733173546756
 31
0.0
 12
77.482556033578931
 22
94.593352860836134
 32
0.0
 13
77.482556033578931
 23
94.593352860836134
 33
0.0
210
0.0
220
0.0
230
1.0
  0
SOLID
  5
68FF
  8
DRG
  6
CONTINUOUS
 62
     7
 10
130.05101171535759
 20
97.915857504065855
 30
0.0
 11
138.05101171535759
 21
93.569427875032716
 31
0.0
 12
139.4206293992797
 22
93.56942787503273
 32
0.0
 13
139.4206293992797
 23
93.56942787503273
 33
0.0
210
0.0
220
0.0
230
1.0
  0
SOLID
  5
6900
  8
DRG
  6
CONTINUOUS
 62
     7
 10
130.05101171535759
 20
97.915857504065855
 30
0.0
 11
132.39415746586519
 21
91.226282124525085
 31
0.0
 12
138.05101171535759
 22
93.569427875032716
 32
0.0
 13
138.05101171535759
 23
93.569427875032716
 33
0.0
210
0.0
220
0.0
230
1.0
  0
SOLID
  5
6901
  8
DRG
  6
CONTINUOUS
 62
     7
 10
130.05101171535759
 20
97.915857504065855
 30
0.0
 11
119.0096173095521
 21
62.115696081838678
 31
0.0
 12
132.39415746586519
 22
91.226282124525085
 32
0.0
 13
132.39415746586519
 23
91.226282124525085
 33
0.0
210
0.0
220
0.0
230
1.0
  0
SOLID
  5
6902
  8
DRG
  6
CONTINUOUS
 62
     7
 10
18.821661727211438
 20
97.915857504065912
 30
0.0
 11
26.821661727211438
 21
93.569427875032716
 31
0.0
 12
28.191279411133561
 22
93.56942787503273
 32
0.0
 13
28.191279411133561
 23
93.56942787503273
 33
0.0
  0
SOLID
  5
6903
  8
DRG
  6
CONTINUOUS
 62
     7
 10
18.821661727211438
 20
97.915857504065912
 30
0.0
 11
21.164807477719059
 21
91.226282124525085
 31
0.0
 12
26.821661727211438
 22
93.569427875032716
 32
0.0
 13
26.821661727211438
 23
93.569427875032716
 33
0.0
210
0.0
220
0.0
230
1.0
  0
SOLID
  5
6904
  8
DRG
  6
CONTINUOUS
 62
     7
 10
18.821661727211438
 20
97.915857504065912
 30
0.0
 11
7.7802673214059723
 21
62.115696081838671
 31
0.0
 12
21.164807477719059
 22
91.226282124525085
 32
0.0
 13
21.164807477719059
 23
91.226282124525085
 33
0.0
210
0.0
220
0.0
230
1.0
  0
SOLID
  5
6905
  8
DRG
  6
CONTINUOUS
 62
     7
 10
33.352861525427372
 20
98.581583076282442
 30
0.0
 11
29.83814289966584
 21
90.096301702044016
 31
0.0
 12
44.744171147941813
 22
94.199189410726845
 32
0.0
 13
44.744171147941813
 23
94.199189410726845
 33
0.0
210
0.0
220
0.0
230
1.0
  0
SOLID
  5
6906
  8
DRG
  6
CONTINUOUS
 62
     7
 10
89.364501362461553
 20
98.581583076282442
 30
0.0
 11
85.849782736700035
 21
90.096301702044045
 31
0.0
 12
100.75581098497641
 22
94.199189410727286
 32
0.0
 13
100.75581098497641
 23
94.199189410727286
 33
0.0
210
0.0
220
0.0
230
1.0
  0
SOLID
  5
6907
  8
DRG
  6
CONTINUOUS
 62
     7
 10
112.14710561917811
 20
98.581595595475122
 30
0.0
 11
89.364501362461553
 21
98.581583076282442
 31
0.0
 12
100.75581098497641
 22
94.199189410727286
 32
0.0
 13
100.75581098497641
 23
94.199189410727286
 33
0.0
210
0.0
220
0.0
230
1.0
  0
SOLID
  5
6908
  8
DRG
  6
CONTINUOUS
 62
     7
 10
112.14710561917811
 20
98.581595595475122
 30
0.0
 11
100.75581098497641
 21
94.199189410727286
 31
0.0
 12
115.6618367640986
 22
90.096337111694325
 32
0.0
 13
115.6618367640986
 23
90.096337111694325
 33
0.0
210
0.0
220
0.0
230
1.0
  0
SOLID
  5
6909
  8
DRG
  6
CONTINUOUS
 62
     7
 10
56.135465782143967
 20
98.581595595475136
 30
0.0
 11
33.352861525427372
 21
98.581583076282442
 31
0.0
 12
44.744171147941813
 22
94.199189410726845
 32
0.0
 13
44.744171147941813
 23
94.199189410726845
 33
0.0
210
0.0
220
0.0
230
1.0
  0
SOLID
  5
690A
  8
DRG
  6
CONTINUOUS
 62
     7
 10
56.135465782143967
 20
98.581595595475136
 30
0.0
 11
44.744171147941813
 21
94.199189410726845
 31
0.0
 12
59.650196927064421
 22
90.096337111694368
 32
0.0
 13
59.650196927064421
 23
90.096337111694368
 33
0.0
210
0.0
220
0.0
230
1.0
  0
SOLID
  5
690B
  8
DRG
  6
CONTINUOUS
 62
     7
 10
134.18475166795781
 20
101.22930512597181
 30
0.0
 11
130.05101171535759
 21
97.915857504065855
 31
0.0
 12
139.4206293992797
 22
93.56942787503273
 32
0.0
 13
139.4206293992797
 23
93.56942787503273
 33
0.0
210
0.0
220
0.0
230
1.0
  0
SOLID
  5
690C
  8
DRG
  6
CONTINUOUS
 62
     7
 10
22.955401679811722
 20
101.2293051259719
 30
0.0
 11
18.821661727211438
 21
97.915857504065912
 31
0.0
 12
28.191279411133561
 22
93.56942787503273
 32
0.0
 13
28.191279411133561
 23
93.56942787503273
 33
0.0
210
0.0
220
0.0
230
1.0
  0
SOLID
  5
690D
  8
DRG
  6
CONTINUOUS
 62
     7
 10
77.482556033578931
 20
101.9948050433795
 30
0.0
 11
62.478989637268569
 21
94.593352860836134
 31
0.0
 12
67.331191210151687
 22
94.593352860836134
 32
0.0
 13
67.331191210151687
 23
94.593352860836134
 33
0.0
210
0.0
220
0.0
230
1.0
  0
SOLID
  5
690E
  8
DRG
  6
CONTINUOUS
 62
     7
 10
77.482556033578931
 20
101.9948050433795
 30
0.0
 11
67.331191210151687
 21
94.593352860836134
 31
0.0
 12
84.553623006881026
 22
94.593352860836134
 32
0.0
 13
84.553623006881026
 23
94.593352860836134
 33
0.0
210
0.0
220
0.0
230
1.0
  0
SOLID
  5
690F
  8
DRG
  6
CONTINUOUS
 62
     7
 10
62.478989637268562
 20
101.9948050433795
 30
0.0
 11
62.478989637268569
 21
94.593352860836134
 31
0.0
 12
77.482556033578931
 22
101.9948050433795
 32
0.0
 13
77.482556033578931
 23
101.9948050433795
 33
0.0
  0
SOLID
  5
6910
  8
DRG
  6
CONTINUOUS
 62
     7
 10
84.553623006881026
 20
101.9948050433795
 30
0.0
 11
77.482556033578931
 21
101.9948050433795
 31
0.0
 12
84.553623006881026
 22
94.593352860836134
 32
0.0
 13
84.553623006881026
 23
94.593352860836134
 33
0.0
210
0.0
220
0.0
230
1.0
  0
SOLID
  5
6911
  8
DRG
  6
CONTINUOUS
 62
     7
 10
67.331191210151701
 20
101.9948050433795
 30
0.0
 11
62.478989637268562
 21
101.9948050433795
 31
0.0
 12
77.482556033578931
 22
101.9948050433795
 32
0.0
 13
77.482556033578931
 23
101.9948050433795
 33
0.0
210
0.0
220
0.0
230
1.0
  0
SOLID
  5
6912
  8
DRG
  6
CONTINUOUS
 62
     7
 10
139.4206293992797
 20
102.0369718403325
 30
0.0
 11
134.18475166795781
 21
101.22930512597181
 31
0.0
 12
139.4206293992797
 22
93.56942787503273
 32
0.0
 13
139.4206293992797
 23
93.56942787503273
 33
0.0
210
0.0
220
0.0
230
1.0
  0
SOLID
  5
6913
  8
DRG
  6
CONTINUOUS
 62
     7
 10
7.7802673214059723
 20
102.0369718403326
 30
0.0
 11
7.7802673214059723
 21
62.115696081838671
 31
0.0
 12
18.821661727211438
 22
97.915857504065912
 32
0.0
 13
18.821661727211438
 23
97.915857504065912
 33
0.0
210
0.0
220
0.0
230
1.0
  0
SOLID
  5
6914
  8
DRG
  6
CONTINUOUS
 62
     7
 10
18.821661727211438
 20
102.0369718403326
 30
0.0
 11
7.7802673214059723
 21
102.0369718403326
 31
0.0
 12
18.821661727211438
 22
97.915857504065912
 32
0.0
 13
18.821661727211438
 23
97.915857504065912
 33
0.0
  0
SOLID
  5
6915
  8
DRG
  6
CONTINUOUS
 62
     7
 10
142.11987082690661
 20
62.115696081838678
 30
0.0
 11
153.2899770207527
 21
102.0369718403326
 31
0.0
 12
142.11987082690661
 22
102.0369718403326
 32
0.0
 13
142.11987082690661
 23
102.0369718403326
 33
0.0
  0
SOLID
  5
6916
  8
DRG
  6
CONTINUOUS
 62
     7
 10
153.2899770207527
 20
102.0369718403326
 30
0.0
 11
142.11987082690661
 21
62.115696081838678
 31
0.0
 12
153.2899770207527
 22
62.115696081838678
 32
0.0
 13
153.2899770207527
 23
62.115696081838678
 33
0.0
210
0.0
220
0.0
230
1.0
  0
SOLID
  5
6917
  8
DRG
  6
CONTINUOUS
 62
     7
 10
130.05101171535759
 20
102.0369718403326
 30
0.0
 11
119.0096173095521
 21
62.115696081838678
 31
0.0
 12
130.05101171535759
 22
97.915857504065855
 32
0.0
 13
130.05101171535759
 23
97.915857504065855
 33
0.0
210
0.0
220
0.0
230
1.0
  0
SOLID
  5
6918
  8
DRG
  6
CONTINUOUS
 62
     7
 10
28.191279411133561
 20
102.0369718403326
 30
0.0
 11
22.955401679811722
 21
101.2293051259719
 31
0.0
 12
28.191279411133561
 22
93.56942787503273
 32
0.0
 13
28.191279411133561
 23
93.56942787503273
 33
0.0
210
0.0
220
0.0
230
1.0
  0
SOLID
  5
6919
  8
DRG
  6
CONTINUOUS
 62
     7
 10
165.4162645291251
 20
86.855763084496886
 30
0.0
 11
171.38205787173379
 21
102.0369718403326
 31
0.0
 12
160.9346181585602
 22
102.0369718403326
 32
0.0
 13
160.9346181585602
 23
102.0369718403326
 33
0.0
210
0.0
220
0.0
230
1.0
  0
SOLID
  5
691A
  8
DRG
  6
CONTINUOUS
 62
     7
 10
160.9346181585602
 20
102.0369718403326
 30
0.0
 11
153.2899770207527
 21
82.583583780839575
 31
0.0
 12
165.4162645291251
 22
86.855763084496886
 32
0.0
 13
165.4162645291251
 23
86.855763084496886
 33
0.0
  0
SOLID
  5
691B
  8
DRG
  6
CONTINUOUS
 62
     7
 10
119.0096173095521
 20
102.0369718403326
 30
0.0
 11
119.0096173095521
 21
62.115696081838678
 31
0.0
 12
130.05101171535759
 22
102.0369718403326
 32
0.0
 13
130.05101171535759
 23
102.0369718403326
 33
0.0
210
0.0
220
0.0
230
1.0
  0
SOLID
  5
691C
  8
DRG
  6
CONTINUOUS
 62
     7
 10
112.14710561917811
 20
98.581595595475122
 30
0.0
 11
103.66183676415081
 21
102.0963017020437
 31
0.0
 12
97.849782736700035
 22
102.0963017020437
 32
0.0
 13
97.849782736700035
 23
102.0963017020437
 33
0.0
210
0.0
220
0.0
230
1.0
  0
SOLID
  5
691D
  8
DRG
  6
CONTINUOUS
 62
     7
 10
97.849782736700035
 20
102.0963017020437
 30
0.0
 11
89.364501362461553
 21
98.581583076282442
 31
0.0
 12
112.14710561917811
 22
98.581595595475122
 32
0.0
 13
112.14710561917811
 23
98.581595595475122
 33
0.0
210
0.0
220
0.0
230
1.0
  0
SOLID
  5
691E
  8
DRG
  6
CONTINUOUS
 62
     7
 10
56.135465782143967
 20
98.581595595475136
 30
0.0
 11
47.650196927116667
 21
102.0963017020437
 31
0.0
 12
41.838142899665847
 22
102.0963017020437
 32
0.0
 13
41.838142899665847
 23
102.0963017020437
 33
0.0
210
0.0
220
0.0
230
1.0
  0
SOLID
  5
691F
  8
DRG
  6
CONTINUOUS
 62
     7
 10
41.838142899665847
 20
102.0963017020437
 30
0.0
 11
33.352861525427372
 21
98.581583076282442
 31
0.0
 12
56.135465782143967
 22
98.581595595475136
 32
0.0
 13
56.135465782143967
 23
98.581595595475136
 33
0.0
210
0.0
220
0.0
230
1.0
  0
SOLID
  5
6920
  8
DRG
  6
CONTINUOUS
 62
     7
 10
77.482556033578931
 20
107.1280725498991
 30
0.0
 11
67.331191210151701
 21
101.9948050433795
 31
0.0
 12
77.482556033578931
 22
101.9948050433795
 32
0.0
 13
77.482556033578931
 23
101.9948050433795
 33
0.0
  0
SOLID
  5
6921
  8
DRG
  6
CONTINUOUS
 62
     7
 10
67.331191210151701
 20
107.1280725498991
 30
0.0
 11
67.331191210151701
 21
101.9948050433795
 31
0.0
 12
77.482556033578931
 22
107.1280725498991
 32
0.0
 13
77.482556033578931
 23
107.1280725498991
 33
0.0
210
0.0
220
0.0
230
1.0
  0
ENDBLK
  5
6923
  8
0
  0
BLOCK
  8
0
  2
*U7
 70
     1
 10
0.0
 20
0.0
 30
0.0
  3
*U7
  1

  0
TEXT
  5
694D
  8
CRS
 10
403.39794955606862
 20
150.8639317578448
 30
0.0
 40
17.5
  1
Regina House
  0
TEXT
  5
694E
  8
CRS
 10
403.39794955606862
 20
126.3639317578447
 30
0.0
 40
17.5
  1
Ring Road
  0
TEXT
  5
694F
  8
CRS
 10
403.52925924228958
 20
101.8639317578448
 30
0.0
 40
17.5
  1
Bramley
  0
TEXT
  5
6950
  8
CRS
 10
403.52925924228958
 20
77.36393175784481
 30
0.0
 40
17.5
  1
Leeds
  0
TEXT
  5
6951
  8
CRS
 10
403.52925924228958
 20
52.86393175784481
 30
0.0
 40
17.5
  1
LS13 4ET
  0
TEXT
  5
6952
  8
CRS
 10
403.39794955606862
 20
28.363931757844789
 30
0.0
 40
17.5
  1
United Kingdom
  0
ENDBLK
  5
6954
  8
0
  0
BLOCK
  8
0
  2
*U8
 70
     1
 10
0.0
 20
0.0
 30
0.0
  3
*U8
  1

  0
TEXT
  5
6956
  8
CRS
 10
267.73966995668292
 20
290.01104052279572
 30
0.0
 40
26.0
  1
IB14AS6 BEVEL / SPUR COMBINATION GEARBOX, 
  0
TEXT
  5
6957
  8
CRS
 10
81.350174731580751
 20
246.23432383339139
 30
0.0
 40
26.0
  1
12, 16, 18, 24, 32, 36, 48 & 64:1 RATIO, MANUAL INPUT, F40 BASEPLATE
  0
ENDBLK
  5
6959
  8
0
  0
ENDSEC
  0
SECTION
  2
ENTITIES
  0
TEXT
  5
63
  8
6
 10
12.69460163995695
 20
1.9392268232983341
 30
0.0
 40
0.156
  1

  0
TEXT
  5
1319
  8
6
 10
720.96768380828507
 20
-14.99683378998553
 30
0.0
 40
0.156
  1

  0
TEXT
  5
1323
  8
BORT
 10
1168.167374709047
 20
119.8601880484613
 30
0.0
 40
5.0
  1

 72
     4
 11
1168.167374709047
 21
119.8601880484613
 31
0.0
  0
TEXT
  5
1324
  8
BORT
 10
1955.761649628449
 20
134.69137927001881
 30
0.0
 40
5.0
  1

 72
     4
 11
1955.761649628449
 21
134.69137927001881
 31
0.0
  0
TEXT
  5
1325
  8
BORT
 10
1974.817176059754
 20
134.6801764831512
 30
0.0
 40
5.0
  1

 72
     4
 11
1974.817176059754
 21
134.6801764831512
 31
0.0
  0
TEXT
  5
1599
  8
BORT
 10
1928.167374709047
 20
133.8601880484614
 30
0.0
 40
5.0
  1

 72
     4
 11
1928.167374709047
 21
133.8601880484614
 31
0.0
  0
TEXT
  5
159A
  8
DIM
 10
1831.3393002751559
 20
530.37019877264333
 30
0.0
 40
5.0
  1

  0
TEXT
  5
159B
  8
DIM
 10
1831.3393002751559
 20
504.65591305835773
 30
0.0
 40
5.0
  1

  0
TEXT
  5
159C
  8
BORT
 10
2715.761649628449
 20
148.69137927001881
 30
0.0
 40
5.0
  1

 72
     4
 11
2715.761649628449
 21
148.69137927001881
 31
0.0
  0
TEXT
  5
159D
  8
TXT
 10
1785.8721748581791
 20
278.31847210854329
 30
0.0
 40
5.0
  1

 72
     4
 11
1785.8721748581791
 21
278.31847210854329
 31
0.0
  0
TEXT
  5
1652
  8
DIM
 10
70.548315192276846
 20
331.95255324190549
 30
0.0
 40
5.0
  1

  0
TEXT
  5
1662
  8
BORT
 10
433.40811329731901
 20
-396.10155110442747
 30
0.0
 40
5.0
  1

 72
     4
 11
433.40811329731901
 21
-396.10155110442747
 31
0.0
  0
TEXT
  5
16E0
  8
DIM
 10
910.56173939792313
 20
231.04379176581821
 30
0.0
 40
5.0
  1

  0
TEXT
  5
16E1
  8
BORT
 10
1953.408113297319
 20
-368.10155110442747
 30
0.0
 40
5.0
  1

 72
     4
 11
1953.408113297319
 21
-368.10155110442747
 31
0.0
  0
TEXT
  5
16E2
  8
DIM
 10
1856.5800388634279
 20
28.40845961975435
 30
0.0
 40
5.0
  1

  0
TEXT
  5
16E3
  8
DIM
 10
1856.5800388634279
 20
2.6941739054686868
 30
0.0
 40
5.0
  1

  0
TEXT
  5
16E4
  8
BORT
 10
2741.0023882167211
 20
-353.27035988287008
 30
0.0
 40
5.0
  1

 72
     4
 11
2741.0023882167211
 21
-353.27035988287008
 31
0.0
  0
TEXT
  5
16EB
  8
TXT
 10
1811.1129134464511
 20
-223.64326704434561
 30
0.0
 40
5.0
  1

 72
     4
 11
1811.1129134464511
 21
-223.64326704434561
 31
0.0
  0
TEXT
  5
1A38
  8
DIM
 10
790.36533519669888
 20
847.56139766038632
 30
0.0
 40
5.0
  1

  0
TEXT
  5
1A82
  8
BORT
 10
1153.2251333017409
 20
119.5072933140531
 30
0.0
 40
5.0
  1

 72
     4
 11
1153.2251333017409
 21
119.5072933140531
 31
0.0
  0
TEXT
  5
1B41
  8
DIM
 10
1630.3787594023449
 20
746.65263618429901
 30
0.0
 40
5.0
  1

  0
TEXT
  5
1B42
  8
BORT
 10
2673.2251333017412
 20
147.5072933140531
 30
0.0
 40
5.0
  1

 72
     4
 11
2673.2251333017412
 21
147.5072933140531
 31
0.0
  0
TEXT
  5
1B43
  8
DIM
 10
2576.3970588678499
 20
544.01730403823512
 30
0.0
 40
5.0
  1

  0
TEXT
  5
1B44
  8
DIM
 10
2576.3970588678499
 20
518.30301832394935
 30
0.0
 40
5.0
  1

  0
TEXT
  5
1B45
  8
BORT
 10
3460.819408221143
 20
162.3384845356106
 30
0.0
 40
5.0
  1

 72
     4
 11
3460.819408221143
 21
162.3384845356106
 31
0.0
  0
TEXT
  5
1B4F
  8
TXT
 10
2530.9299334508728
 20
291.96557737413508
 30
0.0
 40
5.0
  1

 72
     4
 11
2530.9299334508728
 21
291.96557737413508
 31
0.0
  0
LINE
  5
1BB7
  8
DIM
 62
     7
 10
1148.234692294812
 20
1028.4892894101331
 30
0.0
 11
1148.234692294812
 21
1712.9892894101331
 31
0.0
  0
SOLID
  5
1BBB
  8
DIM
 62
     7
 10
1147.234692294812
 20
1706.9892894101331
 30
0.0
 11
1149.234692294812
 21
1706.9892894101331
 31
0.0
 12
1148.234692294812
 22
1712.9892894101331
 32
0.0
 13
1148.234692294812
 23
1712.9892894101331
 33
0.0
  0
TEXT
  5
1FB6
  8
6
 10
958.55226042357572
 20
48.117016322532102
 30
0.0
 40
0.156
  1

  0
TEXT
  5
2021
  8
BORT
 10
1395.1192060530441
 20
-283.27224008095021
 30
0.0
 40
5.0
  1

 72
     4
 11
1395.1192060530441
 21
-283.27224008095021
 31
0.0
  0
TEXT
  5
2064
  8
DIM
 10
1442.1442264806669
 20
442.82758532865381
 30
0.0
 40
5.0
  1

  0
TEXT
  5
207C
  8
BORT
 10
2183.5661463956581
 20
-268.48397666954122
 30
0.0
 40
5.0
  1

 72
     4
 11
2183.5661463956581
 21
-268.48397666954122
 31
0.0
  0
TEXT
  5
20F3
  8
DIM
 10
1792.259407948002
 20
458.78186426538281
 30
0.0
 40
5.0
  1

  0
TEXT
  5
20F4
  8
BORT
 10
2155.1192060530439
 20
-269.27224008095021
 30
0.0
 40
5.0
  1

 72
     4
 11
2155.1192060530439
 21
-269.27224008095021
 31
0.0
  0
TEXT
  5
20F5
  8
DIM
 10
2632.2728321536479
 20
357.8731027892955
 30
0.0
 40
5.0
  1

  0
TEXT
  5
20F6
  8
BORT
 10
3675.1192060530439
 20
-241.27224008095021
 30
0.0
 40
5.0
  1

 72
     4
 11
3675.1192060530439
 21
-241.27224008095021
 31
0.0
  0
TEXT
  5
20F7
  8
DIM
 10
3578.291131619153
 20
155.23777064323161
 30
0.0
 40
5.0
  1

  0
TEXT
  5
20F8
  8
DIM
 10
3578.291131619153
 20
129.523484928946
 30
0.0
 40
5.0
  1

  0
TEXT
  5
20F9
  8
BORT
 10
4462.7134809724457
 20
-226.44104885939279
 30
0.0
 40
5.0
  1

 72
     4
 11
4462.7134809724457
 21
-226.44104885939279
 31
0.0
  0
TEXT
  5
2100
  8
TXT
 10
3532.824006202176
 20
-96.813956020868318
 30
0.0
 40
5.0
  1

 72
     4
 11
3532.824006202176
 21
-96.813956020868318
 31
0.0
  0
TEXT
  5
24B7
  8
6
 10
842.76554516163912
 20
-31.671824200849059
 30
0.0
 40
0.156
  1

  0
TEXT
  5
2552
  8
DIM
 10
922.06384738565862
 20
376.74815113488881
 30
0.0
 40
5.0
  1

  0
TEXT
  5
2558
  8
DIM
 10
1350.7525518591351
 20
355.12052334938022
 30
0.0
 40
5.0
  1

  0
TEXT
  5
25E9
  8
BORT
 10
2031.235159683082
 20
-220.17933492055539
 30
0.0
 40
5.0
  1

 72
     4
 11
2031.235159683082
 21
-220.17933492055539
 31
0.0
  0
TEXT
  5
25EA
  8
BORT
 10
2819.6821000256959
 20
-205.39107150914629
 30
0.0
 40
5.0
  1

 72
     4
 11
2819.6821000256959
 21
-205.39107150914629
 31
0.0
  0
TEXT
  5
25EB
  8
DIM
 10
2428.3753615780388
 20
521.87476942577769
 30
0.0
 40
5.0
  1

  0
TEXT
  5
25EC
  8
BORT
 10
2791.2351596830822
 20
-206.17933492055539
 30
0.0
 40
5.0
  1

 72
     4
 11
2791.2351596830822
 21
-206.17933492055539
 31
0.0
  0
TEXT
  5
25ED
  8
DIM
 10
3268.3887857836862
 20
420.96600794969032
 30
0.0
 40
5.0
  1

  0
TEXT
  5
25EE
  8
BORT
 10
4311.2351596830813
 20
-178.17933492055539
 30
0.0
 40
5.0
  1

 72
     4
 11
4311.2351596830813
 21
-178.17933492055539
 31
0.0
  0
TEXT
  5
25EF
  8
DIM
 10
4214.4070852491914
 20
218.33067580362641
 30
0.0
 40
5.0
  1

  0
TEXT
  5
25F0
  8
DIM
 10
4214.4070852491914
 20
192.6163900893408
 30
0.0
 40
5.0
  1

  0
TEXT
  5
25F1
  8
BORT
 10
5098.8294346024841
 20
-163.34814369899789
 30
0.0
 40
5.0
  1

 72
     4
 11
5098.8294346024841
 21
-163.34814369899789
 31
0.0
  0
TEXT
  5
25F8
  8
TXT
 10
4168.9399598322143
 20
-33.721050860473497
 30
0.0
 40
5.0
  1

 72
     4
 11
4168.9399598322143
 21
-33.721050860473497
 31
0.0
  0
TEXT
  5
286F
  8
DIM
 10
1837.3948330262911
 20
389.0317394686744
 30
0.0
 40
5.0
  1

  0
TEXT
  5
2870
  8
DIM
 10
2266.0835374997682
 20
367.40411168316581
 30
0.0
 40
5.0
  1

  0
TEXT
  5
2871
  8
BORT
 10
2946.566145323714
 20
-207.89574658676989
 30
0.0
 40
5.0
  1

 72
     4
 11
2946.566145323714
 21
-207.89574658676989
 31
0.0
  0
TEXT
  5
2872
  8
BORT
 10
3735.0130856663291
 20
-193.10748317536081
 30
0.0
 40
5.0
  1

 72
     4
 11
3735.0130856663291
 21
-193.10748317536081
 31
0.0
  0
TEXT
  5
2873
  8
DIM
 10
3343.7063472186719
 20
534.15835775956305
 30
0.0
 40
5.0
  1

  0
TEXT
  5
2874
  8
BORT
 10
3706.566145323714
 20
-193.89574658676989
 30
0.0
 40
5.0
  1

 72
     4
 11
3706.566145323714
 21
-193.89574658676989
 31
0.0
  0
TEXT
  5
2875
  8
DIM
 10
4183.7197714243193
 20
433.24959628347591
 30
0.0
 40
5.0
  1

  0
TEXT
  5
2876
  8
BORT
 10
5226.5661453237153
 20
-165.89574658676989
 30
0.0
 40
5.0
  1

 72
     4
 11
5226.5661453237153
 21
-165.89574658676989
 31
0.0
  0
TEXT
  5
2877
  8
DIM
 10
5129.7380708898254
 20
230.61426413741199
 30
0.0
 40
5.0
  1

  0
TEXT
  5
2878
  8
DIM
 10
5129.7380708898254
 20
204.8999784231263
 30
0.0
 40
5.0
  1

  0
TEXT
  5
2879
  8
BORT
 10
6014.1604202431181
 20
-151.06455536521241
 30
0.0
 40
5.0
  1

 72
     4
 11
6014.1604202431181
 21
-151.06455536521241
 31
0.0
  0
TEXT
  5
2880
  8
TXT
 10
5084.2709454728483
 20
-21.437462526687959
 30
0.0
 40
5.0
  1

 72
     4
 11
5084.2709454728483
 21
-21.437462526687959
 31
0.0
  0
TEXT
  5
30E6
  8
6
 10
1004.827019578419
 20
83.453499703686816
 30
0.0
 40
0.156
  1

  0
TEXT
  5
30F0
  8
BORT
 10
1453.8828702525891
 20
197.77608513443931
 30
0.0
 40
5.0
  1

 72
     4
 11
1453.8828702525891
 21
197.77608513443931
 31
0.0
  0
TEXT
  5
3118
  8
DIM
 62
     7
 10
457.67798687766248
 20
1649.838194692011
 30
0.0
 40
5.0
  1
4 OFF M10 SCREWS (EACH SIDE)
  0
TEXT
  5
3119
  8
DIM
 62
     7
 10
457.67798687766248
 20
1641.2667661205819
 30
0.0
 40
5.0
  1
ON %%c105 (%%c4.13") P.C.
  0
TEXT
  5
3130
  8
DIM
 10
1493.3260110346
 20
362.41695832556201
 30
0.0
 40
5.0
  1

  0
LINE
  5
324D
  8
DIM
 62
     7
 10
401.26586427917499
 20
1536.9919843261721
 30
0.0
 11
401.26586427917499
 21
1527.3864575236951
 31
0.0
  0
TEXT
  5
336C
  8
BORT
 10
2234.8239305416951
 20
212.60727635599679
 30
0.0
 40
5.0
  1

 72
     4
 11
2234.8239305416951
 21
212.60727635599679
 31
0.0
  0
TEXT
  5
336D
  8
BORT
 10
3052.3576633661778
 20
227.43846757755429
 30
0.0
 40
5.0
  1

 72
     4
 11
3052.3576633661778
 21
227.43846757755429
 31
0.0
  0
TEXT
  5
336E
  8
BORT
 10
3839.9519382855801
 20
242.26965879911171
 30
0.0
 40
5.0
  1

 72
     4
 11
3839.9519382855801
 21
242.26965879911171
 31
0.0
  0
TEXT
  5
336F
  8
BORT
 10
3859.0074647168849
 20
242.25845601224401
 30
0.0
 40
5.0
  1

 72
     4
 11
3859.0074647168849
 21
242.25845601224401
 31
0.0
  0
TEXT
  5
337F
  8
DIM
 10
1493.3260110346
 20
336.7026726112764
 30
0.0
 40
5.0
  1

  0
TEXT
  5
33AE
  8
BORT
 10
2213.8828702525889
 20
226.92803036625409
 30
0.0
 40
5.0
  1

 72
     4
 11
2213.8828702525889
 21
226.92803036625409
 31
0.0
  0
TEXT
  5
33AF
  8
DIM
 10
2256.4154247073179
 20
424.47158982303881
 30
0.0
 40
5.0
  1

  0
TEXT
  5
33B0
  8
BORT
 10
3031.4166030770712
 20
241.7592215878116
 30
0.0
 40
5.0
  1

 72
     4
 11
3031.4166030770712
 21
241.7592215878116
 31
0.0
  0
TEXT
  5
33B1
  8
BORT
 10
3819.0108779964739
 20
256.59041280936913
 30
0.0
 40
5.0
  1

 72
     4
 11
3819.0108779964739
 21
256.59041280936913
 31
0.0
  0
TEXT
  5
33B2
  8
BORT
 10
3838.0664044277778
 20
256.5792100225014
 30
0.0
 40
5.0
  1

 72
     4
 11
3838.0664044277778
 21
256.5792100225014
 31
0.0
  0
TEXT
  5
33B3
  8
DIM
 10
2256.4154247073179
 20
398.7573041087532
 30
0.0
 40
5.0
  1

  0
TEXT
  5
33B4
  8
BORT
 10
2973.8828702525889
 20
263.9570653334863
 30
0.0
 40
5.0
  1

 72
     4
 11
2973.8828702525889
 21
263.9570653334863
 31
0.0
  0
TEXT
  5
33B5
  8
DIM
 10
2877.054795818698
 20
660.46707605766835
 30
0.0
 40
5.0
  1

  0
TEXT
  5
33B6
  8
DIM
 10
2877.054795818698
 20
634.75279034338257
 30
0.0
 40
5.0
  1

  0
TEXT
  5
33B7
  8
BORT
 10
3761.4771451719912
 20
278.78825655504392
 30
0.0
 40
5.0
  1

 72
     4
 11
3761.4771451719912
 21
278.78825655504392
 31
0.0
  0
TEXT
  5
33B8
  8
TXT
 10
2831.587670401721
 20
408.41534939356842
 30
0.0
 40
5.0
  1

 72
     4
 11
2831.587670401721
 21
408.41534939356842
 31
0.0
  0
TEXT
  5
3518
  8
6
 10
1019.649716769831
 20
147.08510048228851
 30
0.0
 40
0.156
  1

  0
TEXT
  5
3583
  8
BORT
 10
1456.2166623993
 20
-184.3041559211938
 30
0.0
 40
5.0
  1

 72
     4
 11
1456.2166623993
 21
-184.3041559211938
 31
0.0
  0
TEXT
  5
35C6
  8
DIM
 10
1503.2416828269229
 20
541.79566948841034
 30
0.0
 40
5.0
  1

  0
TEXT
  5
35DE
  8
BORT
 10
2244.663602741914
 20
-169.51589250978469
 30
0.0
 40
5.0
  1

 72
     4
 11
2244.663602741914
 21
-169.51589250978469
 31
0.0
  0
TEXT
  5
3655
  8
DIM
 10
1853.356864294258
 20
557.74994842513934
 30
0.0
 40
5.0
  1

  0
TEXT
  5
3656
  8
BORT
 10
2216.2166623992998
 20
-170.30415592119371
 30
0.0
 40
5.0
  1

 72
     4
 11
2216.2166623992998
 21
-170.30415592119371
 31
0.0
  0
TEXT
  5
3657
  8
DIM
 10
2693.3702884999038
 20
456.84118694905197
 30
0.0
 40
5.0
  1

  0
TEXT
  5
3658
  8
BORT
 10
3736.2166623992998
 20
-142.3041559211938
 30
0.0
 40
5.0
  1

 72
     4
 11
3736.2166623992998
 21
-142.3041559211938
 31
0.0
  0
TEXT
  5
3659
  8
DIM
 10
3639.388587965409
 20
254.20585480298811
 30
0.0
 40
5.0
  1

  0
TEXT
  5
365A
  8
DIM
 10
3639.388587965409
 20
228.49156908870239
 30
0.0
 40
5.0
  1

  0
TEXT
  5
365B
  8
BORT
 10
4523.8109373187008
 20
-127.47296469963629
 30
0.0
 40
5.0
  1

 72
     4
 11
4523.8109373187008
 21
-127.47296469963629
 31
0.0
  0
TEXT
  5
3662
  8
TXT
 10
3593.9214625484319
 20
2.1541281388881539
 30
0.0
 40
5.0
  1

 72
     4
 11
3593.9214625484319
 21
2.1541281388881539
 31
0.0
  0
LINE
  5
366E
  8
DIM
 62
     7
 10
382.26586427917499
 20
1712.9892894101331
 30
0.0
 11
1156.129896995232
 21
1712.9892894101331
 31
0.0
  0
LINE
  5
366F
  8
DIM
 62
     7
 10
431.65190746763011
 20
1665.3066176627719
 30
0.0
 11
444.8223867219649
 21
1651.960795653612
 31
0.0
  0
SOLID
  5
3670
  8
DIM
 62
     7
 10
432.53281167912633
 20
1665.7799122540871
 30
0.0
 11
430.77100325613378
 21
1664.833323071457
 31
0.0
 12
428.81213991973908
 22
1670.5920429317489
 32
0.0
 13
428.81213991973908
 23
1670.5920429317489
 33
0.0
  0
LINE
  5
3671
  8
DIM
 62
     7
 10
444.8223867219649
 20
1651.960795653612
 30
0.0
 11
452.94171206049492
 21
1651.960795653612
 31
0.0
  0
LINE
  5
367A
  8
DIM
 62
     7
 10
200.2408642791749
 20
1791.72385377914
 30
0.0
 11
772.76586427917687
 21
1791.7238537791411
 31
0.0
  0
TEXT
  5
367B
  8
DIM
 62
     7
 10
552.11498143738345
 20
1794.22385377914
 30
0.0
 40
5.0
  1
450
 72
     1
 11
558.54355286595501
 21
1796.72385377914
 31
0.0
 73
     2
  0
TEXT
  5
367C
  8
DIM
 62
     7
 10
544.01974334214538
 20
1784.5809966362831
 30
0.0
 40
5.0
  1
(17.72")
 72
     4
 11
558.54355286595501
 21
1786.7238537791411
 31
0.0
  0
SOLID
  5
367D
  8
DIM
 62
     7
 10
206.2408642791749
 20
1792.72385377914
 30
0.0
 11
206.2408642791749
 21
1790.72385377914
 31
0.0
 12
200.2408642791749
 22
1791.72385377914
 32
0.0
 13
200.2408642791749
 23
1791.72385377914
 33
0.0
  0
SOLID
  5
367E
  8
DIM
 62
     7
 10
766.7658642791755
 20
1792.7238537791411
 30
0.0
 11
766.7658642791755
 21
1790.7238537791411
 31
0.0
 12
772.76586427917539
 22
1791.72385377914
 32
0.0
 13
772.76586427917539
 23
1791.72385377914
 33
0.0
  0
TEXT
  5
3941
  8
6
 10
806.79580663433126
 20
18.033633098177809
 30
0.0
 40
0.156
  1

  0
TEXT
  5
3A02
  8
DIM
 10
1422.806904112158
 20
370.737437596311
 30
0.0
 40
5.0
  1

  0
TEXT
  5
3A7B
  8
DIM
 10
1422.806904112158
 20
345.02315188202539
 30
0.0
 40
5.0
  1

  0
TEXT
  5
3A7D
  8
DIM
 10
2122.240349028355
 20
372.83546425139411
 30
0.0
 40
5.0
  1

  0
TEXT
  5
3A7E
  8
DIM
 10
3217.4287392588981
 20
440.94139319613862
 30
0.0
 40
5.0
  1

  0
TEXT
  5
3A7F
  8
DIM
 10
3646.1174437323748
 20
419.31376541062991
 30
0.0
 40
5.0
  1

  0
TEXT
  5
3A80
  8
BORT
 10
4326.600051556321
 20
-155.9860928593057
 30
0.0
 40
5.0
  1

 72
     4
 11
4326.600051556321
 21
-155.9860928593057
 31
0.0
  0
TEXT
  5
3A81
  8
BORT
 10
5115.0469918989347
 20
-141.19782944789659
 30
0.0
 40
5.0
  1

 72
     4
 11
5115.0469918989347
 21
-141.19782944789659
 31
0.0
  0
TEXT
  5
3A82
  8
DIM
 10
4723.7402534512776
 20
586.06801148702743
 30
0.0
 40
5.0
  1

  0
TEXT
  5
3A83
  8
BORT
 10
5086.6000515563201
 20
-141.9860928593057
 30
0.0
 40
5.0
  1

 72
     4
 11
5086.6000515563201
 21
-141.9860928593057
 31
0.0
  0
TEXT
  5
3A84
  8
DIM
 10
5563.753677656925
 20
485.15925001094013
 30
0.0
 40
5.0
  1

  0
TEXT
  5
3A85
  8
BORT
 10
6606.6000515563219
 20
-113.9860928593056
 30
0.0
 40
5.0
  1

 72
     4
 11
6606.6000515563219
 21
-113.9860928593056
 31
0.0
  0
TEXT
  5
3A86
  8
DIM
 10
6509.7719771224301
 20
282.52391786487618
 30
0.0
 40
5.0
  1

  0
TEXT
  5
3A87
  8
DIM
 10
6509.7719771224301
 20
256.80963215059052
 30
0.0
 40
5.0
  1

  0
TEXT
  5
3A88
  8
BORT
 10
7394.1943264757228
 20
-99.154901637748225
 30
0.0
 40
5.0
  1

 72
     4
 11
7394.1943264757228
 21
-99.154901637748225
 31
0.0
  0
TEXT
  5
3A8F
  8
TXT
 10
6464.3048517054531
 20
30.472191200776251
 30
0.0
 40
5.0
  1

 72
     4
 11
6464.3048517054531
 21
30.472191200776251
 31
0.0
  0
TEXT
  5
4000
  8
DIM
 10
2189.2446967321121
 20
846.87235439564824
 30
0.0
 40
5.0
  1

  0
TEXT
  5
4079
  8
DIM
 10
2189.2446967321121
 20
821.15806868136258
 30
0.0
 40
5.0
  1

  0
TEXT
  5
40C3
  8
DIM
 10
2888.6781416483082
 20
848.97038105073125
 30
0.0
 40
5.0
  1

  0
TEXT
  5
40CA
  8
DIM
 10
3983.8665318788512
 20
917.07630999547575
 30
0.0
 40
5.0
  1

  0
TEXT
  5
40CB
  8
DIM
 10
4412.5552363523284
 20
895.44868220996705
 30
0.0
 40
5.0
  1

  0
TEXT
  5
40CC
  8
BORT
 10
5093.037844176275
 20
320.14882394003138
 30
0.0
 40
5.0
  1

 72
     4
 11
5093.037844176275
 21
320.14882394003138
 31
0.0
  0
TEXT
  5
40CD
  8
BORT
 10
5881.4847845188888
 20
334.93708735144043
 30
0.0
 40
5.0
  1

 72
     4
 11
5881.4847845188888
 21
334.93708735144043
 31
0.0
  0
TEXT
  5
40CE
  8
DIM
 10
5490.1780460712316
 20
1062.2029282863641
 30
0.0
 40
5.0
  1

  0
TEXT
  5
40CF
  8
BORT
 10
5853.037844176275
 20
334.14882394003138
 30
0.0
 40
5.0
  1

 72
     4
 11
5853.037844176275
 21
334.14882394003138
 31
0.0
  0
TEXT
  5
40D0
  8
DIM
 10
6330.191470276879
 20
961.29416681027715
 30
0.0
 40
5.0
  1

  0
TEXT
  5
40D1
  8
BORT
 10
7373.037844176275
 20
362.14882394003138
 30
0.0
 40
5.0
  1

 72
     4
 11
7373.037844176275
 21
362.14882394003138
 31
0.0
  0
TEXT
  5
40D2
  8
DIM
 10
7276.2097697423842
 20
758.65883466421326
 30
0.0
 40
5.0
  1

  0
TEXT
  5
40D3
  8
DIM
 10
7276.2097697423842
 20
732.94454894992771
 30
0.0
 40
5.0
  1

  0
TEXT
  5
40D4
  8
BORT
 10
8160.6321190956778
 20
376.98001516158882
 30
0.0
 40
5.0
  1

 72
     4
 11
8160.6321190956778
 21
376.98001516158882
 31
0.0
  0
TEXT
  5
40DE
  8
TXT
 10
7230.7426443254071
 20
506.60710800011333
 30
0.0
 40
5.0
  1

 72
     4
 11
7230.7426443254071
 21
506.60710800011333
 31
0.0
  0
TEXT
  5
4534
  8
BORT
 10
1591.259836523353
 20
52.39100436038234
 30
0.0
 40
5.0
  1

 72
     4
 11
1591.259836523353
 21
52.39100436038234
 31
0.0
  0
TEXT
  5
458F
  8
DIM
 10
1630.7029773053639
 20
217.031877551505
 30
0.0
 40
5.0
  1

  0
TEXT
  5
47E4
  8
BORT
 10
2372.2008968124601
 20
67.222195581939815
 30
0.0
 40
5.0
  1

 72
     4
 11
2372.2008968124601
 21
67.222195581939815
 31
0.0
  0
TEXT
  5
47E5
  8
BORT
 10
3189.7346296369428
 20
82.05338680349729
 30
0.0
 40
5.0
  1

 72
     4
 11
3189.7346296369428
 21
82.05338680349729
 31
0.0
  0
TEXT
  5
47E6
  8
BORT
 10
3977.3289045563438
 20
96.884578025054765
 30
0.0
 40
5.0
  1

 72
     4
 11
3977.3289045563438
 21
96.884578025054765
 31
0.0
  0
TEXT
  5
47E7
  8
BORT
 10
3996.384430987649
 20
96.873375238187094
 30
0.0
 40
5.0
  1

 72
     4
 11
3996.384430987649
 21
96.873375238187094
 31
0.0
  0
TEXT
  5
47FF
  8
DIM
 10
1630.7029773053639
 20
191.31759183721931
 30
0.0
 40
5.0
  1

  0
TEXT
  5
482F
  8
BORT
 10
2351.259836523353
 20
81.542949592197203
 30
0.0
 40
5.0
  1

 72
     4
 11
2351.259836523353
 21
81.542949592197203
 31
0.0
  0
TEXT
  5
4830
  8
DIM
 10
2393.792390978082
 20
279.08650904898178
 30
0.0
 40
5.0
  1

  0
TEXT
  5
4831
  8
BORT
 10
3168.7935693478362
 20
96.374140813754664
 30
0.0
 40
5.0
  1

 72
     4
 11
3168.7935693478362
 21
96.374140813754664
 31
0.0
  0
TEXT
  5
4862
  8
BORT
 10
3956.3878442672381
 20
111.2053320353121
 30
0.0
 40
5.0
  1

 72
     4
 11
3956.3878442672381
 21
111.2053320353121
 31
0.0
  0
TEXT
  5
487F
  8
BORT
 10
3975.4433706985428
 20
111.1941292484444
 30
0.0
 40
5.0
  1

 72
     4
 11
3975.4433706985428
 21
111.1941292484444
 31
0.0
  0
TEXT
  5
4888
  8
DIM
 10
2393.792390978082
 20
253.3722233346962
 30
0.0
 40
5.0
  1

  0
TEXT
  5
4889
  8
BORT
 10
3111.259836523353
 20
118.5719845594294
 30
0.0
 40
5.0
  1

 72
     4
 11
3111.259836523353
 21
118.5719845594294
 31
0.0
  0
TEXT
  5
488A
  8
DIM
 10
3014.4317620894622
 20
515.08199528361138
 30
0.0
 40
5.0
  1

  0
TEXT
  5
488B
  8
DIM
 10
3014.4317620894622
 20
489.36770956932571
 30
0.0
 40
5.0
  1

  0
TEXT
  5
488C
  8
BORT
 10
3898.8541114427549
 20
133.40317578098691
 30
0.0
 40
5.0
  1

 72
     4
 11
3898.8541114427549
 21
133.40317578098691
 31
0.0
  0
TEXT
  5
488D
  8
TXT
 10
2968.9646366724851
 20
263.03026861951128
 30
0.0
 40
5.0
  1

 72
     4
 11
2968.9646366724851
 21
263.03026861951128
 31
0.0
  0
TEXT
  5
4EB5
  8
6
 10
1123.519260173199
 20
122.238496417966
 30
0.0
 40
0.156
  1

  0
TEXT
  5
4F4B
  8
DIM
 10
1771.268860592266
 20
573.75985550821588
 30
0.0
 40
6.0
  1

  0
TEXT
  5
4FC8
  8
DIM
 10
1771.268860592266
 20
542.90271265107322
 30
0.0
 40
6.0
  1

  0
TEXT
  5
4FDE
  8
DIM
 10
2552.0159956677908
 20
380.58319476635558
 30
0.0
 40
5.0
  1

  0
TEXT
  5
4FDF
  8
DIM
 10
2552.0159956677908
 20
354.86890905207002
 30
0.0
 40
5.0
  1

  0
TEXT
  5
4FE0
  8
DIM
 10
3251.4494405839869
 20
382.68122142143869
 30
0.0
 40
5.0
  1

  0
TEXT
  5
4FE1
  8
DIM
 10
4346.6378308145304
 20
450.7871503661832
 30
0.0
 40
5.0
  1

  0
TEXT
  5
4FE2
  8
DIM
 10
4775.3265352880071
 20
429.1595225806746
 30
0.0
 40
5.0
  1

  0
TEXT
  5
4FE3
  8
BORT
 10
5455.8091431119528
 20
-146.14033568926101
 30
0.0
 40
5.0
  1

 72
     4
 11
5455.8091431119528
 21
-146.14033568926101
 31
0.0
  0
TEXT
  5
4FE4
  8
BORT
 10
6244.2560834545666
 20
-131.35207227785199
 30
0.0
 40
5.0
  1

 72
     4
 11
6244.2560834545666
 21
-131.35207227785199
 31
0.0
  0
TEXT
  5
4FE5
  8
DIM
 10
5852.9493450069112
 20
595.91376865707196
 30
0.0
 40
5.0
  1

  0
TEXT
  5
4FE6
  8
BORT
 10
6215.8091431119537
 20
-132.14033568926101
 30
0.0
 40
5.0
  1

 72
     4
 11
6215.8091431119537
 21
-132.14033568926101
 31
0.0
  0
TEXT
  5
4FE7
  8
DIM
 10
6692.9627692125578
 20
495.00500718098471
 30
0.0
 40
5.0
  1

  0
TEXT
  5
4FE8
  8
BORT
 10
7735.8091431119537
 20
-104.14033568926099
 30
0.0
 40
5.0
  1

 72
     4
 11
7735.8091431119537
 21
-104.14033568926099
 31
0.0
  0
TEXT
  5
4FE9
  8
DIM
 10
7638.9810686780629
 20
292.36967503492082
 30
0.0
 40
5.0
  1

  0
TEXT
  5
4FEA
  8
DIM
 10
7638.9810686780629
 20
266.65538932063509
 30
0.0
 40
5.0
  1

  0
TEXT
  5
4FEB
  8
BORT
 10
8523.4034180313556
 20
-89.309144467703575
 30
0.0
 40
5.0
  1

 72
     4
 11
8523.4034180313556
 21
-89.309144467703575
 31
0.0
  0
TEXT
  5
4FF2
  8
TXT
 10
7593.5139432610849
 20
40.317948370820879
 30
0.0
 40
5.0
  1

 72
     4
 11
7593.5139432610849
 21
40.317948370820879
 31
0.0
  0
TEXT
  5
5151
  8
6
 10
1097.4313143104989
 20
20.57714111785447
 30
0.0
 40
0.156
  1

  0
TEXT
  5
521F
  8
DIM
 10
1802.893520655826
 20
481.24734372699152
 30
0.0
 40
6.0
  1

  0
TEXT
  5
5275
  8
DIM
 10
1802.893520655826
 20
450.39020086984902
 30
0.0
 40
6.0
  1

  0
TEXT
  5
527C
  8
DIM
 10
2655.835138950923
 20
503.0627364850626
 30
0.0
 40
6.0
  1

  0
TEXT
  5
527D
  8
DIM
 10
2655.835138950923
 20
472.20559362791982
 30
0.0
 40
6.0
  1

  0
TEXT
  5
527E
  8
DIM
 10
3436.582274026448
 20
309.88607574320218
 30
0.0
 40
5.0
  1

  0
TEXT
  5
527F
  8
DIM
 10
3436.582274026448
 20
284.17179002891658
 30
0.0
 40
5.0
  1

  0
TEXT
  5
5280
  8
DIM
 10
4136.0157189426436
 20
311.9841023982853
 30
0.0
 40
5.0
  1

  0
TEXT
  5
5281
  8
DIM
 10
5231.2041091731871
 20
380.09003134302981
 30
0.0
 40
5.0
  1

  0
TEXT
  5
5282
  8
DIM
 10
5659.8928136466629
 20
358.46240355752121
 30
0.0
 40
5.0
  1

  0
TEXT
  5
5283
  8
BORT
 10
6340.3754214706114
 20
-216.8374547124144
 30
0.0
 40
5.0
  1

 72
     4
 11
6340.3754214706114
 21
-216.8374547124144
 31
0.0
  0
TEXT
  5
5284
  8
BORT
 10
7128.8223618132251
 20
-202.04919130100541
 30
0.0
 40
5.0
  1

 72
     4
 11
7128.8223618132251
 21
-202.04919130100541
 31
0.0
  0
TEXT
  5
5285
  8
DIM
 10
6737.5156233655689
 20
525.21664963391856
 30
0.0
 40
5.0
  1

  0
TEXT
  5
5286
  8
BORT
 10
7100.3754214706096
 20
-202.8374547124144
 30
0.0
 40
5.0
  1

 72
     4
 11
7100.3754214706096
 21
-202.8374547124144
 31
0.0
  0
TEXT
  5
5287
  8
DIM
 10
7577.5290475712136
 20
424.30788815783143
 30
0.0
 40
5.0
  1

  0
TEXT
  5
5288
  8
BORT
 10
8620.3754214706096
 20
-174.8374547124144
 30
0.0
 40
5.0
  1

 72
     4
 11
8620.3754214706096
 21
-174.8374547124144
 31
0.0
  0
TEXT
  5
5289
  8
DIM
 10
8523.5473470367197
 20
221.6725560117674
 30
0.0
 40
5.0
  1

  0
TEXT
  5
528A
  8
DIM
 10
8523.5473470367197
 20
195.95827029748179
 30
0.0
 40
5.0
  1

  0
TEXT
  5
528B
  8
BORT
 10
9407.9696963900133
 20
-160.0062634908569
 30
0.0
 40
5.0
  1

 72
     4
 11
9407.9696963900133
 21
-160.0062634908569
 31
0.0
  0
TEXT
  5
5292
  8
TXT
 10
8478.0802216197426
 20
-30.379170652332501
 30
0.0
 40
5.0
  1

 72
     4
 11
8478.0802216197426
 21
-30.379170652332501
 31
0.0
  0
TEXT
  5
52B1
  8
6
 10
1300.6042229093209
 20
39.645161287786443
 30
0.0
 40
0.156
  1

  0
TEXT
  5
5328
  8
DIM
 10
2045.160309112571
 20
557.21560992302125
 30
0.0
 40
7.0
  1

  0
TEXT
  5
53D6
  8
DIM
 62
     7
 10
951.11326155724066
 20
1477.620746187431
 30
0.0
 40
7.0
  1
45%%d OFFSET FROM CENTRE LINE
  0
TEXT
  5
53D7
  8
DIM
 62
     7
 10
951.11326155724066
 20
1501.620746187431
 30
0.0
 40
7.0
  1
4 HOLES TAPPED M10x16
  0
TEXT
  5
53D8
  8
DIM
 62
     7
 10
951.11326155724066
 20
1489.6207461874319
 30
0.0
 40
7.0
  1
(0.63") DEEP EQUALLY SPACED
  0
LINE
  5
53E7
  8
DIM
 62
     7
 10
772.76586427917687
 20
1468.5036754110199
 30
0.0
 11
772.76586427917687
 21
1706.0444001764561
 31
0.0
  0
TEXT
  5
53FA
  8
DIM
 10
2045.160309112571
 20
521.21560992302125
 30
0.0
 40
7.0
  1

  0
TEXT
  5
53FD
  8
DIM
 62
     7
 10
951.11326155724066
 20
1465.6207461874319
 30
0.0
 40
7.0
  1
ON %%c220 (%%c8.66") P.C.
  0
TEXT
  5
5404
  8
DIM
 10
3194.465872868655
 20
545.37312916012672
 30
0.0
 40
7.0
  1

  0
TEXT
  5
5405
  8
DIM
 10
3194.465872868655
 20
509.37312916012712
 30
0.0
 40
7.0
  1

  0
TEXT
  5
5406
  8
DIM
 10
4189.5644275462691
 20
570.82442071120965
 30
0.0
 40
7.0
  1

  0
TEXT
  5
5407
  8
DIM
 10
4189.5644275462691
 20
534.82442071120965
 30
0.0
 40
7.0
  1

  0
TEXT
  5
5408
  8
DIM
 10
5100.4360851343818
 20
345.4516498457059
 30
0.0
 40
5.833333333333333
  1

  0
TEXT
  5
5409
  8
DIM
 10
5100.4360851343818
 20
315.45164984570607
 30
0.0
 40
5.833333333333333
  1

  0
TEXT
  5
540A
  8
DIM
 10
5916.4417708699439
 20
347.89934760996942
 30
0.0
 40
5.833333333333333
  1

  0
TEXT
  5
540B
  8
DIM
 10
7194.1615594722434
 20
427.35626471217142
 30
0.0
 40
5.833333333333333
  1

  0
TEXT
  5
540C
  8
DIM
 10
7694.2983813579667
 20
402.12403229574483
 30
0.0
 40
5.833333333333333
  1

  0
TEXT
  5
540D
  8
BORT
 10
8488.1947571525707
 20
-269.05913568584691
 30
0.0
 40
5.833333333333333
  1

 72
     4
 11
8488.1947571525707
 21
-269.05913568584691
 31
0.0
  0
TEXT
  5
540E
  8
BORT
 10
9408.0495208856191
 20
-251.8061617058697
 30
0.0
 40
5.833333333333333
  1

 72
     4
 11
9408.0495208856191
 21
-251.8061617058697
 31
0.0
  0
TEXT
  5
540F
  8
DIM
 10
8951.5249926966881
 20
596.67065271820843
 30
0.0
 40
5.833333333333333
  1

  0
TEXT
  5
5410
  8
BORT
 10
9374.8614238192386
 20
-252.7258023525136
 30
0.0
 40
5.833333333333333
  1

 72
     4
 11
9374.8614238192386
 21
-252.7258023525136
 31
0.0
  0
TEXT
  5
5411
  8
DIM
 10
9931.5406542699438
 20
478.94376432943977
 30
0.0
 40
5.833333333333333
  1

  0
TEXT
  5
5412
  8
BORT
 10
11148.194757152571
 20
-220.05913568584691
 30
0.0
 40
5.833333333333333
  1

 72
     4
 11
11148.194757152571
 21
-220.05913568584691
 31
0.0
  0
TEXT
  5
5413
  8
DIM
 10
11035.22867031303
 20
242.53587682569861
 30
0.0
 40
5.833333333333333
  1

  0
TEXT
  5
5414
  8
DIM
 10
11035.22867031303
 20
212.53587682569869
 30
0.0
 40
5.833333333333333
  1

  0
TEXT
  5
5415
  8
BORT
 10
12067.05474455854
 20
-202.75607926069651
 30
0.0
 40
5.833333333333333
  1

 72
     4
 11
12067.05474455854
 21
-202.75607926069651
 31
0.0
  0
TEXT
  5
541C
  8
TXT
 10
10982.183690659889
 20
-51.524470949084673
 30
0.0
 40
5.833333333333333
  1

 72
     4
 11
10982.183690659889
 21
-51.524470949084673
 31
0.0
  0
TEXT
  5
5429
  8
DIM
 62
     7
 10
1158.6132506157121
 20
1306.777911929332
 30
0.0
 40
7.0
  1
(26.96")
 50
90.0
 72
     4
 11
1155.6132506157121
 21
1327.777911929332
 31
0.0
  0
TEXT
  5
542A
  8
DIM
 62
     7
 10
1145.1132506157121
 20
1318.777911929332
 30
0.0
 40
7.0
  1
685
 50
90.0
 72
     4
 11
1141.6132506157121
 21
1327.777911929332
 31
0.0
  0
LINE
  5
542B
  8
DIM
 62
     7
 10
772.76586427917687
 20
1719.8570590183469
 30
0.0
 11
772.76586427917687
 21
1795.1815855633599
 31
0.0
  0
TEXT
  5
570A
  8
BORT
 10
1677.558753023224
 20
121.2470204886958
 30
0.0
 40
5.0
  1

 72
     4
 11
1677.558753023224
 21
121.2470204886958
 31
0.0
  0
TEXT
  5
5770
  8
DIM
 10
1724.583773450847
 20
847.34684589829988
 30
0.0
 40
5.0
  1

  0
TEXT
  5
5788
  8
BORT
 10
2466.0056933658379
 20
136.0352839001049
 30
0.0
 40
5.0
  1

 72
     4
 11
2466.0056933658379
 21
136.0352839001049
 31
0.0
  0
TEXT
  5
582C
  8
DIM
 10
2074.6989549181808
 20
863.30112483502887
 30
0.0
 40
5.0
  1

  0
TEXT
  5
5844
  8
BORT
 10
2437.5587530232242
 20
135.2470204886958
 30
0.0
 40
5.0
  1

 72
     4
 11
2437.5587530232242
 21
135.2470204886958
 31
0.0
  0
TEXT
  5
5863
  8
DIM
 10
2914.7123791238282
 20
762.39236335894157
 30
0.0
 40
5.0
  1

  0
TEXT
  5
5864
  8
BORT
 10
3957.5587530232242
 20
163.2470204886958
 30
0.0
 40
5.0
  1

 72
     4
 11
3957.5587530232242
 21
163.2470204886958
 31
0.0
  0
TEXT
  5
5865
  8
DIM
 10
3860.7306785893329
 20
559.75703121287779
 30
0.0
 40
5.0
  1

  0
TEXT
  5
5866
  8
DIM
 10
3860.7306785893329
 20
534.04274549859201
 30
0.0
 40
5.0
  1

  0
TEXT
  5
5867
  8
BORT
 10
4745.1530279426261
 20
178.0782117102533
 30
0.0
 40
5.0
  1

 72
     4
 11
4745.1530279426261
 21
178.0782117102533
 31
0.0
  0
TEXT
  5
5871
  8
TXT
 10
3815.2635531723558
 20
307.7053045487778
 30
0.0
 40
5.0
  1

 72
     4
 11
3815.2635531723558
 21
307.7053045487778
 31
0.0
  0
LINE
  5
58D3
  8
DIM
 62
     7
 10
854.42335178228473
 20
1397.668054599925
 30
0.0
 11
928.853561180724
 21
1485.5596213913891
 31
0.0
  0
SOLID
  5
58D4
  8
DIM
 62
     7
 10
854.69824042914547
 20
1400.0557993856639
 30
0.0
 11
856.73319630499532
 21
1398.3325146897
 31
0.0
 12
850.54586427917695
 22
1393.089289410133
 32
0.0
 13
850.54586427917695
 23
1393.089289410133
 33
0.0
  0
LINE
  5
58D5
  8
DIM
 62
     7
 10
943.43131797680155
 20
1485.55962139139
 30
0.0
 11
928.853561180724
 21
1485.5596213913891
 31
0.0
  0
TEXT
  5
5A5E
  8
6
 10
1243.2107462414269
 20
94.125220426698533
 30
0.0
 40
0.156
  1

  0
LINE
  5
5B22
  8
DIM
 62
     7
 10
772.76586427917596
 20
1470.003675411019
 30
0.0
 11
772.76586427917596
 21
1516.589289410133
 31
0.0
  0
TEXT
  5
5B56
  8
DIM
 10
2020.933701361083
 20
578.19119559778756
 30
0.0
 40
7.0
  1

  0
TEXT
  5
5BA7
  8
DIM
 10
2020.933701361083
 20
542.19119559778767
 30
0.0
 40
7.0
  1

  0
TEXT
  5
5BB5
  8
DIM
 10
2979.0114651987492
 20
636.02974541157118
 30
0.0
 40
7.0
  1

  0
TEXT
  5
5BB6
  8
DIM
 10
2979.0114651987492
 20
600.02974541157118
 30
0.0
 40
7.0
  1

  0
TEXT
  5
5BB7
  8
DIM
 10
4128.3170289548343
 20
624.18726464867666
 30
0.0
 40
7.0
  1

  0
TEXT
  5
5BB8
  8
DIM
 10
4128.3170289548343
 20
588.187264648677
 30
0.0
 40
7.0
  1

  0
TEXT
  5
5BB9
  8
DIM
 10
5123.4155836324462
 20
649.63855619975959
 30
0.0
 40
7.0
  1

  0
TEXT
  5
5BBA
  8
DIM
 10
5123.4155836324462
 20
613.63855619975971
 30
0.0
 40
7.0
  1

  0
TEXT
  5
5BBB
  8
DIM
 10
6034.2872412205588
 20
424.26578533425578
 30
0.0
 40
5.833333333333333
  1

  0
TEXT
  5
5BBC
  8
DIM
 10
6034.2872412205588
 20
394.26578533425601
 30
0.0
 40
5.833333333333333
  1

  0
TEXT
  5
5BBD
  8
DIM
 10
6850.2929269561209
 20
426.7134830985193
 30
0.0
 40
5.833333333333333
  1

  0
TEXT
  5
5BBE
  8
DIM
 10
8128.0127155584214
 20
506.1704002007213
 30
0.0
 40
5.833333333333333
  1

  0
TEXT
  5
5BBF
  8
DIM
 10
8628.1495374441438
 20
480.93816778429471
 30
0.0
 40
5.833333333333333
  1

  0
TEXT
  5
5BC0
  8
BORT
 10
9422.0459132387477
 20
-190.245000197297
 30
0.0
 40
5.833333333333333
  1

 72
     4
 11
9422.0459132387477
 21
-190.245000197297
 31
0.0
  0
TEXT
  5
5BC1
  8
BORT
 10
10341.900676971791
 20
-172.99202621731979
 30
0.0
 40
5.833333333333333
  1

 72
     4
 11
10341.900676971791
 21
-172.99202621731979
 31
0.0
  0
TEXT
  5
5BC2
  8
DIM
 10
9885.3761487828651
 20
675.48478820675837
 30
0.0
 40
5.833333333333333
  1

  0
TEXT
  5
5BC3
  8
BORT
 10
10308.71257990541
 20
-173.9116668639636
 30
0.0
 40
5.833333333333333
  1

 72
     4
 11
10308.71257990541
 21
-173.9116668639636
 31
0.0
  0
TEXT
  5
5BC4
  8
DIM
 10
10865.391810356119
 20
557.75789981798982
 30
0.0
 40
5.833333333333333
  1

  0
TEXT
  5
5BC5
  8
BORT
 10
12082.04591323874
 20
-141.245000197297
 30
0.0
 40
5.833333333333333
  1

 72
     4
 11
12082.04591323874
 21
-141.245000197297
 31
0.0
  0
TEXT
  5
5BC6
  8
DIM
 10
11969.0798263992
 20
321.3500123142486
 30
0.0
 40
5.833333333333333
  1

  0
TEXT
  5
5BC7
  8
DIM
 10
11969.0798263992
 20
291.35001231424872
 30
0.0
 40
5.833333333333333
  1

  0
TEXT
  5
5BC8
  8
BORT
 10
13000.90590064471
 20
-123.9419437721466
 30
0.0
 40
5.833333333333333
  1

 72
     4
 11
13000.90590064471
 21
-123.9419437721466
 31
0.0
  0
TEXT
  5
5BCF
  8
TXT
 10
11916.03484674607
 20
27.28966453946526
 30
0.0
 40
5.833333333333333
  1

 72
     4
 11
11916.03484674607
 21
27.28966453946526
 31
0.0
  0
TEXT
  5
5D6D
  8
6
 10
1326.4312858317439
 20
51.114649488465268
 30
0.0
 40
0.156
  1

  0
LINE
  5
5D77
  8
CRS
 62
     7
 10
309.90831367601271
 20
1332.089289410133
 30
0.0
 11
551.70005232046071
 21
1332.089289410133
 31
0.0
  0
LINE
  5
5D78
  8
DRG
 62
     7
 10
511.2658642791759
 20
1394.589289410133
 30
0.0
 11
511.2658642791759
 21
1243.7892894101331
 31
0.0
  0
LINE
  5
5D79
  8
DRG
 62
     7
 10
1017.765864279176
 20
1298.7892894101331
 30
0.0
 11
1017.765864279176
 21
1259.789289410123
 31
0.0
  0
LINE
  5
5D7A
  8
DRG
 62
     7
 10
511.2658642791759
 20
1394.589289410133
 30
0.0
 11
892.76586427917596
 21
1394.589289410133
 31
0.0
  0
LINE
  5
5D7B
  8
DRG
 62
     7
 10
614.96599058854304
 20
1253.789289410119
 30
0.0
 11
683.57586427917636
 21
1253.7892894101219
 31
0.0
  0
LINE
  5
5D7C
  8
DRG
 62
     7
 10
608.96599058854304
 20
1243.7892894101331
 30
0.0
 11
608.96599058854258
 21
1263.7892894101331
 31
0.0
  0
LINE
  5
5D7D
  8
DRG
 62
     7
 10
583.00573796981075
 20
1243.7892894101331
 30
0.0
 11
583.00573796980984
 21
1263.7892894101331
 31
0.0
  0
LINE
  5
5D7E
  8
DRG
 62
     7
 10
962.52599058854389
 20
1243.7892894101331
 30
0.0
 11
962.52599058854298
 21
1263.789289410134
 31
0.0
  0
LINE
  5
5D7F
  8
DRG
 62
     7
 10
936.56573796981024
 20
1243.7892894101331
 30
0.0
 11
936.56573796980933
 21
1263.7892894101331
 31
0.0
  0
LINE
  5
5D80
  8
DRG
 62
     7
 10
593.00573796980984
 20
1273.7892894101331
 30
0.0
 11
598.96599058854247
 21
1273.7892894101331
 31
0.0
  0
ARC
  5
5D81
  8
DRG
 62
     7
 10
593.00573796980984
 20
1263.7892894101331
 30
0.0
 40
10.0
 50
90.000000000000028
 51
180.0000000000023
  0
ARC
  5
5D82
  8
DRG
 62
     7
 10
598.96599058854247
 20
1263.7892894101331
 30
0.0
 40
10.0
 50
0.0000000000020356
 51
90.0
  0
LINE
  5
5D83
  8
DRG
 62
     7
 10
946.56573796980933
 20
1273.7892894101331
 30
0.0
 11
952.52599058854298
 21
1273.7892894101331
 31
0.0
  0
ARC
  5
5D84
  8
DRG
 62
     7
 10
946.56573796980933
 20
1263.7892894101331
 30
0.0
 40
10.0
 50
90.000000000000028
 51
180.0000000000025
  0
ARC
  5
5D85
  8
DRG
 62
     7
 10
952.52599058854298
 20
1263.7892894101331
 30
0.0
 40
10.0
 50
0.0000000000025953
 51
89.999999999999915
  0
ARC
  5
5D86
  8
DRG
 62
     7
 10
577.00573796980984
 20
1259.7892894101169
 30
0.0
 40
6.0
 50
270.0000000000025
 51
0.0000000000026081
  0
ARC
  5
5D87
  8
DRG
 62
     7
 10
614.96599058854304
 20
1259.789289410119
 30
0.0
 40
6.0
 50
180.00000000000159
 51
270.0000000000025
  0
LINE
  5
5D88
  8
DRG
 62
     7
 10
511.26586427917641
 20
1253.789289410113
 30
0.0
 11
577.00573796981018
 21
1253.7892894101169
 31
0.0
  0
LINE
  5
5D89
  8
DRG
 62
     7
 10
861.95586427917635
 20
1253.7892894101201
 30
0.0
 11
930.56573796980979
 21
1253.789289410123
 31
0.0
  0
ARC
  5
5D8A
  8
DRG
 62
     7
 10
930.56573796980933
 20
1259.789289410123
 30
0.0
 40
6.0
 50
270.00000000000199
 51
0.0000000000026081
  0
LINE
  5
5D8B
  8
DRG
 62
     7
 10
968.52599058854287
 20
1253.789289410123
 30
0.0
 11
1026.765864279176
 21
1253.789289410123
 31
0.0
  0
ARC
  5
5D8C
  8
DRG
 62
     7
 10
968.52599058854287
 20
1259.7892894101201
 30
0.0
 40
6.0
 50
180.0000000000025
 51
270.00000000000199
  0
LINE
  5
5DA6
  8
CRS
 62
     7
 10
772.76586427917641
 20
1408.473905337316
 30
0.0
 11
772.76586427917641
 21
1011.2247994421029
 31
0.0
  0
LINE
  5
5DA7
  8
DIM
 62
     7
 10
512.76586427917584
 20
870.48928941013321
 30
0.0
 11
1032.765864279176
 21
870.48928941013321
 31
0.0
  0
TEXT
  5
5DA9
  8
DIM
 62
     7
 10
270.69826580222463
 20
1071.1245809369041
 30
0.0
 40
7.0
  1
8 OFF M10 BASEPLATE SECURING
  0
TEXT
  5
5DAA
  8
DIM
 62
     7
 10
270.69826580222463
 20
1059.1245809369041
 30
0.0
 40
7.0
  1
SCREWS GENERALLY SPACED ON
  0
TEXT
  5
5DAB
  8
DIM
 62
     7
 10
270.69826580222463
 20
1047.1245809369041
 30
0.0
 40
7.0
  1
CENTRES ON %%c500 (%%c19.69") P.C.
  0
LINE
  5
5DAD
  8
DIM
 62
     7
 10
520.79330022178567
 20
1213.1228098116969
 30
0.0
 11
468.40619610179863
 21
1062.6331688771429
 31
0.0
  0
LINE
  5
5DAE
  8
DIM
 62
     7
 10
468.40619610179863
 20
1062.6331688771429
 30
0.0
 11
451.60844523608449
 21
1062.6331688771429
 31
0.0
  0
SOLID
  5
5DAF
  8
DIM
 62
     7
 10
520.76566427917601
 20
871.82258941013333
 30
0.0
 11
520.76566427917601
 21
869.15598941013332
 31
0.0
 12
512.76586427917584
 22
870.48928941013321
 32
0.0
 13
512.76586427917584
 23
870.48928941013321
 33
0.0
  0
LINE
  5
5DB0
  8
DIM
 62
     7
 10
512.76586427917584
 20
1224.5089926147079
 30
0.0
 11
512.76586427917584
 21
1220.418108701723
 31
0.0
  0
SOLID
  5
5DB1
  8
DIM
 62
     7
 10
518.87665841335877
 20
1211.6725087711579
 30
0.0
 11
521.39503082955719
 21
1210.7958355519179
 31
0.0
 12
522.76586427917584
 22
1218.7892894101331
 32
0.0
 13
522.76586427917584
 23
1218.7892894101331
 33
0.0
  0
LINE
  5
5DB2
  8
DIM
 62
     7
 10
512.76586427917584
 20
1216.5672108660131
 30
0.0
 11
512.76586427917584
 21
1193.498067002221
 31
0.0
  0
TEXT
  5
5DB3
  8
DIM
 62
     7
 10
760.38529274094708
 20
873.98928941013321
 30
0.0
 40
7.0
  1
%%C520
 72
     4
 11
772.55195940761382
 21
877.48928941013321
 31
0.0
  0
LINE
  5
5DB4
  8
DIM
 62
     7
 10
1032.765864279176
 20
1225.210507718095
 30
0.0
 11
1032.765864279176
 21
1160.3737828797321
 31
0.0
  0
SOLID
  5
5DB5
  8
DIM
 62
     7
 10
1024.7660642791759
 20
871.82258941013333
 30
0.0
 11
1024.7660642791759
 21
869.15598941013332
 31
0.0
 12
1032.765864279176
 22
870.48928941013321
 32
0.0
 13
1032.765864279176
 23
870.48928941013321
 33
0.0
  0
LINE
  5
5DB6
  8
DIM
 62
     7
 10
778.76586427917641
 20
1514.589289410133
 30
0.0
 11
896.76586427917641
 21
1514.589289410133
 31
0.0
  0
LINE
  5
5DB7
  8
DIM
 62
     7
 10
772.76586427917641
 20
1428.9946100031891
 30
0.0
 11
772.76586427917641
 21
1441.610196356944
 31
0.0
  0
LINE
  5
5DB8
  8
DIM
 62
     7
 10
772.76586427917641
 20
1411.3143620867729
 30
0.0
 11
772.76586427917641
 21
1419.3646101636059
 31
0.0
  0
SOLID
  5
5DBA
  8
DIM
 62
     7
 10
780.76566427917635
 20
1515.922589410133
 30
0.0
 11
780.76566427917635
 21
1513.255989410133
 31
0.0
 12
772.76586427917641
 22
1514.589289410133
 32
0.0
 13
772.76586427917641
 23
1514.589289410133
 33
0.0
  0
LINE
  5
5DBB
  8
DIM
 62
     7
 10
892.7658642791763
 20
1429.9017043350279
 30
0.0
 11
892.7658642791763
 21
1438.9149301995019
 31
0.0
  0
LINE
  5
5DBC
  8
DIM
 62
     7
 10
892.7658642791763
 20
1399.474664831986
 30
0.0
 11
892.7658642791763
 21
1421.4022705575389
 31
0.0
  0
SOLID
  5
5DBD
  8
DIM
 62
     7
 10
894.76606427917625
 20
1515.9225894101321
 30
0.0
 11
894.76606427917625
 21
1513.2559894101321
 31
0.0
 12
902.7658642791763
 22
1514.589289410133
 32
0.0
 13
902.7658642791763
 23
1514.589289410133
 33
0.0
  0
TEXT
  5
5DBF
  8
DIM
 62
     7
 10
827.16943045590347
 20
1518.0892894101321
 30
0.0
 40
7.0
  1
130
 72
     4
 11
835.50276378923695
 21
1521.589289410133
 31
0.0
  0
LINE
  5
5DC0
  8
DRG
 62
     7
 10
659.76586427917584
 20
1357.7892894101319
 30
0.0
 11
659.76586427917584
 21
1348.7892894101331
 31
0.0
  0
LINE
  5
5DC1
  8
DRG
 62
     7
 10
512.76586427917584
 20
1228.7892894101331
 30
0.0
 11
683.57586427917636
 21
1228.7892894101331
 31
0.0
  0
LINE
  5
5DC2
  8
DRG
 62
     7
 10
512.76586427917641
 20
1243.7892894101331
 30
0.0
 11
512.76586427917584
 21
1228.7892894101331
 31
0.0
  0
LINE
  5
5DC3
  8
CRS
 62
     7
 10
522.76586427917584
 20
1230.5602699989281
 30
0.0
 11
522.76586427917584
 21
1216.779988710166
 31
0.0
  0
LINE
  5
5DC4
  8
DRG2
 62
     7
 10
514.76586427917596
 20
1220.2892894101331
 30
0.0
 11
516.26586427917584
 21
1218.7892894101331
 31
0.0
  0
LINE
  5
5DC5
  8
DRG2
 62
     7
 10
516.26586427917584
 20
1218.7892894101331
 30
0.0
 11
529.26586427917584
 21
1218.7892894101331
 31
0.0
  0
LINE
  5
5DC6
  8
DRG2
 62
     7
 10
529.26586427917584
 20
1218.7892894101331
 30
0.0
 11
530.76586427917584
 21
1220.2892894101331
 31
0.0
  0
LINE
  5
5DC7
  8
DRG2
 62
     7
 10
530.76586427917584
 20
1228.7892894101331
 30
0.0
 11
530.76586427917584
 21
1220.2892894101331
 31
0.0
  0
LINE
  5
5DC8
  8
DRG2
 62
     7
 10
530.76586427917584
 20
1220.2892894101331
 30
0.0
 11
514.76586427917596
 21
1220.2892894101331
 31
0.0
  0
LINE
  5
5DC9
  8
DRG2
 62
     7
 10
514.76586427917596
 20
1220.2892894101331
 30
0.0
 11
514.76586427917596
 21
1228.7892894101331
 31
0.0
  0
LINE
  5
5DCA
  8
DIM
 62
     7
 10
512.76586427917584
 20
1181.0899011763611
 30
0.0
 11
512.76586427917584
 21
867.14099955437257
 31
0.0
  0
LINE
  5
5DCB
  8
CRS
 62
     7
 10
1022.765864279176
 20
1230.5602699989281
 30
0.0
 11
1022.765864279176
 21
1216.779988710166
 31
0.0
  0
LINE
  5
5DCC
  8
DRG2
 62
     7
 10
1014.765864279176
 20
1228.7892894101331
 30
0.0
 11
1014.765864279176
 21
1220.2892894101331
 31
0.0
  0
LINE
  5
5DCD
  8
DRG2
 62
     7
 10
1030.765864279176
 20
1220.2892894101331
 30
0.0
 11
1030.765864279176
 21
1228.7892894101331
 31
0.0
  0
LINE
  5
5DCE
  8
DRG2
 62
     7
 10
1029.265864279176
 20
1218.7892894101331
 30
0.0
 11
1016.265864279176
 21
1218.7892894101331
 31
0.0
  0
LINE
  5
5DCF
  8
DRG2
 62
     7
 10
1014.765864279176
 20
1220.2892894101331
 30
0.0
 11
1030.765864279176
 21
1220.2892894101331
 31
0.0
  0
LINE
  5
5DD0
  8
DRG2
 62
     7
 10
1030.765864279176
 20
1220.2892894101331
 30
0.0
 11
1029.265864279176
 21
1218.7892894101331
 31
0.0
  0
LINE
  5
5DD1
  8
DRG2
 62
     7
 10
1016.265864279176
 20
1218.7892894101331
 30
0.0
 11
1014.765864279176
 21
1220.2892894101331
 31
0.0
  0
LINE
  5
5DD2
  8
DRG
 62
     7
 10
511.26586427917641
 20
1243.7892894101331
 30
0.0
 11
683.57586427917636
 21
1243.7892894101331
 31
0.0
  0
LINE
  5
5DD3
  8
DRG
 62
     7
 10
861.95586427917635
 20
1228.7892894101331
 30
0.0
 11
1032.765864279176
 21
1228.7892894101331
 31
0.0
  0
LINE
  5
5DD4
  8
DRG
 62
     7
 10
543.26586427917584
 20
1394.589289410133
 30
0.0
 11
543.26586427917584
 21
1321.1499691851311
 31
0.0
  0
LINE
  5
5DD5
  8
DRG
 62
     7
 10
563.26586427917584
 20
1328.7892894101331
 30
0.0
 11
987.76586427917641
 21
1328.7892894101331
 31
0.0
  0
LINE
  5
5DD6
  8
DRG
 62
     7
 10
902.7658642791763
 20
1357.7892894101331
 30
0.0
 11
902.7658642791763
 21
1348.7892894101331
 31
0.0
  0
ARC
  5
5DD7
  8
DRG
 62
     7
 10
922.76586427917641
 20
1348.7892894101331
 30
0.0
 40
20.0
 50
180.0
 51
270.0
  0
LINE
  5
5DD8
  8
DRG
 62
     7
 10
892.76586427917596
 20
1394.589289410133
 30
0.0
 11
892.76586427917596
 21
1375.1097974858201
 31
0.0
  0
LINE
  5
5DD9
  8
DRG
 62
     7
 10
1032.765864279176
 20
1269.6372998774559
 30
0.0
 11
1032.765864279176
 21
1228.7892894101331
 31
0.0
  0
LINE
  5
5DDA
  8
DRG
 62
     7
 10
1023.765864279176
 20
1273.789289410123
 30
0.0
 11
1026.765864279176
 21
1273.789289410123
 31
0.0
  0
ARC
  5
5DDB
  8
DRG
 62
     7
 10
1023.765864279176
 20
1279.789289410123
 30
0.0
 40
6.0
 50
180.0
 51
270.00000000000199
  0
ARC
  5
5DDC
  8
DRG
 62
     7
 10
1026.765864279176
 20
1267.789289410123
 30
0.0
 40
6.0
 50
0.0
 51
90.000000000002132
  0
ARC
  5
5DDD
  8
DRG
 62
     7
 10
1026.765864279176
 20
1247.789289410123
 30
0.0
 40
6.0
 50
0.0
 51
90.000000000002046
  0
ARC
  5
5DDE
  8
DRG
 62
     7
 10
1023.765864279176
 20
1259.789289410123
 30
0.0
 40
6.0
 50
180.0
 51
270.0000000000021
  0
ARC
  5
5DDF
  8
DRG
 62
     7
 10
987.76586427917641
 20
1298.7892894101331
 30
0.0
 40
30.0
 50
0.0
 51
90.0
  0
LINE
  5
5DE0
  8
DRG
 62
     7
 10
669.76586427917641
 20
1394.589289410133
 30
0.0
 11
669.76586427917641
 21
1375.1097974858189
 31
0.0
  0
LINE
  5
5DE1
  8
DRG
 62
     7
 10
533.26586427917584
 20
1298.7892894101331
 30
0.0
 11
533.26586427917584
 21
1259.789289410113
 31
0.0
  0
ARC
  5
5DE2
  8
DRG
 62
     7
 10
563.26586427917584
 20
1298.7892894101331
 30
0.0
 40
30.0
 50
90.0
 51
180.0
  0
ARC
  5
5DE3
  8
DRG
 62
     7
 10
527.26586427917596
 20
1259.789289410113
 30
0.0
 40
6.0
 50
270.00000000000267
 51
0.0000000000001145
  0
ARC
  5
5DE4
  8
DRG
 62
     7
 10
639.76586427917596
 20
1348.7892894101331
 30
0.0
 40
20.0
 50
270.0
 51
0.000000000000458
  0
LINE
  5
5DE5
  8
DRG
 62
     7
 10
679.76586427917584
 20
1377.7892894101319
 30
0.0
 11
687.96664541129144
 21
1377.7892894101319
 31
0.0
  0
ARC
  5
5DE6
  8
DRG
 62
     7
 10
882.76586427917641
 20
1357.7892894101331
 30
0.0
 40
20.0
 50
0.0
 51
90.000000000000057
  0
ARC
  5
5DE7
  8
DRG
 62
     7
 10
679.76586427917584
 20
1357.7892894101319
 30
0.0
 40
20.0
 50
90.000000000000114
 51
180.0000000000006
  0
LINE
  5
5E02
  8
DIM
 62
     7
 10
1032.765864279176
 20
1152.722095376361
 30
0.0
 11
1032.765864279176
 21
1127.9517604685821
 31
0.0
  0
LINE
  5
5E03
  8
DRG
 62
     7
 10
861.95586427917635
 20
1243.7892894101331
 30
0.0
 11
1032.765864279176
 21
1243.7892894101331
 31
0.0
  0
LINE
  5
5E04
  8
DIM
 62
     7
 10
902.7658642791763
 20
1399.474664831986
 30
0.0
 11
902.7658642791763
 21
1421.4022705575389
 31
0.0
  0
LINE
  5
5E05
  8
DIM
 62
     7
 10
902.7658642791763
 20
1429.9017043350279
 30
0.0
 11
902.76586427917653
 21
1450.6150631583041
 31
0.0
  0
LINE
  5
5E06
  8
DIM
 62
     7
 10
902.7658642791763
 20
1366.9966456235429
 30
0.0
 11
902.7658642791763
 21
1388.924251349096
 31
0.0
  0
LINE
  5
5E07
  8
DIM
 62
     7
 10
772.76586427917675
 20
1484.589289410133
 30
0.0
 11
886.76586427917653
 21
1484.589289410133
 31
0.0
  0
TEXT
  5
5E08
  8
DIM
 62
     7
 10
826.09850676861049
 20
1488.089289410133
 30
0.0
 40
7.0
  1
120
 72
     4
 11
834.43184010194386
 21
1491.589289410133
 31
0.0
  0
SOLID
  5
5E09
  8
DIM
 62
     7
 10
780.76566427917635
 20
1485.922589410133
 30
0.0
 11
780.76566427917635
 21
1483.255989410133
 31
0.0
 12
772.76586427917641
 22
1484.589289410133
 32
0.0
 13
772.76586427917641
 23
1484.589289410133
 33
0.0
  0
SOLID
  5
5E0A
  8
DIM
 62
     7
 10
884.76606427917636
 20
1485.9225894101321
 30
0.0
 11
884.76606427917636
 21
1483.2559894101321
 31
0.0
 12
892.7658642791763
 22
1484.589289410133
 32
0.0
 13
892.7658642791763
 23
1484.589289410133
 33
0.0
  0
LINE
  5
5E0C
  8
HID
 62
     7
 10
675.26586427917641
 20
1394.589289410133
 30
0.0
 11
675.26586427917641
 21
1369.589289410133
 31
0.0
  0
LINE
  5
5E0D
  8
HID
 62
     7
 10
870.26586427917641
 20
1394.589289410133
 30
0.0
 11
870.26586427917641
 21
1369.589289410133
 31
0.0
  0
LINE
  5
5E0F
  8
DIM
 62
     7
 10
870.26586427917641
 20
1396.589289410133
 30
0.0
 11
870.26586427917641
 21
1412.1178455973461
 31
0.0
  0
LINE
  5
5E10
  8
DIM
 62
     7
 10
681.26586427917641
 20
1454.589289410133
 30
0.0
 11
864.2658642791763
 21
1454.589289410133
 31
0.0
  0
SOLID
  5
5E11
  8
DIM
 62
     7
 10
683.26566427917635
 20
1455.922589410133
 30
0.0
 11
683.26566427917635
 21
1453.255989410133
 31
0.0
 12
675.26586427917641
 22
1454.589289410133
 32
0.0
 13
675.26586427917641
 23
1454.589289410133
 33
0.0
  0
SOLID
  5
5E12
  8
DIM
 62
     7
 10
862.26606427917636
 20
1455.922589410133
 30
0.0
 11
862.26606427917636
 21
1453.255989410133
 31
0.0
 12
870.26586427917641
 22
1454.589289410133
 32
0.0
 13
870.26586427917641
 23
1454.589289410133
 33
0.0
  0
TEXT
  5
5E13
  8
DIM
 62
     7
 10
761.26586427917641
 20
1458.089289410133
 30
0.0
 40
7.0
  1
%%C195
 72
     1
 11
772.76586427917641
 21
1461.589289410133
 31
0.0
 73
     2
  0
LINE
  5
5E14
  8
CRS
 62
     7
 10
694.9858642791761
 20
1397.463608661074
 30
0.0
 11
694.9858642791761
 21
1372.8584001789311
 31
0.0
  0
LINE
  5
5E15
  8
HID
 62
     7
 10
689.98586427917621
 20
1394.589289410133
 30
0.0
 11
689.98586427917621
 21
1378.589289410133
 31
0.0
  0
LINE
  5
5E16
  8
HID
 62
     7
 10
699.98586427917621
 20
1394.589289410133
 30
0.0
 11
699.98586427917621
 21
1378.589289410133
 31
0.0
  0
LINE
  5
5E17
  8
HID
 62
     7
 10
690.73586427917621
 20
1394.589289410133
 30
0.0
 11
690.73586427917621
 21
1377.0430280541891
 31
0.0
  0
LINE
  5
5E18
  8
HID
 62
     7
 10
699.23586427917621
 20
1394.589289410133
 30
0.0
 11
699.23586427917621
 21
1377.0430280541891
 31
0.0
  0
LINE
  5
5E19
  8
HID
 62
     7
 10
689.98586427917621
 20
1378.589289410133
 30
0.0
 11
699.98586427917621
 21
1378.589289410133
 31
0.0
  0
LINE
  5
5E1A
  8
HID
 62
     7
 10
694.9858642791761
 20
1374.589289410133
 30
0.0
 11
699.23586427917621
 21
1377.0430280541891
 31
0.0
  0
LINE
  5
5E1B
  8
HID
 62
     7
 10
694.9858642791761
 20
1374.589289410133
 30
0.0
 11
690.73586427917621
 21
1377.0430280541891
 31
0.0
  0
LINE
  5
5E1C
  8
HID
 62
     7
 10
690.73586427917621
 20
1377.0430280541891
 30
0.0
 11
699.23586427917621
 21
1377.0430280541891
 31
0.0
  0
LINE
  5
5E1D
  8
DRG
 62
     7
 10
702.50935645838831
 20
1377.7892894101319
 30
0.0
 11
882.76586427917641
 21
1377.7892894101331
 31
0.0
  0
LINE
  5
5E1E
  8
CRS
 62
     7
 10
850.54586427917616
 20
1397.463608661074
 30
0.0
 11
850.54586427917616
 21
1372.8584001789311
 31
0.0
  0
LINE
  5
5E1F
  8
HID
 62
     7
 10
854.79586427917616
 20
1377.0430280541891
 30
0.0
 11
846.29586427917604
 21
1377.0430280541891
 31
0.0
  0
LINE
  5
5E20
  8
HID
 62
     7
 10
850.54586427917616
 20
1374.589289410133
 30
0.0
 11
846.29586427917604
 21
1377.0430280541891
 31
0.0
  0
LINE
  5
5E21
  8
HID
 62
     7
 10
855.54586427917604
 20
1378.589289410133
 30
0.0
 11
845.54586427917604
 21
1378.589289410133
 31
0.0
  0
LINE
  5
5E22
  8
HID
 62
     7
 10
855.54586427917604
 20
1394.589289410133
 30
0.0
 11
855.54586427917604
 21
1378.589289410133
 31
0.0
  0
LINE
  5
5E23
  8
HID
 62
     7
 10
854.79586427917616
 20
1394.589289410133
 30
0.0
 11
854.79586427917616
 21
1377.0430280541891
 31
0.0
  0
LINE
  5
5E24
  8
HID
 62
     7
 10
850.54586427917616
 20
1374.589289410133
 30
0.0
 11
854.79586427917616
 21
1377.0430280541891
 31
0.0
  0
LINE
  5
5E25
  8
HID
 62
     7
 10
845.54586427917604
 20
1394.589289410133
 30
0.0
 11
845.54586427917604
 21
1378.589289410133
 31
0.0
  0
LINE
  5
5E26
  8
HID
 62
     7
 10
846.29586427917604
 20
1394.589289410133
 30
0.0
 11
846.29586427917604
 21
1377.0430280541891
 31
0.0
  0
LINE
  5
5E2D
  8
DIM
 62
     7
 10
675.26586427917641
 20
1397.325268461095
 30
0.0
 11
675.26586427917641
 21
1456.589289410133
 31
0.0
  0
LINE
  5
5E30
  8
DIM
 62
     7
 10
870.26586427917641
 20
1428.56699574252
 30
0.0
 11
870.26586427917641
 21
1456.589289410133
 31
0.0
  0
LINE
  5
5E32
  8
DIM
 62
     7
 10
772.76586427917641
 20
1470.003675411019
 30
0.0
 11
772.76586427917641
 21
1516.589289410133
 31
0.0
  0
TEXT
  5
5E33
  8
DIM
 62
     7
 10
818.50276378923695
 20
1504.589289410133
 30
0.0
 40
7.0
  1
(5.12")
 72
     4
 11
835.50276378923695
 21
1507.589289410133
 31
0.0
  0
TEXT
  5
5E37
  8
DIM
 62
     7
 10
816.76517343527712
 20
1474.589289410133
 30
0.0
 40
7.0
  1
(4.72")
 72
     4
 11
834.43184010194386
 21
1477.589289410133
 31
0.0
  0
TEXT
  5
5E38
  8
DIM
 62
     7
 10
751.93253094584304
 20
1444.589289410133
 30
0.0
 40
7.0
  1
(%%c7.68")
 72
     4
 11
772.76586427917641
 21
1447.5892894101321
 31
0.0
  0
TEXT
  5
5E39
  8
DIM
 62
     7
 10
748.38529274094719
 20
860.48928941013321
 30
0.0
 40
7.0
  1
(%%c20.47")
 72
     4
 11
772.55195940761382
 21
863.48928941013344
 31
0.0
  0
LINE
  5
5E3B
  8
DIM
 62
     7
 10
1032.765864279176
 20
1077.729574787988
 30
0.0
 11
1032.765864279176
 21
1043.589289410133
 31
0.0
  0
LINE
  5
5E41
  8
DIM
 62
     7
 10
1032.765864279176
 20
1225.210507718095
 30
0.0
 11
1032.765864279176
 21
1147.821116764683
 31
0.0
  0
LINE
  5
5E42
  8
DIM
 62
     7
 10
978.58470761650938
 20
1023.090987864785
 30
0.0
 11
994.94052176729815
 21
989.37624993183908
 31
0.0
  0
LINE
  5
5E43
  8
DIM
 62
     7
 10
994.74052176729776
 20
989.37624993183908
 30
0.0
 11
1046.3296042255431
 21
989.37624993183931
 31
0.0
  0
SOLID
  5
5E44
  8
DIM
 62
     7
 10
978.25797552577399
 20
1020.709783322776
 30
0.0
 11
980.65716067591131
 21
1021.873684596665
 31
0.0
 12
975.96586427917623
 22
1028.4892894101331
 32
0.0
 13
975.96586427917623
 23
1028.4892894101331
 33
0.0
  0
TEXT
  5
5E45
  8
DIM
 10
2137.6964822397399
 20
547.62167474918976
 30
0.0
 40
7.0
  1

  0
TEXT
  5
5E46
  8
DIM
 62
     7
 10
1049.335112461587
 20
991.65727629231412
 30
0.0
 40
7.0
  1
SEE TABLE FOR
  0
TEXT
  5
5E47
  8
DIM
 62
     7
 10
1049.335112461587
 20
979.65727629231424
 30
0.0
 40
7.0
  1
HOLE DETAILS
  0
LINE
  5
5E48
  8
DIM
 62
     7
 10
1032.765864279176
 20
1135.9575751938901
 30
0.0
 11
1032.765864279176
 21
1125.9422100787931
 31
0.0
  0
TEXT
  5
5E49
  8
DIM
 10
2137.6964822397399
 20
511.62167474918999
 30
0.0
 40
7.0
  1

  0
LINE
  5
5E4E
  8
DIM
 62
     7
 10
881.06586427917614
 20
930.48928941013355
 30
0.0
 11
664.46586427917623
 21
930.48928941013344
 31
0.0
  0
LINE
  5
5E4F
  8
DIM
 62
     7
 10
1004.765864279175
 20
900.48928941013332
 30
0.0
 11
606.24683630256482
 21
900.48928941013332
 31
0.0
  0
LINE
  5
5E50
  8
DIM
 62
     7
 10
463.93352617126601
 20
1034.4892894101331
 30
0.0
 11
463.93352617126601
 21
1057.1403911044799
 31
0.0
  0
SOLID
  5
5E51
  8
DIM
 62
     7
 10
462.60022617126612
 20
1036.4890894101329
 30
0.0
 11
465.26682617126602
 21
1036.4890894101329
 31
0.0
 12
463.93352617126601
 22
1028.4892894101331
 32
0.0
 13
463.93352617126601
 23
1028.4892894101331
 33
0.0
  0
TEXT
  5
5E52
  8
DIM
 62
     7
 10
460.30017475420379
 20
1119.189829578273
 30
0.0
 40
7.0
  1
190
 50
90.0
 72
     4
 11
456.80017475420391
 21
1127.5231629116061
 31
0.0
  0
SOLID
  5
5E53
  8
DIM
 62
     7
 10
462.60022617126612
 20
1210.789489410133
 30
0.0
 11
465.26682617126602
 21
1210.789489410133
 31
0.0
 12
463.93352617126601
 22
1218.7892894101331
 32
0.0
 13
463.93352617126601
 23
1218.7892894101331
 33
0.0
  0
LINE
  5
5E54
  8
DIM
 62
     7
 10
658.46586427917623
 20
1018.750270188001
 30
0.0
 11
658.46586427917623
 21
928.48928941013321
 31
0.0
  0
SOLID
  5
5E55
  8
DIM
 62
     7
 10
616.24643630256458
 20
901.82258941013322
 30
0.0
 11
616.24643630256458
 21
899.15598941013332
 31
0.0
 12
608.24663630256464
 22
900.48928941013332
 32
0.0
 13
608.24663630256464
 23
900.48928941013332
 33
0.0
  0
SOLID
  5
5E56
  8
DIM
 62
     7
 10
608.24663630256464
 20
901.82258941013322
 30
0.0
 11
608.24663630256464
 21
899.15598941013332
 31
0.0
 12
600.24683630256482
 22
900.48928941013332
 32
0.0
 13
600.24683630256482
 23
900.48928941013332
 33
0.0
  0
SOLID
  5
5E57
  8
DIM
 62
     7
 10
666.46566427917617
 20
931.82258941013333
 30
0.0
 11
666.46566427917617
 21
929.1559894101332
 31
0.0
 12
658.46586427917623
 22
930.48928941013344
 32
0.0
 13
658.46586427917623
 23
930.48928941013344
 33
0.0
  0
LINE
  5
5E58
  8
DIM
 62
     7
 10
1010.60205414499
 20
1328.7892894101331
 30
0.0
 11
1094.765864279176
 21
1328.7892894101331
 31
0.0
  0
LINE
  5
5E59
  8
DIM
 62
     7
 10
894.71276209277914
 20
1394.589289410133
 30
0.0
 11
1124.765864279176
 21
1394.589289410133
 31
0.0
  0
TEXT
  5
5E5A
  8
DIM
 62
     7
 10
948.15227560700259
 20
1414.1302912596491
 30
0.0
 40
7.0
  1
DIAMETER OF VALVE SPINDLE
  0
TEXT
  5
5E5B
  8
DIM
 62
     7
 10
948.15227560700259
 20
1426.1302912596491
 30
0.0
 40
7.0
  1
MAXIMUM PERMISSIBLE OUTSIDE
  0
LINE
  5
5E5C
  8
DIM
 62
     7
 10
689.76586427917607
 20
1304.2286780212819
 30
0.0
 11
689.76586427917607
 21
1371.206283121051
 31
0.0
  0
LINE
  5
5E5D
  8
DIM
 62
     7
 10
855.765864279178
 20
1304.2286780212819
 30
0.0
 11
855.765864279178
 21
1375.368859134674
 31
0.0
  0
TEXT
  5
5E5E
  8
DIM
 62
     7
 10
731.59919761250967
 20
933.98928941013344
 30
0.0
 40
7.0
  1
SEE TABLE FOR
 72
     4
 11
772.76586427917641
 21
937.48928941013344
 31
0.0
  0
TEXT
  5
5E5F
  8
DIM
 62
     7
 10
760.76586427917596
 20
903.98928941013332
 30
0.0
 40
7.0
  1
%%C476
 72
     4
 11
772.76586427917596
 21
907.48928941013332
 31
0.0
  0
LINE
  5
5E60
  8
DIM
 62
     7
 10
887.06586427917614
 20
1018.750270188001
 30
0.0
 11
887.06586427917614
 21
1003.294354294447
 31
0.0
  0
LINE
  5
5E61
  8
DIM
 62
     7
 10
1032.765864279175
 20
1225.210507718095
 30
0.0
 11
1032.765864279175
 21
992.06504214050619
 31
0.0
  0
SOLID
  5
5E62
  8
DIM
 62
     7
 10
879.06606427917609
 20
931.82258941013333
 30
0.0
 11
879.06606427917609
 21
929.1559894101332
 31
0.0
 12
887.06586427917614
 22
930.48928941013355
 32
0.0
 13
887.06586427917614
 23
930.48928941013355
 33
0.0
  0
SOLID
  5
5E63
  8
DIM
 62
     7
 10
1002.766064279175
 20
901.82258941013322
 30
0.0
 11
1002.766064279175
 21
899.15598941013332
 31
0.0
 12
1010.765864279176
 22
900.48928941013332
 32
0.0
 13
1010.765864279176
 23
900.48928941013332
 33
0.0
  0
LINE
  5
5E64
  8
DIM
 62
     7
 10
1010.765864279176
 20
1025.0634894674849
 30
0.0
 11
1010.765864279176
 21
992.75154932546627
 31
0.0
  0
LINE
  5
5E65
  8
DIM
 62
     7
 10
850.68586427917614
 20
1424.589289410133
 30
0.0
 11
942.39202255500038
 21
1424.589289410133
 31
0.0
  0
LINE
  5
5E66
  8
DIM
 62
     7
 10
689.76586427917607
 20
1424.589289410133
 30
0.0
 11
850.68586427917262
 21
1424.5892894101321
 31
0.0
  0
SOLID
  5
5E67
  8
DIM
 62
     7
 10
697.76566427917624
 20
1425.922589410133
 30
0.0
 11
697.76566427917624
 21
1423.2559894101321
 31
0.0
 12
689.76586427917607
 22
1424.589289410133
 32
0.0
 13
689.76586427917607
 23
1424.589289410133
 33
0.0
  0
SOLID
  5
5E68
  8
DIM
 62
     7
 10
847.76606427918068
 20
1425.922589410133
 30
0.0
 11
847.76606427918068
 21
1423.2559894101321
 31
0.0
 12
855.76586427918073
 22
1424.5892894101321
 32
0.0
 13
855.76586427918073
 23
1424.5892894101321
 33
0.0
  0
TEXT
  5
5E69
  8
DIM
 62
     7
 10
948.15227560700259
 20
1438.1302912596491
 30
0.0
 40
7.0
  1
%%c166 (6.54") ROOT OF SPLINE
  0
TEXT
  5
5E6A
  8
DIM
 62
     7
 10
948.15227560700259
 20
1402.13029125965
 30
0.0
 40
7.0
  1
LOCK NUT
  0
LINE
  5
5E6B
  8
DIM
 62
     7
 10
1092.765864279176
 20
1028.4892894101331
 30
0.0
 11
1092.765864279176
 21
1328.7892894101331
 31
0.0
  0
LINE
  5
5E6C
  8
DIM
 62
     7
 10
1122.765864279176
 20
1394.589289410133
 30
0.0
 11
1122.765864279176
 21
1028.4892894101331
 31
0.0
  0
LINE
  5
5E6D
  8
DIM
 62
     7
 10
1062.765864279176
 20
1028.4892894101331
 30
0.0
 11
1062.765864279176
 21
1299.089289410133
 31
0.0
  0
TEXT
  5
5E6E
  8
DIM
 62
     7
 10
548.23504425594876
 20
988.663682758184
 30
0.0
 40
7.0
  1
8
 50
90.0
 72
     4
 11
544.73504425594876
 21
990.99701609151748
 31
0.0
  0
TEXT
  5
5E6F
  8
DIM
 62
     7
 10
548.00869771418365
 20
1118.698510928662
 30
0.0
 40
7.0
  1
200
 50
90.0
 72
     4
 11
544.50869771418365
 21
1127.698510928662
 31
0.0
  0
SOLID
  5
5E70
  8
DIM
 62
     7
 10
1061.4325642791759
 20
1036.4890894101329
 30
0.0
 11
1064.099164279176
 21
1036.4890894101329
 31
0.0
 12
1062.765864279176
 22
1028.4892894101331
 32
0.0
 13
1062.765864279176
 23
1028.4892894101331
 33
0.0
  0
TEXT
  5
5E71
  8
DIM
 62
     7
 10
1059.265864279176
 20
1156.8143537925339
 30
0.0
 40
7.0
  1
271
 50
90.0
 72
     4
 11
1055.765864279176
 21
1164.3143537925339
 31
0.0
  0
SOLID
  5
5E72
  8
DIM
 62
     7
 10
1061.4325642791759
 20
1291.089489410133
 30
0.0
 11
1064.099164279176
 21
1291.089489410133
 31
0.0
 12
1062.765864279176
 22
1299.089289410133
 32
0.0
 13
1062.765864279176
 23
1299.089289410133
 33
0.0
  0
SOLID
  5
5E73
  8
DIM
 62
     7
 10
1091.4325642791759
 20
1036.4890894101329
 30
0.0
 11
1094.099164279176
 21
1036.4890894101329
 31
0.0
 12
1092.765864279176
 22
1028.4892894101331
 32
0.0
 13
1092.765864279176
 23
1028.4892894101331
 33
0.0
  0
SOLID
  5
5E74
  8
DIM
 62
     7
 10
1121.4325642791759
 20
1036.4890894101329
 30
0.0
 11
1124.099164279176
 21
1036.4890894101329
 31
0.0
 12
1122.765864279176
 22
1028.4892894101331
 32
0.0
 13
1122.765864279176
 23
1028.4892894101331
 33
0.0
  0
TEXT
  5
5E75
  8
DIM
 62
     7
 10
1089.265864279176
 20
1172.0115085810301
 30
0.0
 40
7.0
  1
300
 50
90.0
 72
     4
 11
1085.765864279176
 21
1181.0115085810301
 31
0.0
  0
TEXT
  5
5E76
  8
DIM
 62
     7
 10
1119.265864279176
 20
1208.280808003379
 30
0.0
 40
7.0
  1
366
 50
90.0
 72
     4
 11
1115.765864279176
 21
1217.114141336712
 31
0.0
  0
SOLID
  5
5E77
  8
DIM
 62
     7
 10
1091.4325642791759
 20
1320.789489410133
 30
0.0
 11
1094.099164279176
 21
1320.789489410133
 31
0.0
 12
1092.765864279176
 22
1328.7892894101331
 32
0.0
 13
1092.765864279176
 23
1328.7892894101331
 33
0.0
  0
SOLID
  5
5E78
  8
DIM
 62
     7
 10
1121.4325642791759
 20
1386.589489410133
 30
0.0
 11
1124.099164279176
 21
1386.589489410133
 31
0.0
 12
1122.765864279176
 22
1394.589289410133
 32
0.0
 13
1122.765864279176
 23
1394.589289410133
 33
0.0
  0
LINE
  5
5E79
  8
DRG
 62
     7
 10
658.46586427917623
 20
1021.489289410133
 30
0.0
 11
659.46586427917623
 21
1020.489289410133
 31
0.0
  0
LINE
  5
5E7A
  8
DRG
 62
     7
 10
659.46586427917623
 20
1020.489289410133
 30
0.0
 11
886.06586427917648
 21
1020.489289410133
 31
0.0
  0
LINE
  5
5E7B
  8
DRG
 62
     7
 10
582.76586427917607
 20
1028.4892894101331
 30
0.0
 11
1010.765864279176
 21
1028.4892894101331
 31
0.0
  0
LINE
  5
5E7C
  8
DRG
 62
     7
 10
658.46586427917623
 20
1028.4892894101331
 30
0.0
 11
658.46586427917623
 21
1021.489289410133
 31
0.0
  0
LINE
  5
5E7D
  8
CRS
 62
     7
 10
975.96586427917623
 20
1104.6021462158819
 30
0.0
 11
975.96586427917623
 21
1023.5618510045171
 31
0.0
  0
LINE
  5
5E7E
  8
HID
 62
     7
 10
990.05016427917633
 20
1088.4892894101331
 30
0.0
 11
975.96586427917657
 21
1096.62086380648
 31
0.0
  0
LINE
  5
5E7F
  8
HID
 62
     7
 10
961.88156427917625
 20
1088.4892894101331
 30
0.0
 11
990.05016427917633
 21
1088.4892894101331
 31
0.0
  0
LINE
  5
5E80
  8
HID
 62
     7
 10
960.09086427917634
 20
1073.4892894101331
 30
0.0
 11
991.84086427917623
 21
1073.4892894101331
 31
0.0
  0
LINE
  5
5E81
  8
HID
 62
     7
 10
961.88156427917625
 20
1088.4892894101331
 30
0.0
 11
975.96586427917657
 21
1096.62086380648
 31
0.0
  0
LINE
  5
5E82
  8
DIM
 62
     7
 10
733.44227758023499
 20
1293.089289410133
 30
0.0
 11
733.44227758023499
 21
1045.089289410133
 31
0.0
  0
SOLID
  5
5E83
  8
DIM
 62
     7
 10
732.10897758023498
 20
1291.089489410133
 30
0.0
 11
734.77557758023488
 21
1291.089489410133
 31
0.0
 12
733.44227758023499
 22
1299.089289410133
 32
0.0
 13
733.44227758023499
 23
1299.089289410133
 33
0.0
  0
SOLID
  5
5E84
  8
DIM
 62
     7
 10
732.10897758023498
 20
1047.0890894101331
 30
0.0
 11
734.77557758023488
 21
1047.0890894101331
 31
0.0
 12
733.44227758023499
 22
1039.089289410133
 32
0.0
 13
733.44227758023499
 23
1039.089289410133
 33
0.0
  0
TEXT
  5
5E85
  8
DIM
 62
     7
 10
729.94227758023499
 20
1164.855743368518
 30
0.0
 40
7.0
  1
260
 50
90.0
 72
     4
 11
726.44227758023499
 21
1173.855743368518
 31
0.0
  0
LINE
  5
5E86
  8
DRG
 62
     7
 10
887.06586427917614
 20
1028.4892894101331
 30
0.0
 11
887.06586427917614
 21
1021.489289410133
 31
0.0
  0
LINE
  5
5E87
  8
DRG
 62
     7
 10
887.06586427917614
 20
1021.489289410133
 30
0.0
 11
886.06586427917614
 21
1020.489289410133
 31
0.0
  0
LINE
  5
5E88
  8
DIM
 62
     7
 10
507.62519090243279
 20
1028.4892894101331
 30
0.0
 11
458.9730572914998
 21
1028.4892894101331
 31
0.0
  0
SOLID
  5
5E89
  8
DIM
 62
     7
 10
552.84199771418457
 20
1012.489489410133
 30
0.0
 11
550.17539771418456
 21
1012.489489410133
 31
0.0
 12
551.50869771418445
 22
1020.489289410133
 32
0.0
 13
551.50869771418445
 23
1020.489289410133
 33
0.0
  0
LINE
  5
5E8A
  8
DIM
 62
     7
 10
551.50869771418445
 20
1014.489289410133
 30
0.0
 11
551.50869771418445
 21
972.5536215542287
 31
0.0
  0
LINE
  5
5E8B
  8
DIM
 62
     7
 10
551.50869771418445
 20
1034.4892894101331
 30
0.0
 11
551.50869771418365
 21
1222.7892894101331
 31
0.0
  0
SOLID
  5
5E8C
  8
DIM
 62
     7
 10
552.84199771418434
 20
1036.4890894101329
 30
0.0
 11
550.17539771418433
 21
1036.4890894101329
 31
0.0
 12
551.50869771418445
 22
1028.4892894101331
 32
0.0
 13
551.50869771418445
 23
1028.4892894101331
 33
0.0
  0
SOLID
  5
5E8D
  8
DIM
 62
     7
 10
552.84199771418355
 20
1220.789489410133
 30
0.0
 11
550.17539771418365
 21
1220.789489410133
 31
0.0
 12
551.50869771418365
 22
1228.7892894101331
 32
0.0
 13
551.50869771418365
 23
1228.7892894101331
 33
0.0
  0
LINE
  5
5E8E
  8
DIM
 62
     7
 10
1010.765864279176
 20
985.72035519827239
 30
0.0
 11
1010.765864279176
 21
898.48928941013401
 31
0.0
  0
LINE
  5
5E8F
  8
DIM
 62
     7
 10
578.85647848013355
 20
1028.4892894101331
 30
0.0
 11
516.22455486998558
 21
1028.4892894101331
 31
0.0
  0
LINE
  5
5E90
  8
DIM
 62
     7
 10
689.76586427917607
 20
1398.788254285455
 30
0.0
 11
689.76586427917607
 21
1427.282036360034
 31
0.0
  0
LINE
  5
5E91
  8
DIM
 62
     7
 10
859.1495811197567
 20
1299.089289410133
 30
0.0
 11
1064.765864279176
 21
1299.089289410133
 31
0.0
  0
LINE
  5
5E92
  8
DRG
 62
     7
 10
1010.765864279176
 20
1218.7892894101331
 30
0.0
 11
1010.765864279176
 21
1028.4892894101331
 31
0.0
  0
LINE
  5
5E93
  8
DRG
 62
     7
 10
582.76586427917607
 20
1218.7892894101331
 30
0.0
 11
582.76586427917607
 21
1028.4892894101331
 31
0.0
  0
ARC
  5
5E94
  8
DRG
 62
     7
 10
572.76586427917607
 20
1218.7892894101331
 30
0.0
 40
10.0
 50
0.0
 51
90.000000000000185
  0
ARC
  5
5E95
  8
DRG
 62
     7
 10
1020.765864279175
 20
1218.7892894101331
 30
0.0
 40
10.0
 50
126.8698976458449
 51
179.99999999999989
  0
LINE
  5
5E96
  8
DIM
 62
     7
 10
656.37035031761775
 20
1020.489289410133
 30
0.0
 11
547.21111985177265
 21
1020.489289410133
 31
0.0
  0
LINE
  5
5E97
  8
DIM
 62
     7
 10
1016.56969427845
 20
1028.4892894101331
 30
0.0
 11
1028.6051417665201
 21
1028.4892894101331
 31
0.0
  0
LINE
  5
5E98
  8
DIM
 62
     7
 10
1039.574139375042
 20
1028.4892894101331
 30
0.0
 11
1151.5762227126199
 21
1028.4892894101331
 31
0.0
  0
LINE
  5
5E99
  8
HID
 62
     7
 10
687.81586427917614
 20
1299.089289410133
 30
0.0
 11
857.71586427917612
 21
1299.089289410133
 31
0.0
  0
LINE
  5
5E9A
  8
HID
 62
     7
 10
687.81586427917591
 20
1265.589289410133
 30
0.0
 11
687.81586427917591
 21
1145.839289410133
 31
0.0
  0
LINE
  5
5E9B
  8
HID
 62
     7
 10
857.715864279176
 20
1265.589289410133
 30
0.0
 11
857.71586427917612
 21
1145.839289410133
 31
0.0
  0
LINE
  5
5E9C
  8
HID
 62
     7
 10
689.76586427917607
 20
1299.089289410133
 30
0.0
 11
689.76586427917607
 21
1265.589289410133
 31
0.0
  0
LINE
  5
5E9D
  8
HID
 62
     7
 10
855.76586427917755
 20
1299.089289410133
 30
0.0
 11
855.76586427917573
 21
1265.589289410133
 31
0.0
  0
LINE
  5
5E9E
  8
HID
 62
     7
 10
687.96586427917634
 20
1039.089289410133
 30
0.0
 11
857.56586427917614
 21
1039.089289410133
 31
0.0
  0
LINE
  5
5E9F
  8
HID
 62
     7
 10
687.965864279176
 20
1265.589289410133
 30
0.0
 11
687.96586427917623
 21
1145.839289410133
 31
0.0
  0
LINE
  5
5EA0
  8
HID
 62
     7
 10
857.56586427917614
 20
1265.589289410133
 30
0.0
 11
857.56586427917614
 21
1145.839289410133
 31
0.0
  0
LINE
  5
5EA1
  8
HID
 62
     7
 10
667.89586427917618
 20
1145.839289410133
 30
0.0
 11
687.81586427917591
 21
1145.839289410133
 31
0.0
  0
LINE
  5
5EA2
  8
HID
 62
     7
 10
687.965864279176
 20
1265.589289410133
 30
0.0
 11
689.76586427917607
 21
1265.589289410133
 31
0.0
  0
LINE
  5
5EA3
  8
HID
 62
     7
 10
687.81586427917614
 20
1269.589289410133
 30
0.0
 11
689.76586427917607
 21
1269.589289410133
 31
0.0
  0
LINE
  5
5EA4
  8
HID
 62
     7
 10
687.81586427917614
 20
1299.089289410133
 30
0.0
 11
687.81586427917614
 21
1269.589289410133
 31
0.0
  0
LINE
  5
5EA5
  8
HID
 62
     7
 10
857.71586427917612
 20
1299.089289410133
 30
0.0
 11
857.71586427917646
 21
1269.589289410133
 31
0.0
  0
LINE
  5
5EA6
  8
HID
 62
     7
 10
667.89586427917618
 20
1113.839289410133
 30
0.0
 11
687.81586427917591
 21
1113.839289410133
 31
0.0
  0
LINE
  5
5EA7
  8
HID
 62
     7
 10
667.89586427917618
 20
1145.839289410133
 30
0.0
 11
667.89586427917618
 21
1113.839289410133
 31
0.0
  0
LINE
  5
5EA8
  8
HID
 62
     7
 10
877.63586427917585
 20
1145.839289410133
 30
0.0
 11
877.63586427917585
 21
1113.839289410133
 31
0.0
  0
LINE
  5
5EA9
  8
HID
 62
     7
 10
687.96586427917623
 20
1113.839289410133
 30
0.0
 11
687.96586427917634
 21
1039.089289410133
 31
0.0
  0
LINE
  5
5EAA
  8
HID
 62
     7
 10
857.56586427917614
 20
1113.839289410133
 30
0.0
 11
857.56586427917614
 21
1039.089289410133
 31
0.0
  0
LINE
  5
5EAB
  8
HID
 62
     7
 10
857.71586427917612
 20
1145.839289410133
 30
0.0
 11
877.63586427917585
 21
1145.839289410133
 31
0.0
  0
LINE
  5
5EAC
  8
HID
 62
     7
 10
857.71586427917612
 20
1113.839289410133
 30
0.0
 11
877.63586427917585
 21
1113.839289410133
 31
0.0
  0
LINE
  5
5EAD
  8
HID
 62
     7
 10
857.71586427917612
 20
1113.839289410133
 30
0.0
 11
857.71586427917612
 21
1039.089289410133
 31
0.0
  0
LINE
  5
5EAE
  8
HID
 62
     7
 10
687.81586427917591
 20
1113.839289410133
 30
0.0
 11
687.81586427917614
 21
1039.089289410133
 31
0.0
  0
LINE
  5
5EAF
  8
DIM
 62
     7
 10
855.765864279178
 20
1396.746293677312
 30
0.0
 11
855.765864279178
 21
1427.282036360034
 31
0.0
  0
LINE
  5
5EB0
  8
HID
 62
     7
 10
855.76586427917584
 20
1269.589289410133
 30
0.0
 11
857.71586427917646
 21
1269.589289410133
 31
0.0
  0
LINE
  5
5EB1
  8
HID
 62
     7
 10
855.76586427917573
 20
1265.589289410133
 30
0.0
 11
857.56586427917614
 21
1265.589289410133
 31
0.0
  0
LINE
  5
5EB2
  8
HID
 62
     7
 10
760.26586427917607
 20
1299.089289410133
 30
0.0
 11
760.26586427917607
 21
1039.089289410133
 31
0.0
  0
LINE
  5
5EB3
  8
HID
 62
     7
 10
785.26586427917607
 20
1299.089289410133
 30
0.0
 11
785.26586427917607
 21
1039.089289410133
 31
0.0
  0
LINE
  5
5EB4
  8
HID
 62
     7
 10
991.84086427917623
 20
1073.4892894101331
 30
0.0
 11
991.84086427917623
 21
1028.4892894101331
 31
0.0
  0
LINE
  5
5EB5
  8
HID
 62
     7
 10
960.09086427917634
 20
1073.4892894101331
 30
0.0
 11
960.09086427917634
 21
1028.4892894101331
 31
0.0
  0
LINE
  5
5EB6
  8
HID
 62
     7
 10
990.05016427917633
 20
1088.4892894101331
 30
0.0
 11
990.05016427917633
 21
1028.4892894101331
 31
0.0
  0
LINE
  5
5EB7
  8
HID
 62
     7
 10
961.88156427917625
 20
1088.4892894101331
 30
0.0
 11
961.88156427917625
 21
1028.4892894101331
 31
0.0
  0
LINE
  5
5EB8
  8
DIM
 62
     7
 10
1032.765864279175
 20
985.38517214487229
 30
0.0
 11
1032.765864279175
 21
866.21039103410612
 31
0.0
  0
LINE
  5
5EBA
  8
DIM
 62
     7
 10
514.37106506215196
 20
1218.7892894101331
 30
0.0
 11
461.93352617126601
 21
1218.7892894101331
 31
0.0
  0
TEXT
  5
5EBC
  8
DIM
 62
     7
 10
473.80017475420391
 20
1109.8564962449391
 30
0.0
 40
7.0
  1
(7.49")
 50
90.0
 72
     4
 11
470.80017475420391
 21
1127.5231629116061
 31
0.0
  0
TEXT
  5
5EBD
  8
DIM
 62
     7
 10
561.50869771418365
 20
1110.031844261995
 30
0.0
 40
7.0
  1
(7.89")
 50
90.0
 72
     4
 11
558.50869771418365
 21
1127.698510928662
 31
0.0
  0
TEXT
  5
5EBE
  8
DIM
 62
     7
 10
561.73504425594876
 20
973.99701609151748
 30
0.0
 40
7.0
  1
(0.31")
 50
90.0
 72
     4
 11
558.73504425594888
 21
990.99701609151748
 31
0.0
  0
TEXT
  5
5EBF
  8
DIM
 62
     7
 10
743.44227758023499
 20
1153.522410035185
 30
0.0
 40
7.0
  1
(10.24")
 50
90.0
 72
     4
 11
740.44227758023487
 21
1173.855743368518
 31
0.0
  0
TEXT
  5
5EC0
  8
DIM
 62
     7
 10
1072.765864279176
 20
1143.9810204592011
 30
0.0
 40
7.0
  1
(10.65")
 50
90.0
 72
     4
 11
1069.765864279176
 21
1164.3143537925339
 31
0.0
  0
TEXT
  5
5EC1
  8
DIM
 62
     7
 10
1102.765864279176
 20
1161.3448419143631
 30
0.0
 40
7.0
  1
(11.82")
 50
90.0
 72
     4
 11
1099.765864279176
 21
1181.0115085810301
 31
0.0
  0
TEXT
  5
5EC2
  8
DIM
 62
     7
 10
1132.765864279176
 20
1197.4474746700459
 30
0.0
 40
7.0
  1
(14.41")
 50
90.0
 72
     4
 11
1129.765864279176
 21
1217.114141336712
 31
0.0
  0
TEXT
  5
5EC3
  8
DIM
 62
     7
 10
742.43253094584304
 20
919.98928941013332
 30
0.0
 40
7.0
  1
SPIGOT DIA.
 72
     4
 11
772.76586427917641
 21
923.48928941013332
 31
0.0
  0
TEXT
  5
5EC4
  8
DIM
 62
     7
 10
749.26586427917584
 20
890.48928941013332
 30
0.0
 40
7.0
  1
(%%c18.74")
 72
     4
 11
772.76586427917596
 21
893.48928941013332
 31
0.0
  0
TEXT
  5
5EC5
  8
DIM
 10
3091.2559450810868
 20
544.62167474918988
 30
0.0
 40
7.0
  1

  0
TEXT
  5
5EC6
  8
DIM
 10
3091.2559450810868
 20
508.62167474918988
 30
0.0
 40
7.0
  1

  0
TEXT
  5
5EC7
  8
DIM
 10
4049.333708918753
 20
602.46022456297351
 30
0.0
 40
7.0
  1

  0
TEXT
  5
5EC8
  8
DIM
 10
4049.333708918753
 20
566.46022456297362
 30
0.0
 40
7.0
  1

  0
TEXT
  5
5EC9
  8
DIM
 10
5198.6392726748372
 20
590.61774380007887
 30
0.0
 40
7.0
  1

  0
TEXT
  5
5ECA
  8
DIM
 10
5198.6392726748372
 20
554.61774380007932
 30
0.0
 40
7.0
  1

  0
TEXT
  5
5ECB
  8
DIM
 10
6193.73782735245
 20
616.0690353511618
 30
0.0
 40
7.0
  1

  0
TEXT
  5
5ECC
  8
DIM
 10
6193.73782735245
 20
580.06903535116203
 30
0.0
 40
7.0
  1

  0
TEXT
  5
5ECD
  8
DIM
 10
7104.6094849405636
 20
390.69626448565811
 30
0.0
 40
5.833333333333333
  1

  0
TEXT
  5
5ECE
  8
DIM
 10
7104.6094849405636
 20
360.69626448565828
 30
0.0
 40
5.833333333333333
  1

  0
TEXT
  5
5ECF
  8
DIM
 10
7920.6151706761248
 20
393.14396224992169
 30
0.0
 40
5.833333333333333
  1

  0
TEXT
  5
5ED0
  8
DIM
 10
9198.3349592784234
 20
472.60087935212368
 30
0.0
 40
5.833333333333333
  1

  0
TEXT
  5
5ED1
  8
DIM
 10
9698.4717811641458
 20
447.36864693569697
 30
0.0
 40
5.833333333333333
  1

  0
TEXT
  5
5ED2
  8
BORT
 10
10492.36815695875
 20
-223.81452104589459
 30
0.0
 40
5.833333333333333
  1

 72
     4
 11
10492.36815695875
 21
-223.81452104589459
 31
0.0
  0
TEXT
  5
5ED3
  8
BORT
 10
11412.2229206918
 20
-206.56154706591741
 30
0.0
 40
5.833333333333333
  1

 72
     4
 11
11412.2229206918
 21
-206.56154706591741
 31
0.0
  0
TEXT
  5
5ED4
  8
DIM
 10
10955.698392502871
 20
641.91526735816058
 30
0.0
 40
5.833333333333333
  1

  0
TEXT
  5
5ED5
  8
BORT
 10
11379.03482362541
 20
-207.48118771256131
 30
0.0
 40
5.833333333333333
  1

 72
     4
 11
11379.03482362541
 21
-207.48118771256131
 31
0.0
  0
TEXT
  5
5ED6
  8
DIM
 10
11935.714054076119
 20
524.18837896939215
 30
0.0
 40
5.833333333333333
  1

  0
TEXT
  5
5ED7
  8
BORT
 10
13152.36815695875
 20
-174.81452104589471
 30
0.0
 40
5.833333333333333
  1

 72
     4
 11
13152.36815695875
 21
-174.81452104589471
 31
0.0
  0
TEXT
  5
5ED8
  8
DIM
 10
13039.402070119209
 20
287.78049146565093
 30
0.0
 40
5.833333333333333
  1

  0
TEXT
  5
5ED9
  8
DIM
 10
13039.402070119209
 20
257.78049146565098
 30
0.0
 40
5.833333333333333
  1

  0
TEXT
  5
5EDA
  8
BORT
 10
14071.228144364721
 20
-157.51146462074431
 30
0.0
 40
5.833333333333333
  1

 72
     4
 11
14071.228144364721
 21
-157.51146462074431
 31
0.0
  0
TEXT
  5
5EE1
  8
TXT
 10
12986.35709046607
 20
-6.2798563091324118
 30
0.0
 40
5.833333333333333
  1

 72
     4
 11
12986.35709046607
 21
-6.2798563091324118
 31
0.0
  0
LINE
  5
5EEC
  8
DIM
 62
     7
 10
760.26586427917607
 20
1035.089289410133
 30
0.0
 11
760.26586427917607
 21
971.77590558660995
 31
0.0
  0
LINE
  5
5EED
  8
DIM
 62
     7
 10
785.26586427917607
 20
1035.089289410133
 30
0.0
 11
785.26586427917607
 21
971.77590558660995
 31
0.0
  0
LINE
  5
5EEE
  8
DIM
 62
     7
 10
768.26586427917618
 20
975.77590558660995
 30
0.0
 11
777.26586427917607
 21
975.77590558660995
 31
0.0
  0
LINE
  5
5EEF
  8
DIM
 62
     7
 10
785.26586427917607
 20
975.77590558660995
 30
0.0
 11
913.28925632656274
 21
975.77590558660995
 31
0.0
  0
SOLID
  5
5EF0
  8
DIM
 62
     7
 10
768.26586427917618
 20
977.10923891994332
 30
0.0
 11
768.26586427917618
 21
974.44257225327647
 31
0.0
 12
760.26586427917607
 22
975.77590558660995
 32
0.0
 13
760.26586427917607
 23
975.77590558660995
 33
0.0
  0
SOLID
  5
5EF1
  8
DIM
 62
     7
 10
777.26586427917607
 20
977.10923891994332
 30
0.0
 11
777.26586427917607
 21
974.44257225327647
 31
0.0
 12
785.26586427917607
 22
975.77590558660995
 32
0.0
 13
785.26586427917607
 23
975.77590558660995
 33
0.0
  0
TEXT
  5
5EF2
  8
DIM
 62
     7
 10
792.88676902104248
 20
979.44643478157946
 30
0.0
 40
7.0
  1
%%C65 CAST PILOT BORE
 72
     4
 11
852.88676902104248
 21
982.94643478157946
 31
0.0
  0
TEXT
  5
5EF3
  8
DIM
 62
     7
 10
792.02509827244376
 20
965.00320035144637
 30
0.0
 40
7.0
  1
(2.56")
 72
     4
 11
809.6917649391105
 21
968.00320035144637
 31
0.0
  0
LINE
  5
5EF4
  8
DIM
 62
     7
 10
887.06586427917614
 20
971.45206813610628
 30
0.0
 11
887.06586427917614
 21
928.48928941013355
 31
0.0
  0
TEXT
  5
5EF5
  8
DIM
 62
     7
 10
793.68379629720414
 20
992.38768357021877
 30
0.0
 40
7.0
  1
ALUMINIUM BRONZE ONLY
 72
     4
 11
861.85046296387065
 21
995.88768357021877
 31
0.0
  0
LINE
  5
5EF9
  8
DIM
 62
     7
 10
892.7658642791763
 20
1446.085977665299
 30
0.0
 11
892.7658642791763
 21
1488.0975880712349
 31
0.0
  0
LINE
  5
5EFA
  8
DIM
 62
     7
 10
902.76586427917653
 20
1458.163535328144
 30
0.0
 11
902.7658642791763
 21
1516.589289410133
 31
0.0
  0
SOLID
  5
5EFB
  8
DIM
 62
     7
 10
1146.901392294812
 20
1036.4890894101329
 30
0.0
 11
1149.567992294812
 21
1036.4890894101329
 31
0.0
 12
1148.234692294812
 22
1028.4892894101331
 32
0.0
 13
1148.234692294812
 23
1028.4892894101331
 33
0.0
  0
TEXT
  5
62ED
  8
6
 10
1291.9952049721369
 20
79.788362230008374
 30
0.0
 40
0.156
  1

  0
TEXT
  5
62F7
  8
BORT
 10
1733.00773147828
 20
179.61412566104579
 30
0.0
 40
5.0
  1

 72
     4
 11
1733.00773147828
 21
179.61412566104579
 31
0.0
  0
LINE
  5
62F8
  8
DRG
 62
     7
 10
321.26586427917499
 20
1686.989289410134
 30
0.0
 11
321.26586427917499
 21
1586.7711405497321
 31
0.0
  0
LINE
  5
62F9
  8
DRG
 62
     7
 10
307.2408642791749
 20
1621.9892894101331
 30
0.0
 11
201.7408642791749
 21
1621.9892894101331
 31
0.0
  0
LINE
  5
62FA
  8
DRG
 62
     7
 10
307.2408642791749
 20
1651.9892894101331
 30
0.0
 11
201.7408642791749
 21
1651.9892894101331
 31
0.0
  0
LINE
  5
62FB
  8
DRG2
 62
     7
 10
201.7408642791749
 20
1651.9892894101331
 30
0.0
 11
201.7408642791749
 21
1621.9892894101331
 31
0.0
  0
LINE
  5
62FC
  8
DRG
 62
     7
 10
200.2408642791749
 20
1650.4892894101331
 30
0.0
 11
200.2408642791749
 21
1623.4892894101331
 31
0.0
  0
LINE
  5
62FD
  8
DRG
 62
     7
 10
200.2408642791749
 20
1623.4892894101331
 30
0.0
 11
201.7408642791749
 21
1621.9892894101331
 31
0.0
  0
LINE
  5
62FE
  8
DRG
 62
     7
 10
201.7408642791749
 20
1651.9892894101331
 30
0.0
 11
200.2408642791749
 21
1650.4892894101331
 31
0.0
  0
LINE
  5
62FF
  8
DRG
 62
     7
 10
313.2408642791749
 20
1686.989289410134
 30
0.0
 11
313.2408642791749
 21
1586.7711405497321
 31
0.0
  0
LINE
  5
6300
  8
DRG
 62
     7
 10
313.2408642791749
 20
1586.7711405497321
 30
0.0
 11
321.26586427917499
 21
1586.7711405497321
 31
0.0
  0
LINE
  5
6301
  8
DRG
 62
     7
 10
419.29086427917508
 20
1686.989289410132
 30
0.0
 11
419.29086427917508
 21
1586.7711405497321
 31
0.0
  0
LINE
  5
6302
  8
DRG
 62
     7
 10
411.26586427917499
 20
1586.7711405497321
 30
0.0
 11
419.29086427917508
 21
1586.7711405497321
 31
0.0
  0
SOLID
  5
6304
  8
DIM
 62
     7
 10
206.2408642791749
 20
1792.72385377914
 30
0.0
 11
206.2408642791749
 21
1790.72385377914
 31
0.0
 12
200.2408642791749
 22
1791.72385377914
 32
0.0
 13
200.2408642791749
 23
1791.72385377914
 33
0.0
  0
SOLID
  5
6305
  8
DIM
 62
     7
 10
315.26586427917499
 20
1792.72385377914
 30
0.0
 11
315.26586427917499
 21
1790.72385377914
 31
0.0
 12
321.26586427917499
 22
1791.72385377914
 32
0.0
 13
321.26586427917499
 23
1791.72385377914
 33
0.0
  0
TEXT
  5
6306
  8
DIM
 62
     7
 10
255.87241189822279
 20
1794.22385377914
 30
0.0
 40
5.0
  1
121
 72
     1
 11
260.75336427917517
 21
1796.72385377914
 31
0.0
 73
     2
  0
LINE
  5
6307
  8
DIM
 62
     7
 10
321.26586427917499
 20
1691.989289410134
 30
0.0
 11
321.26586427917499
 21
1793.9490276779779
 31
0.0
  0
LINE
  5
6308
  8
DIM
 62
     7
 10
200.2408642791749
 20
1654.5855860109571
 30
0.0
 11
200.2408642791749
 21
1796.0353194258939
 31
0.0
  0
SOLID
  5
630A
  8
DIM
 62
     7
 10
327.26586427917499
 20
1792.72385377914
 30
0.0
 11
327.26586427917499
 21
1790.72385377914
 31
0.0
 12
321.26586427917499
 22
1791.72385377914
 32
0.0
 13
321.26586427917499
 23
1791.72385377914
 33
0.0
  0
LINE
  5
630C
  8
DIM
 62
     7
 10
313.2408642791749
 20
1691.989289410134
 30
0.0
 11
313.2408642791749
 21
1728.8266929311269
 31
0.0
  0
LINE
  5
630D
  8
DIM
 62
     7
 10
327.26586427917499
 20
1726.8266929311269
 30
0.0
 11
333.26586427917499
 21
1726.8266929311269
 31
0.0
  0
LINE
  5
630E
  8
DIM
 62
     7
 10
307.2408642791749
 20
1726.8266929311269
 30
0.0
 11
284.20753311157267
 21
1726.8266929311269
 31
0.0
  0
LINE
  5
630F
  8
DIM
 62
     7
 10
284.20753311157267
 20
1726.8266929311269
 30
0.0
 11
279.37419977823919
 21
1726.8266929311269
 31
0.0
  0
SOLID
  5
6310
  8
DIM
 62
     7
 10
327.26586427917499
 20
1727.8266929311269
 30
0.0
 11
327.26586427917499
 21
1725.8266929311269
 31
0.0
 12
321.26586427917499
 22
1726.8266929311269
 32
0.0
 13
321.26586427917499
 23
1726.8266929311269
 33
0.0
  0
SOLID
  5
6311
  8
DIM
 62
     7
 10
307.2408642791749
 20
1727.8266929311269
 30
0.0
 11
307.2408642791749
 21
1725.8266929311269
 31
0.0
 12
313.2408642791749
 22
1726.8266929311269
 32
0.0
 13
313.2408642791749
 23
1726.8266929311269
 33
0.0
  0
TEXT
  5
6312
  8
DIM
 62
     7
 10
290.37777124206241
 20
1729.3266929311269
 30
0.0
 40
5.0
  1
8
 72
     1
 11
292.04443790872909
 21
1731.8266929311269
 31
0.0
 73
     2
  0
LINE
  5
6313
  8
DRG
 62
     7
 10
245.2408642791749
 20
1654.9892894101331
 30
0.0
 11
205.2408642791749
 21
1654.9892894101331
 31
0.0
  0
LINE
  5
6314
  8
DRG
 62
     7
 10
245.2408642791749
 20
1651.9892894101331
 30
0.0
 11
245.2408642791749
 21
1654.9892894101331
 31
0.0
  0
LINE
  5
6315
  8
DRG
 62
     7
 10
205.2408642791749
 20
1651.9892894101331
 30
0.0
 11
205.2408642791749
 21
1654.9892894101331
 31
0.0
  0
LINE
  5
6316
  8
DIM
 62
     7
 10
205.24086427917521
 20
1659.9892894101331
 30
0.0
 11
205.24086427917521
 21
1728.8266929311269
 31
0.0
  0
SOLID
  5
6317
  8
DIM
 62
     7
 10
211.2408642791751
 20
1727.8266929311269
 30
0.0
 11
211.2408642791751
 21
1725.8266929311269
 31
0.0
 12
205.24086427917521
 22
1726.8266929311269
 32
0.0
 13
205.24086427917521
 23
1726.8266929311269
 33
0.0
  0
LINE
  5
6318
  8
DIM
 62
     7
 10
194.2408642791749
 20
1726.8266929311269
 30
0.0
 11
171.6036661298501
 21
1726.8266929311269
 31
0.0
  0
LINE
  5
6319
  8
DIM
 62
     7
 10
171.6036661298501
 20
1726.8266929311269
 30
0.0
 11
166.77033279651661
 21
1726.8266929311269
 31
0.0
  0
SOLID
  5
631A
  8
DIM
 62
     7
 10
194.2408642791749
 20
1727.8266929311269
 30
0.0
 11
194.2408642791749
 21
1725.8266929311269
 31
0.0
 12
200.2408642791749
 22
1726.8266929311269
 32
0.0
 13
200.2408642791749
 23
1726.8266929311269
 33
0.0
  0
TEXT
  5
631B
  8
DIM
 62
     7
 10
177.46567506738441
 20
1729.3266929311269
 30
0.0
 40
5.0
  1
5
 72
     1
 11
179.1323417340511
 21
1731.8266929311269
 31
0.0
 73
     2
  0
TEXT
  5
6331
  8
DIM
 10
1623.029657891663
 20
405.67983703773137
 30
0.0
 40
5.0
  1

  0
SOLID
  5
6335
  8
DIM
 62
     7
 10
218.44835032899519
 20
1660.432791337664
 30
0.0
 11
216.5361627398153
 21
1661.0189130176809
 31
0.0
 12
215.7338914943536
 22
1654.9892894101331
 32
0.0
 13
215.7338914943536
 23
1654.9892894101331
 33
0.0
  0
LINE
  5
6336
  8
DIM
 62
     7
 10
215.7338914943536
 20
1654.9892894101331
 30
0.0
 11
227.6024243321923
 21
1693.70968138339
 31
0.0
  0
LINE
  5
6337
  8
DIM
 62
     7
 10
214.94908233345791
 20
1726.8266929311269
 30
0.0
 11
211.2408642791751
 21
1726.8266929311269
 31
0.0
  0
LINE
  5
6338
  8
DIM
 62
     7
 10
196.7408642791749
 20
1651.9892894101331
 30
0.0
 11
167.116967759397
 21
1651.9892894101331
 31
0.0
  0
LINE
  5
6339
  8
DIM
 62
     7
 10
196.7408642791749
 20
1621.9892894101331
 30
0.0
 11
167.116967759397
 21
1621.9892894101331
 31
0.0
  0
LINE
  5
633A
  8
DIM
 62
     7
 10
169.116967759397
 20
1651.9892894101331
 30
0.0
 11
169.116967759397
 21
1549.600145567681
 31
0.0
  0
SOLID
  5
633B
  8
DIM
 62
     7
 10
168.116967759397
 20
1645.9892894101331
 30
0.0
 11
170.116967759397
 21
1645.9892894101331
 31
0.0
 12
169.116967759397
 22
1651.9892894101331
 32
0.0
 13
169.116967759397
 23
1651.9892894101331
 33
0.0
  0
SOLID
  5
633C
  8
DIM
 62
     7
 10
168.116967759397
 20
1627.9892894101331
 30
0.0
 11
170.116967759397
 21
1627.9892894101331
 31
0.0
 12
169.116967759397
 22
1621.9892894101331
 32
0.0
 13
169.116967759397
 23
1621.9892894101331
 33
0.0
  0
TEXT
  5
633D
  8
DIM
 62
     7
 10
165.11226153101299
 20
1557.985670805052
 30
0.0
 40
5.0
  1
%%c30.00 -0.05
 50
90.0
 72
     4
 11
162.61226153101299
 21
1583.938051757433
 31
0.0
  0
TEXT
  5
633E
  8
DIM
 62
     7
 10
176.79279083203619
 20
1550.2475755669559
 30
0.0
 40
5.0
  1
(%%c1.181" -0.002")
 50
90.0
 72
     4
 11
174.64993368917899
 21
1583.938051757433
 31
0.0
  0
LINE
  5
6345
  8
CRS
 62
     7
 10
417.51988369038031
 20
1599.8661833978399
 30
0.0
 11
431.30016497914238
 21
1599.8661833978399
 31
0.0
  0
LINE
  5
6346
  8
CRS
 62
     7
 10
315.01184486796973
 20
1674.1123954224281
 30
0.0
 11
301.23156357920789
 21
1674.1123954224281
 31
0.0
  0
LINE
  5
6347
  8
CRS
 62
     7
 10
315.01184486796973
 20
1599.8661833978399
 30
0.0
 11
301.23156357920789
 21
1599.8661833978399
 31
0.0
  0
LINE
  5
6348
  8
DRG2
 62
     7
 10
419.29086427917508
 20
1607.8661833978399
 30
0.0
 11
427.79086427917508
 21
1607.8661833978399
 31
0.0
  0
LINE
  5
6349
  8
DRG2
 62
     7
 10
427.79086427917508
 20
1607.8661833978399
 30
0.0
 11
427.79086427917508
 21
1591.8661833978399
 31
0.0
  0
LINE
  5
634A
  8
DRG2
 62
     7
 10
427.79086427917508
 20
1591.8661833978399
 30
0.0
 11
419.29086427917508
 21
1591.8661833978399
 31
0.0
  0
LINE
  5
634B
  8
CRS
 62
     7
 10
417.51988369038031
 20
1674.1123954224281
 30
0.0
 11
431.30016497914238
 21
1674.1123954224281
 31
0.0
  0
LINE
  5
634C
  8
DRG2
 62
     7
 10
427.79086427917508
 20
1591.8661833978399
 30
0.0
 11
429.29086427917508
 21
1593.3661833978399
 31
0.0
  0
LINE
  5
634D
  8
DRG2
 62
     7
 10
429.29086427917508
 20
1593.3661833978399
 30
0.0
 11
429.29086427917508
 21
1606.3661833978399
 31
0.0
  0
LINE
  5
634E
  8
DRG2
 62
     7
 10
429.29086427917508
 20
1606.3661833978399
 30
0.0
 11
427.79086427917508
 21
1607.8661833978399
 31
0.0
  0
LINE
  5
6397
  8
DRG
 62
     7
 10
316.26586427917499
 20
1402.089289410133
 30
0.0
 11
316.26586427917499
 21
1262.089289410133
 31
0.0
  0
LINE
  5
6399
  8
DRG
 62
     7
 10
340.26586427917499
 20
1256.089289410133
 30
0.0
 11
340.26586427917499
 21
1186.089289410133
 31
0.0
  0
LINE
  5
639A
  8
DRG
 62
     7
 10
350.26586427917499
 20
1176.089289410133
 30
0.0
 11
375.26586427917499
 21
1176.089289410133
 31
0.0
  0
ARC
  5
639B
  8
DRG
 62
     7
 10
350.26586427917499
 20
1186.089289410133
 30
0.0
 40
10.0
 50
179.99999999999989
 51
270.0
  0
ARC
  5
639D
  8
DRG
 62
     7
 10
386.88481431779633
 20
1173.089289410133
 30
0.0
 40
6.0
 50
194.47751218593129
 51
270.0
  0
LINE
  5
639E
  8
DRG
 62
     7
 10
386.88481431779633
 20
1167.089289410133
 30
0.0
 11
411.26586427917499
 21
1167.089289410133
 31
0.0
  0
ARC
  5
63A0
  8
DRG
 62
     7
 10
375.26586427917499
 20
1170.089289410133
 30
0.0
 40
6.0
 50
14.47751218593158
 51
90.0
  0
LINE
  5
63A4
  8
DRG
 62
     7
 10
411.26586427917499
 20
1686.989289410132
 30
0.0
 11
411.26586427917499
 21
1586.9892894101331
 31
0.0
  0
LINE
  5
63A5
  8
DRG
 62
     7
 10
321.26586427917499
 20
1682.4892894101331
 30
0.0
 11
321.26586427917499
 21
1591.4892894101331
 31
0.0
  0
LINE
  5
63A6
  8
DRG
 62
     7
 10
326.26586427917499
 20
1580.9892894101331
 30
0.0
 11
326.26586427917499
 21
1408.089289410133
 31
0.0
  0
LINE
  5
63A7
  8
DRG
 62
     7
 10
401.26586427917528
 20
1531.5192894101331
 30
0.0
 11
401.265864279173
 21
1167.089289410133
 31
0.0
  0
LINE
  5
63AA
  8
DRG
 62
     7
 10
411.26586427917499
 20
1497.089289410133
 30
0.0
 11
401.26586427917499
 21
1497.089289410133
 31
0.0
  0
LINE
  5
63AB
  8
DRG
 62
     7
 10
411.26586427917499
 20
1497.089289410133
 30
0.0
 11
411.26586427917499
 21
1167.089289410133
 31
0.0
  0
ARC
  5
63AC
  8
DRG
 62
     7
 10
320.26586427917499
 20
1580.9892894101331
 30
0.0
 40
6.0
 50
0.0
 51
80.405931773139471
  0
LINE
  5
63AD
  8
DRG
 62
     7
 10
321.26586427917499
 20
1591.4892894101331
 30
0.0
 11
321.26586427917499
 21
1586.905369193232
 31
0.0
  0
LINE
  5
63AE
  8
DRG
 62
     7
 10
401.26586427917499
 20
1580.9892894101331
 30
0.0
 11
401.26586427917499
 21
1515.0192894101331
 31
0.0
  0
ARC
  5
63AF
  8
DRG
 62
     7
 10
407.26586427917499
 20
1580.9892894101331
 30
0.0
 40
6.0
 50
90.0
 51
180.0
  0
LINE
  5
63B0
  8
DRG
 62
     7
 10
407.26586427917499
 20
1586.9892894101331
 30
0.0
 11
411.26586427917499
 21
1586.9892894101331
 31
0.0
  0
LINE
  5
63B1
  8
DRG
 62
     7
 10
350.26586427917499
 20
1712.9892894101331
 30
0.0
 11
382.26586427917499
 21
1712.9892894101331
 31
0.0
  0
LINE
  5
63B2
  8
DRG
 62
     7
 10
340.26586427917499
 20
1702.9892894101331
 30
0.0
 11
340.26586427917499
 21
1692.9892894101331
 31
0.0
  0
ARC
  5
63B3
  8
DRG
 62
     7
 10
334.26586427917499
 20
1692.9892894101331
 30
0.0
 40
6.0
 50
270.0
 51
0.0
  0
LINE
  5
63B4
  8
DRG
 62
     7
 10
321.26586427917499
 20
1686.9892894101331
 30
0.0
 11
334.26586427917499
 21
1686.9892894101331
 31
0.0
  0
LINE
  5
63B5
  8
DRG
 62
     7
 10
321.26586427917499
 20
1686.9892894101331
 30
0.0
 11
321.26586427917499
 21
1682.4892894101331
 31
0.0
  0
ARC
  5
63B6
  8
DRG
 62
     7
 10
350.26586427917499
 20
1702.9892894101331
 30
0.0
 40
10.0
 50
90.0
 51
180.0
  0
LINE
  5
63B7
  8
DRG
 62
     7
 10
392.26586427917499
 20
1702.9892894101331
 30
0.0
 11
392.26586427918733
 21
1167.089289410133
 31
0.0
  0
LINE
  5
63B8
  8
DRG
 62
     7
 10
398.26586427917522
 20
1686.9892894101331
 30
0.0
 11
419.29086427917508
 21
1686.989289410132
 31
0.0
  0
ARC
  5
63B9
  8
DRG
 62
     7
 10
398.26586427917522
 20
1692.9892894101331
 30
0.0
 40
6.0
 50
180.0
 51
270.0
  0
ARC
  5
63BA
  8
DRG
 62
     7
 10
382.26586427917499
 20
1702.9892894101331
 30
0.0
 40
10.0
 50
0.0
 51
90.0
  0
LINE
  5
63CA
  8
DRG
 62
     7
 10
320.26586427917499
 20
1402.089289410133
 30
0.0
 11
316.26586427917499
 21
1402.089289410133
 31
0.0
  0
LINE
  5
63CB
  8
DRG
 62
     7
 10
334.26586427917499
 20
1262.089289410133
 30
0.0
 11
316.26586427917499
 21
1262.089289410133
 31
0.0
  0
ARC
  5
63CC
  8
DRG
 62
     7
 10
320.26586427917499
 20
1408.089289410133
 30
0.0
 40
6.0
 50
270.0
 51
0.0
  0
ARC
  5
63CD
  8
DRG
 62
     7
 10
334.26586427917499
 20
1256.089289410133
 30
0.0
 40
6.0
 50
0.0
 51
89.999999999999815
  0
LINE
  5
63CE
  8
DRG
 62
     7
 10
340.26586427917499
 20
1692.9892894101331
 30
0.0
 11
340.26586427917499
 21
1256.089289410133
 31
0.0
  0
LINE
  5
63CF
  8
DRG
 62
     7
 10
381.26586427917499
 20
1712.9892894101331
 30
0.0
 11
381.26586427917499
 21
1170.9851505213051
 31
0.0
  0
LINE
  5
63D0
  8
DRG2
 62
     7
 10
419.29086427917508
 20
1682.1123954224281
 30
0.0
 11
427.79086427917508
 21
1682.1123954224281
 31
0.0
  0
LINE
  5
63D1
  8
DRG2
 62
     7
 10
427.79086427917508
 20
1682.1123954224281
 30
0.0
 11
427.79086427917508
 21
1666.1123954224281
 31
0.0
  0
LINE
  5
63D2
  8
DRG2
 62
     7
 10
427.79086427917508
 20
1666.1123954224281
 30
0.0
 11
419.29086427917508
 21
1666.1123954224281
 31
0.0
  0
LINE
  5
63D3
  8
DRG2
 62
     7
 10
427.79086427917508
 20
1666.1123954224281
 30
0.0
 11
429.29086427917508
 21
1667.6123954224281
 31
0.0
  0
LINE
  5
63D4
  8
DRG2
 62
     7
 10
429.29086427917508
 20
1667.6123954224281
 30
0.0
 11
429.29086427917508
 21
1680.6123954224281
 31
0.0
  0
LINE
  5
63D5
  8
DRG2
 62
     7
 10
429.29086427917508
 20
1680.6123954224281
 30
0.0
 11
427.79086427917508
 21
1682.1123954224281
 31
0.0
  0
LINE
  5
63D6
  8
DRG
 62
     7
 10
313.2408642791749
 20
1687.2074382705341
 30
0.0
 11
321.26586427917499
 21
1687.2074382705341
 31
0.0
  0
TEXT
  5
6425
  8
DIM
 10
2189.6681434832981
 20
628.52542593868702
 30
0.0
 40
5.0
  1
 
  0
LINE
  5
6447
  8
DRG2
 62
     7
 10
304.7408642791749
 20
1607.8661833978399
 30
0.0
 11
303.2408642791749
 21
1606.3661833978399
 31
0.0
  0
LINE
  5
6448
  8
DRG2
 62
     7
 10
303.2408642791749
 20
1606.3661833978399
 30
0.0
 11
303.2408642791749
 21
1593.3661833978399
 31
0.0
  0
LINE
  5
6449
  8
DRG2
 62
     7
 10
303.2408642791749
 20
1593.3661833978399
 30
0.0
 11
304.7408642791749
 21
1591.8661833978399
 31
0.0
  0
LINE
  5
644A
  8
DRG2
 62
     7
 10
313.2408642791749
 20
1591.8661833978399
 30
0.0
 11
304.7408642791749
 21
1591.8661833978399
 31
0.0
  0
LINE
  5
644B
  8
DRG2
 62
     7
 10
304.7408642791749
 20
1591.8661833978399
 30
0.0
 11
304.7408642791749
 21
1607.8661833978399
 31
0.0
  0
LINE
  5
644C
  8
DRG2
 62
     7
 10
304.7408642791749
 20
1607.8661833978399
 30
0.0
 11
313.2408642791749
 21
1607.8661833978399
 31
0.0
  0
LINE
  5
644D
  8
DRG2
 62
     7
 10
313.2408642791749
 20
1666.1123954224281
 30
0.0
 11
304.7408642791749
 21
1666.1123954224281
 31
0.0
  0
LINE
  5
644E
  8
DRG2
 62
     7
 10
304.7408642791749
 20
1666.1123954224281
 30
0.0
 11
304.7408642791749
 21
1682.1123954224281
 31
0.0
  0
LINE
  5
644F
  8
DRG2
 62
     7
 10
304.7408642791749
 20
1682.1123954224281
 30
0.0
 11
313.2408642791749
 21
1682.1123954224281
 31
0.0
  0
LINE
  5
6450
  8
DRG2
 62
     7
 10
304.7408642791749
 20
1682.1123954224281
 30
0.0
 11
303.2408642791749
 21
1680.6123954224281
 31
0.0
  0
LINE
  5
6451
  8
DRG2
 62
     7
 10
303.2408642791749
 20
1680.6123954224281
 30
0.0
 11
303.2408642791749
 21
1667.6123954224281
 31
0.0
  0
LINE
  5
6452
  8
DRG2
 62
     7
 10
303.2408642791749
 20
1667.6123954224281
 30
0.0
 11
304.7408642791749
 21
1666.1123954224281
 31
0.0
  0
LINE
  5
6496
  8
DIM
 62
     7
 10
419.29086427917508
 20
1581.989289410132
 30
0.0
 11
419.29086427917508
 21
1555.564213123306
 31
0.0
  0
LINE
  5
6497
  8
DIM
 62
     7
 10
413.29086427917508
 20
1557.564213123306
 30
0.0
 11
407.29086427917508
 21
1557.564213123306
 31
0.0
  0
SOLID
  5
6498
  8
DIM
 62
     7
 10
413.29086427917508
 20
1556.564213123306
 30
0.0
 11
413.29086427917508
 21
1558.564213123306
 31
0.0
 12
419.29086427917508
 22
1557.564213123306
 32
0.0
 13
419.29086427917508
 23
1557.564213123306
 33
0.0
  0
LINE
  5
6499
  8
DIM
 62
     7
 10
435.29086427917508
 20
1557.564213123306
 30
0.0
 11
469.40174645670891
 21
1557.564213123306
 31
0.0
  0
SOLID
  5
649A
  8
DIM
 62
     7
 10
435.29086427917508
 20
1556.564213123306
 30
0.0
 11
435.29086427917508
 21
1558.564213123306
 31
0.0
 12
429.29086427917508
 22
1557.564213123306
 32
0.0
 13
429.29086427917508
 23
1557.564213123306
 33
0.0
  0
LINE
  5
649B
  8
DIM
 62
     7
 10
429.29086427917508
 20
1555.564213123306
 30
0.0
 11
429.29086427917508
 21
1590.9922131569281
 31
0.0
  0
TEXT
  5
649D
  8
DIM
 62
     7
 10
453.01558166246377
 20
1560.064213123306
 30
0.0
 40
5.0
  1
10
 72
     4
 11
456.58701023389239
 21
1562.564213123306
 31
0.0
  0
LINE
  5
64A1
  8
DRG
 62
     7
 10
425.29086427917508
 20
1666.1123954224281
 30
0.0
 11
425.29086427917508
 21
1607.8661833978399
 31
0.0
  0
LINE
  5
64A2
  8
DRG
 62
     7
 10
307.2408642791749
 20
1666.1123954224281
 30
0.0
 11
307.2408642791749
 21
1607.8661833978399
 31
0.0
  0
LINE
  5
64A3
  8
CRS
 62
     7
 10
430.42528279087372
 20
1636.9892894101331
 30
0.0
 11
197.1514092916058
 21
1636.9892894101331
 31
0.0
  0
LINE
  5
64A6
  8
CRS
 62
     7
 10
327.04217832050972
 20
1515.0192894101331
 30
0.0
 11
320.75247438477089
 21
1515.0192894101331
 31
0.0
  0
LINE
  5
64A7
  8
DRG2
 62
     7
 10
326.24885988769893
 20
1517.6442894101331
 30
0.0
 11
322.44028987020658
 21
1517.6446507669621
 31
0.0
  0
LINE
  5
64A8
  8
DRG2
 62
     7
 10
322.43856662551042
 20
1509.7692894101331
 30
0.0
 11
326.24885988769893
 21
1509.7692894101331
 31
0.0
  0
LINE
  5
64A9
  8
DRG2
 62
     7
 10
326.24885988769893
 20
1520.2692894101331
 30
0.0
 11
322.43856662551042
 21
1520.2692894101331
 31
0.0
  0
LINE
  5
64AA
  8
DRG2
 62
     7
 10
322.04885988769882
 20
1518.9582894101329
 30
0.0
 11
322.04885988769882
 21
1511.080289410133
 31
0.0
  0
LINE
  5
64AB
  8
DRG2
 62
     7
 10
322.44017967526202
 20
1512.3942894101331
 30
0.0
 11
326.24885988769893
 21
1512.3942894101331
 31
0.0
  0
ARC
  5
64AC
  8
DRG2
 62
     7
 10
324.44885988769892
 20
1511.080289410133
 30
0.0
 40
2.3999999999999999
 50
146.80432899645251
 51
213.11012571114091
  0
LINE
  5
64AD
  8
DRG2
 62
     7
 10
322.04885988769882
 20
1511.080289410133
 30
0.0
 11
322.04885988769882
 21
1518.9582894101329
 31
0.0
  0
ARC
  5
64AE
  8
DRG2
 62
     7
 10
324.44885988769892
 20
1518.9582894101329
 30
0.0
 40
2.3999999999999999
 50
146.889874288859
 51
213.1956710035474
  0
ARC
  5
64AF
  8
DRG2
 62
     7
 10
331.04885988769882
 20
1515.0192894101331
 30
0.0
 40
9.0
 50
163.03983164449119
 51
196.9601683555087
  0
TEXT
  5
64B0
  8
BORT
 10
2551.143975944723
 20
208.39422895408961
 30
0.0
 40
5.0
  1

 72
     4
 11
2551.143975944723
 21
208.39422895408961
 31
0.0
  0
TEXT
  5
64B1
  8
BORT
 10
3332.0850362338292
 20
223.22542017564709
 30
0.0
 40
5.0
  1

 72
     4
 11
3332.0850362338292
 21
223.22542017564709
 31
0.0
  0
TEXT
  5
64B2
  8
BORT
 10
4149.6187690583129
 20
238.05661139720459
 30
0.0
 40
5.0
  1

 72
     4
 11
4149.6187690583129
 21
238.05661139720459
 31
0.0
  0
TEXT
  5
64B3
  8
BORT
 10
4937.2130439777147
 20
252.88780261876209
 30
0.0
 40
5.0
  1

 72
     4
 11
4937.2130439777147
 21
252.88780261876209
 31
0.0
  0
TEXT
  5
64B4
  8
BORT
 10
4956.26857040902
 20
252.8765998318944
 30
0.0
 40
5.0
  1

 72
     4
 11
4956.26857040902
 21
252.8765998318944
 31
0.0
  0
TEXT
  5
64C2
  8
DIM
 10
1623.029657891663
 20
379.96555132344571
 30
0.0
 40
5.0
  1

  0
TEXT
  5
64C8
  8
DIM
 62
     7
 10
443.96796261484479
 20
1550.4213559804491
 30
0.0
 40
5.0
  1
(0.39")
 72
     4
 11
456.58701023389239
 21
1552.564213123306
 31
0.0
  0
TEXT
  5
64CA
  8
DIM
 62
     7
 10
248.13431666012761
 20
1784.5809966362831
 30
0.0
 40
5.0
  1
(4.76")
 72
     4
 11
260.75336427917517
 21
1786.7238537791411
 31
0.0
  0
TEXT
  5
64CB
  8
DIM
 62
     7
 10
166.5132941150035
 20
1719.6838357882691
 30
0.0
 40
5.0
  1
(0.20")
 72
     4
 11
179.1323417340511
 21
1721.826692931126
 31
0.0
  0
TEXT
  5
64CC
  8
DIM
 62
     7
 10
279.4253902896815
 20
1719.6838357882691
 30
0.0
 40
5.0
  1
(0.32")
 72
     4
 11
292.04443790872909
 21
1721.826692931126
 31
0.0
  0
TEXT
  5
64CE
  8
DIM
 62
     7
 10
256.61616980632789
 20
1699.7811099548189
 30
0.0
 40
5.0
  1
8x7x40
 72
     4
 11
269.47331266347072
 21
1702.2811099548189
 31
0.0
  0
TEXT
  5
64CF
  8
DIM
 62
     7
 10
233.52093171108979
 20
1691.5668242405329
 30
0.0
 40
5.0
  1
(0.31"x0.28"x1.57")
 72
     4
 11
269.47331266347072
 21
1693.70968138339
 31
0.0
  0
TEXT
  5
64D0
  8
DIM
 62
     7
 10
262.80664599680409
 20
1682.638252811962
 30
0.0
 40
5.0
  1
KEY
 72
     4
 11
269.47331266347072
 21
1685.138252811962
 31
0.0
  0
LINE
  5
64D1
  8
DIM
 62
     7
 10
231.44542574829779
 20
1693.70968138339
 30
0.0
 11
227.6024243321923
 21
1693.70968138339
 31
0.0
  0
LINE
  5
64E6
  8
DIM
 62
     7
 10
463.93352617126601
 20
1069.5115017206749
 30
0.0
 11
463.93352617126612
 21
1218.7892894101331
 31
0.0
  0
LINE
  5
6530
  8
DRG2
 62
     7
 10
607.59636177133495
 20
551.07679474030374
 30
0.0
 11
780.05735624677459
 21
551.07679474030374
 31
0.0
  0
LINE
  5
6531
  8
DRG2
 62
     7
 10
607.59636177133495
 20
567.46999739696321
 30
0.0
 11
780.05735624677459
 21
567.46999739696321
 31
0.0
  0
TEXT
  5
6532
  8
TXT
 62
     7
 10
615.46665077698708
 20
555.84240262457638
 30
0.0
 40
6.9899035926719977
  1
MAX ACME THREAD = 5.7/8"
  0
LINE
  5
6533
  8
DRG2
 62
     7
 10
605.63731011737173
 20
593.29518811002413
 30
0.0
 11
605.63731011737173
 21
660.75562490429502
 31
0.0
  0
LINE
  5
6534
  8
DRG2
 62
     7
 10
563.79342653847777
 20
593.29518811002413
 30
0.0
 11
563.79342653847777
 21
660.75562490429502
 31
0.0
  0
LINE
  5
6535
  8
DRG2
 62
     7
 10
495.7650186274991
 20
593.29518811002413
 30
0.0
 11
495.7650186274991
 21
677.17184967457217
 31
0.0
  0
LINE
  5
6536
  8
DRG2
 62
     7
 10
689.77838733304827
 20
593.29518811002413
 30
0.0
 11
689.77838733304827
 21
677.17184967457217
 31
0.0
  0
TEXT
  5
6537
  8
TXT
 62
     7
 10
503.64636042689062
 20
598.86392546287107
 30
0.0
 40
6.9997199999999991
  1
ANSI B17.1
  0
LINE
  5
6538
  8
DRG2
 62
     7
 10
495.7650186274991
 20
644.42294490429504
 30
0.0
 11
689.77838733304816
 21
644.42294490429504
 31
0.0
  0
LINE
  5
6539
  8
DRG2
 62
     7
 10
495.7650186274991
 20
628.09026490429505
 30
0.0
 11
689.77838733304816
 21
628.09026490429505
 31
0.0
  0
LINE
  5
653A
  8
DRG2
 62
     7
 10
495.7650186274991
 20
611.25043619294365
 30
0.0
 11
689.77838733304816
 21
611.25043619294365
 31
0.0
  0
LINE
  5
653B
  8
DRG2
 62
     7
 10
495.7650186274991
 20
593.29518811002413
 30
0.0
 11
689.77838733304816
 21
593.29518811002413
 31
0.0
  0
TEXT
  5
653C
  8
TXT
 62
     7
 10
503.64636042689062
 20
615.52992546287066
 30
0.0
 40
6.9997199999999991
  1
BS46
  0
TEXT
  5
653D
  8
TXT
 62
     7
 10
503.64636042689062
 20
632.19592546287095
 30
0.0
 40
6.9997199999999991
  1
BS4235
  0
TEXT
  5
653E
  8
TXT
 62
     7
 10
611.43768218358684
 20
632.19592546287095
 30
0.0
 40
6.9997199999999991
  1
32 x 18
  0
TEXT
  5
653F
  8
TXT
 62
     7
 10
611.43768218358684
 20
615.52992546287066
 30
0.0
 40
6.9997199999999991
  1
1.1/4" x 7/8"
  0
TEXT
  5
6540
  8
TXT
 62
     7
 10
611.43768218358684
 20
597.57467737995148
 30
0.0
 40
6.9997199999999991
  1
1.1/4" x 7/8"
  0
TEXT
  5
6541
  8
TXT
 62
     7
 10
567.81046042689059
 20
632.19592546287095
 30
0.0
 40
6.9997199999999991
  1
130.0
  0
TEXT
  5
6542
  8
TXT
 62
     7
 10
567.81046042689059
 20
615.52992546287066
 30
0.0
 40
6.9997199999999991
  1
5.000"
  0
TEXT
  5
6543
  8
TXT
 62
     7
 10
567.81046042689059
 20
598.86392546287107
 30
0.0
 40
6.9997199999999991
  1
5.000"
  0
LINE
  5
6544
  8
DRG2
 62
     7
 10
607.59636177133495
 20
551.07679474030374
 30
0.0
 11
607.59636177133495
 21
567.46999739696321
 31
0.0
  0
TEXT
  5
6545
  8
TXT
 62
     7
 10
503.64636042689062
 20
665.52792546287083
 30
0.0
 40
6.9997199999999991
  1
MAX BORE RECTANGULAR KEY
  0
LINE
  5
6546
  8
DRG2
 62
     7
 10
495.7650186274991
 20
677.17184967457217
 30
0.0
 11
689.77838733304827
 21
677.17184967457217
 31
0.0
  0
LINE
  5
6547
  8
DRG2
 62
     7
 10
495.7650186274991
 20
660.75562490429502
 30
0.0
 11
689.77838733304816
 21
660.75562490429502
 31
0.0
  0
TEXT
  5
6548
  8
TXT
 62
     7
 10
503.64636042689062
 20
648.86192546287089
 30
0.0
 40
6.9997199999999991
  1
STD
  0
TEXT
  5
6549
  8
TXT
 62
     7
 10
611.43768218358684
 20
648.86192546287089
 30
0.0
 40
6.9997199999999991
  1
KEY
  0
TEXT
  5
654A
  8
TXT
 62
     7
 10
567.81046042689059
 20
648.86192546287089
 30
0.0
 40
6.9997199999999991
  1
BORE
  0
LINE
  5
654B
  8
DRG2
 62
     7
 10
815.62891011737167
 20
593.29518811002413
 30
0.0
 11
815.62891011737167
 21
660.75562490429502
 31
0.0
  0
LINE
  5
654C
  8
DRG2
 62
     7
 10
773.78502653847784
 20
593.29518811002413
 30
0.0
 11
773.78502653847784
 21
660.75562490429502
 31
0.0
  0
LINE
  5
654D
  8
DRG2
 62
     7
 10
892.89891425380915
 20
593.29518811002413
 30
0.0
 11
892.89891425380915
 21
677.17184967457217
 31
0.0
  0
LINE
  5
654E
  8
DRG2
 62
     7
 10
705.75661862749905
 20
593.29518811002413
 30
0.0
 11
705.75661862749905
 21
677.17184967457217
 31
0.0
  0
TEXT
  5
654F
  8
TXT
 62
     7
 10
821.42928218358691
 20
598.69009675151926
 30
0.0
 40
6.9997199999999991
  1
1.1/4"SQ
  0
TEXT
  5
6550
  8
TXT
 62
     7
 10
821.42928218358691
 20
615.52992546287066
 30
0.0
 40
6.9997199999999991
  1
1.1/4"SQ
  0
LINE
  5
6551
  8
DRG2
 62
     7
 10
705.75661862749905
 20
593.29518811002413
 30
0.0
 11
892.89891425380915
 21
593.29518811002413
 31
0.0
  0
LINE
  5
6552
  8
DRG2
 62
     7
 10
705.75661862749905
 20
611.25043619294365
 30
0.0
 11
892.89891425380915
 21
611.25043619294365
 31
0.0
  0
LINE
  5
6553
  8
DRG2
 62
     7
 10
705.75661862749905
 20
628.09026490429505
 30
0.0
 11
892.89891425380915
 21
628.09026490429505
 31
0.0
  0
LINE
  5
6554
  8
DRG2
 62
     7
 10
705.75661862749905
 20
644.42294490429504
 30
0.0
 11
892.89891425380915
 21
644.42294490429504
 31
0.0
  0
TEXT
  5
6555
  8
TXT
 62
     7
 10
713.63796042689057
 20
598.86392546287107
 30
0.0
 40
6.9997199999999991
  1
ANSI B17.1
  0
TEXT
  5
6556
  8
TXT
 62
     7
 10
713.63796042689057
 20
615.52992546287066
 30
0.0
 40
6.9997199999999991
  1
BS46
  0
TEXT
  5
6557
  8
TXT
 62
     7
 10
713.63796042689057
 20
632.19592546287095
 30
0.0
 40
6.9997199999999991
  1
BS4235
  0
TEXT
  5
6558
  8
TXT
 62
     7
 10
777.80206042689065
 20
615.52992546287066
 30
0.0
 40
6.9997199999999991
  1
4.625"
  0
TEXT
  5
6559
  8
TXT
 62
     7
 10
777.80206042689065
 20
598.69009675151926
 30
0.0
 40
6.9997199999999991
  1
4.625"
  0
LINE
  5
655A
  8
DRG2
 62
     7
 10
780.05735624677459
 20
551.07679474030374
 30
0.0
 11
780.05735624677459
 21
567.46999739696321
 31
0.0
  0
TEXT
  5
655B
  8
TXT
 62
     7
 10
777.80206042689065
 20
632.19592546287095
 30
0.0
 40
6.9997199999999991
  1
-
  0
TEXT
  5
655C
  8
TXT
 62
     7
 10
821.42928218358691
 20
632.19592546287095
 30
0.0
 40
6.9997199999999991
  1
-
  0
TEXT
  5
655D
  8
TXT
 62
     7
 10
713.63796042689057
 20
665.52792546287083
 30
0.0
 40
6.9997199999999991
  1
MAX BORE SQUARE KEY
  0
LINE
  5
655E
  8
DRG2
 62
     7
 10
705.75661862749905
 20
677.17184967457217
 30
0.0
 11
892.89891425380915
 21
677.17184967457217
 31
0.0
  0
LINE
  5
655F
  8
DRG2
 62
     7
 10
705.75661862749905
 20
660.75562490429502
 30
0.0
 11
892.89891425380915
 21
660.75562490429502
 31
0.0
  0
TEXT
  5
6560
  8
TXT
 62
     7
 10
713.63796042689057
 20
648.86192546287089
 30
0.0
 40
6.9997199999999991
  1
STD
  0
TEXT
  5
6561
  8
TXT
 62
     7
 10
777.80206042689065
 20
648.86192546287089
 30
0.0
 40
6.9997199999999991
  1
BORE
  0
TEXT
  5
6562
  8
TXT
 62
     7
 10
821.42928218358691
 20
648.86192546287089
 30
0.0
 40
6.9997199999999991
  1
KEY
  0
TEXT
  5
6588
  8
TXT
 62
     7
 10
570.18236592122446
 20
736.13428438126937
 30
0.0
 40
7.0
  1
(%%c11.809" -0.002") 
 72
     4
 11
625.68236592122446
 21
739.13428438126948
 31
0.0
  0
TEXT
  5
6589
  8
TXT
 62
     7
 10
586.01569925455794
 20
750.3342843812693
 30
0.0
 40
7.0
  1
%%c299.95 -0.05
 72
     4
 11
625.68236592122446
 21
753.83428438126919
 31
0.0
  0
TEXT
  5
658A
  8
TXT
 62
     7
 10
572.1823659212248
 20
699.03428438126957
 30
0.0
 40
7.0
  1
(%%c9.000" -0.006") 
 72
     4
 11
625.6823659212248
 21
702.03428438126946
 31
0.0
  0
TEXT
  5
658B
  8
TXT
 62
     7
 10
586.6823659212248
 20
713.23428438126928
 30
0.0
 40
7.0
  1
%%c228.60 -0.15
 72
     4
 11
625.6823659212248
 21
716.73428438126939
 31
0.0
  0
LINE
  5
658C
  8
DRG2
 62
     7
 10
485.6823659212244
 20
690.83428438126919
 30
0.0
 11
905.6823659212248
 21
690.83428438126919
 31
0.0
  0
LINE
  5
658D
  8
DRG2
 62
     7
 10
485.68236592122429
 20
809.8342843812693
 30
0.0
 11
905.6823659212248
 21
809.8342843812693
 31
0.0
  0
LINE
  5
658E
  8
DRG2
 62
     7
 10
485.68236592122429
 20
787.43428438126921
 30
0.0
 11
905.6823659212248
 21
787.43428438126921
 31
0.0
  0
LINE
  5
658F
  8
DRG2
 62
     7
 10
485.68236592122429
 20
765.03428438126912
 30
0.0
 11
905.6823659212248
 21
765.03428438126912
 31
0.0
  0
TEXT
  5
6590
  8
TXT
 62
     7
 10
642.84903258789143
 20
795.13428438126903
 30
0.0
 40
7.0
  1
BASEPLATE DETAILS
 72
     4
 11
695.6823659212248
 21
798.63428438126903
 31
0.0
  0
TEXT
  5
6591
  8
TXT
 62
     7
 10
595.34903258789143
 20
772.73428438126905
 30
0.0
 40
7.0
  1
SPIGOT DIA.
 72
     4
 11
625.6823659212248
 21
776.23428438126916
 31
0.0
  0
LINE
  5
6592
  8
DRG2
 62
     7
 10
485.68236592122412
 20
727.93428438126921
 30
0.0
 11
905.68236592122446
 21
727.93428438126921
 31
0.0
  0
LINE
  5
6593
  8
DRG2
 62
     7
 10
485.68236592122491
 20
690.83428438126919
 30
0.0
 11
485.68236592122429
 21
809.8342843812693
 31
0.0
  0
LINE
  5
6594
  8
DRG2
 62
     7
 10
555.68236592122514
 20
690.83428438126919
 30
0.0
 11
555.68236592122435
 21
787.43428438126921
 31
0.0
  0
TEXT
  5
6595
  8
TXT
 62
     7
 10
512.01569925455794
 20
742.98428438126939
 30
0.0
 40
7.0
  1
F40
 72
     4
 11
520.68236592122446
 21
746.48428438126939
 31
0.0
  0
TEXT
  5
6596
  8
TXT
 62
     7
 10
508.34903258789149
 20
705.88428438126937
 30
0.0
 40
7.0
  1
FA40
 72
     4
 11
520.6823659212248
 21
709.38428438126937
 31
0.0
  0
TEXT
  5
6597
  8
TXT
 62
     7
 10
732.01569925455783
 20
736.13428438126937
 30
0.0
 40
7.0
  1
ON %%c406.0 (%%c15.98") P.C.
 72
     4
 11
800.68236592122457
 21
739.13428438126948
 31
0.0
  0
TEXT
  5
6598
  8
TXT
 62
     7
 10
717.51569925455783
 20
750.8342843812693
 30
0.0
 40
7.0
  1
8 HOLES M36x45 (1.77") DEEP
 72
     4
 11
800.68236592122457
 21
753.83428438126919
 31
0.0
  0
TEXT
  5
6599
  8
TXT
 62
     7
 10
732.01569925455794
 20
699.03428438126957
 30
0.0
 40
7.0
  1
ON %%c406.4 (%%c16.00") P.C.
 72
     4
 11
800.6823659212248
 21
702.03428438126946
 31
0.0
  0
TEXT
  5
659A
  8
TXT
 62
     7
 10
703.84903258789143
 20
713.73428438126928
 30
0.0
 40
7.0
  1
8 HOLES 1.25"UNCx45 (1.77") DEEP
 72
     4
 11
800.6823659212248
 21
716.73428438126939
 31
0.0
  0
TEXT
  5
659B
  8
TXT
 62
     7
 10
704.34903258789143
 20
773.23428438126905
 30
0.0
 40
7.0
  1
HOLE DETAILS (22.5%%d OFF CENTRES)
 72
     4
 11
800.6823659212248
 21
776.23428438126916
 31
0.0
  0
LINE
  5
659C
  8
DRG2
 62
     7
 10
695.6823659212248
 20
690.83428438126919
 30
0.0
 11
695.6823659212248
 21
787.43428438126921
 31
0.0
  0
LINE
  5
659D
  8
DRG2
 62
     7
 10
905.68236592122469
 20
690.83428438126919
 30
0.0
 11
905.6823659212248
 21
809.8342843812693
 31
0.0
  0
POLYLINE
  5
678E
  8
BORDER
 66
     1
 10
0.0
 20
0.0
 30
0.0
 70
     1
  0
VERTEX
  5
6947
  8
BORDER
 10
66.5
 20
14.0
 30
0.0
  0
VERTEX
  5
6948
  8
BORDER
 10
1354.5
 20
14.0
 30
0.0
  0
VERTEX
  5
6949
  8
BORDER
 10
1354.5
 20
1939.0
 30
0.0
  0
VERTEX
  5
694A
  8
BORDER
 10
66.5
 20
1939.0
 30
0.0
  0
SEQEND
  5
694B
  8
BORDER
  0
INSERT
  5
6790
  8
CRS
  2
*U7
 10
0.0
 20
0.0
 30
0.0
  0
LINE
  5
6791
  8
BORDER
 10
66.5
 20
182.0
 30
0.0
 11
1354.5
 21
182.0
 31
0.0
  0
LINE
  5
6792
  8
0
 10
0.0
 20
0.0
 30
0.0
 11
21.0
 21
0.0
 31
0.0
  0
LINE
  5
6793
  8
0
 10
0.0
 20
0.0
 30
0.0
 11
0.0
 21
21.0
 31
0.0
  0
LINE
  5
6794
  8
BORDER
 10
388.5
 20
14.0
 30
0.0
 11
388.5
 21
182.0
 31
0.0
  0
LINE
  5
6795
  8
BORDER
 10
940.7327470235806
 20
14.0
 30
0.0
 11
940.7327470235806
 21
182.0
 31
0.0
  0
TEXT
  5
6797
  8
CRS
 10
600.46991989819617
 20
33.204896200533028
 30
0.0
 40
17.5
  1
DATE
  0
TEXT
  5
6798
  8
CRS
 10
805.84785616409897
 20
33.204896200533028
 30
0.0
 40
17.5
  1
20/01/03
  0
LINE
  5
6799
  8
BORDER
 10
590.7327470235806
 20
14.0
 30
0.0
 11
590.73274702358026
 21
182.0
 31
0.0
  0
TEXT
  5
679A
  8
CRS
 10
600.07599083953323
 20
89.574987655913503
 30
0.0
 40
17.5
  1
ISSUE
  0
TEXT
  5
679B
  8
CRS
 10
847.34768563203863
 20
89.574987655913503
 30
0.0
 40
17.5
  1
1
  0
TEXT
  5
679C
  8
CRS
 10
600.46991989819617
 20
144.68655281188711
 30
0.0
 40
17.5
  1
DRAWING No
  0
TEXT
  5
679D
  8
CRS
 10
804.40344961566757
 20
144.68655281188711
 30
0.0
 40
17.5
  1
IB14AS6
  0
LINE
  5
679E
  8
BORDER
 10
590.73274702358083
 20
70.0
 30
0.0
 11
940.7327470235806
 21
70.0
 31
0.0
  0
LINE
  5
679F
  8
BORDER
 10
590.73274702358083
 20
126.0
 30
0.0
 11
940.7327470235806
 21
126.0
 31
0.0
  0
LINE
  5
67A0
  8
BORDER
 10
765.7327470235806
 20
14.00000000000019
 30
0.0
 11
765.73274702358026
 21
182.0000000000002
 31
0.0
  0
TEXT
  5
67A1
  8
BORDER_TEXT
 10
220.6180202071389
 20
188.94841585955569
 30
0.0
 40
10.5
  1
DETAILS SUBJECT TO CHANGE WITHOUT PRIOR NOTICE
  0
TEXT
  5
67A2
  8
BORDER_TEXT
 10
765.5063489628908
 20
188.94841585955569
 30
0.0
 40
10.5
  1
FOR UP TO DATE DETAILS VISIT www.rotork.com
  0
TEXT
  5
67A3
  8
DRG
 62
     7
 10
1001.34927969696
 20
5081.2882068511908
 30
0.0
 40
105.0
  1

  0
LINE
  5
67A4
  8
BORDER
 10
66.499999999999801
 20
350.0
 30
0.0
 11
1354.5
 21
350.0
 31
0.0
  0
INSERT
  5
67B7
  8
CRS
  2
*U8
 10
0.0
 20
0.0
 30
0.0
  0
INSERT
  5
67B8
  8
0
  2
ROTORK_GEARS_LOGO
 10
100.6578353131662
 20
26.926614998745212
 30
0.0
 41
1.160156250000014
 42
1.16015625
 43
1.1601562499999989
  0
TEXT
  5
681A
  8
BORT
 10
1621.94095322664
 20
1394.6848535692579
 30
0.0
 40
5.0
  1

 72
     4
 11
1621.94095322664
 21
1394.6848535692579
 31
0.0
  0
TEXT
  5
681B
  8
DIM
 10
2078.6013652316578
 20
1843.5961538469001
 30
0.0
 40
5.0
  1
 
  0
INSERT
  5
681C
  8
BORT
  2
AS6
 10
511.2658642791759
 20
1332.089289410133
 30
0.0
  0
ENDSEC
  0
EOF
