  0
SECTION
  2
HEADER
  9
$ACADVER
  1
AC1009
  9
$INSBASE
 10
0.0
 20
0.0
 30
0.0
  9
$EXTMIN
 10
-2.3598740144532249
 20
33.099041282801117
 30
0.0
  9
$EXTMAX
 10
1216.402544358119
 20
1556.7323892938509
 30
2.52
  9
$LIMMIN
 10
0.0
 20
0.0
  9
$LIMMAX
 10
2000.0
 20
1500.0
  9
$ORTHOMODE
 70
     0
  9
$REGENMODE
 70
     1
  9
$FILLMODE
 70
     1
  9
$QTEXTMODE
 70
     0
  9
$MIRRTEXT
 70
     0
  9
$DRAGMODE
 70
     2
  9
$LTSCALE
 40
2.0
  9
$OSMODE
 70
    47
  9
$ATTMODE
 70
     1
  9
$TEXTSIZE
 40
7.0
  9
$TRACEWID
 40
10.0
  9
$TEXTSTYLE
  7
STANDARD
  9
$CLAYER
  8
DRG2
  9
$CELTYPE
  6
BYLAYER
  9
$CECOLOR
 62
   256
  9
$DIMSCALE
 40
1.0
  9
$DIMASZ
 40
8.0
  9
$DIMEXO
 40
2.0
  9
$DIMDLI
 40
10.0
  9
$DIMRND
 40
0.0
  9
$DIMDLE
 40
1.25
  9
$DIMEXE
 40
2.0
  9
$DIMTP
 40
0.0
  9
$DIMTM
 40
0.0
  9
$DIMTXT
 40
7.0
  9
$DIMCEN
 40
-3.0
  9
$DIMTSZ
 40
0.0
  9
$DIMTOL
 70
     0
  9
$DIMLIM
 70
     0
  9
$DIMTIH
 70
     0
  9
$DIMTOH
 70
     0
  9
$DIMSE1
 70
     0
  9
$DIMSE2
 70
     0
  9
$DIMTAD
 70
     0
  9
$DIMZIN
 70
     0
  9
$DIMBLK
  1

  9
$DIMASO
 70
     0
  9
$DIMSHO
 70
     0
  9
$DIMPOST
  1

  9
$DIMAPOST
  1

  9
$DIMALT
 70
     0
  9
$DIMALTD
 70
     2
  9
$DIMALTF
 40
0.039
  9
$DIMLFAC
 40
1.0
  9
$DIMTOFL
 70
     0
  9
$DIMTVP
 40
1.1428571428571419
  9
$DIMTIX
 70
     0
  9
$DIMSOXD
 70
     0
  9
$DIMSAH
 70
     0
  9
$DIMBLK1
  1

  9
$DIMBLK2
  1

  9
$DIMSTYLE
  2
STD
  9
$DIMCLRD
 70
   256
  9
$DIMCLRE
 70
   256
  9
$DIMCLRT
 70
   256
  9
$DIMTFAC
 40
1.0
  9
$DIMGAP
 40
1.5
  9
$LUNITS
 70
     2
  9
$LUPREC
 70
     2
  9
$SKETCHINC
 40
1.0
  9
$FILLETRAD
 40
0.0
  9
$AUNITS
 70
     0
  9
$AUPREC
 70
     2
  9
$MENU
  1
ACAD
  9
$ELEVATION
 40
0.0
  9
$PELEVATION
 40
0.0
  9
$THICKNESS
 40
0.0
  9
$LIMCHECK
 70
     0
  9
$BLIPMODE
 70
     0
  9
$CHAMFERA
 40
0.0
  9
$CHAMFERB
 40
0.0
  9
$SKPOLY
 70
     1
  9
$TDCREATE
 40
2449744.3932569441
  9
$TDUPDATE
 40
2452817.468983287
  9
$TDINDWG
 40
0.3163685301
  9
$TDUSRTIMER
 40
0.3163685301
  9
$USRTIMER
 70
     1
  9
$ANGBASE
 50
0.0
  9
$ANGDIR
 70
     0
  9
$PDMODE
 70
     3
  9
$PDSIZE
 40
0.0
  9
$PLINEWID
 40
0.0
  9
$COORDS
 70
     1
  9
$SPLFRAME
 70
     0
  9
$SPLINETYPE
 70
     6
  9
$SPLINESEGS
 70
     6
  9
$ATTDIA
 70
     0
  9
$ATTREQ
 70
     1
  9
$HANDLING
 70
  4097
  9
$HANDSEED
  5
7D8
  9
$SURFTAB1
 70
    18
  9
$SURFTAB2
 70
    18
  9
$SURFTYPE
 70
     6
  9
$SURFU
 70
    18
  9
$SURFV
 70
    18
  9
$UCSNAME
  2

  9
$UCSORG
 10
0.0
 20
0.0
 30
0.0
  9
$UCSXDIR
 10
1.0
 20
0.0
 30
0.0
  9
$UCSYDIR
 10
0.0
 20
1.0
 30
0.0
  9
$PUCSNAME
  2

  9
$PUCSORG
 10
0.0
 20
0.0
 30
0.0
  9
$PUCSXDIR
 10
1.0
 20
0.0
 30
0.0
  9
$PUCSYDIR
 10
0.0
 20
1.0
 30
0.0
  9
$USERI1
 70
     0
  9
$USERI2
 70
     0
  9
$USERI3
 70
     0
  9
$USERI4
 70
     0
  9
$USERI5
 70
     0
  9
$USERR1
 40
0.0
  9
$USERR2
 40
0.0
  9
$USERR3
 40
0.0
  9
$USERR4
 40
0.0
  9
$USERR5
 40
0.0
  9
$WORLDVIEW
 70
     0
  9
$SHADEDGE
 70
     3
  9
$SHADEDIF
 70
    70
  9
$TILEMODE
 70
     1
  9
$MAXACTVP
 70
    16
  9
$PLIMCHECK
 70
     0
  9
$PEXTMIN
 10
1.0000000000000000E+020
 20
1.0000000000000000E+020
 30
1.0000000000000000E+020
  9
$PEXTMAX
 10
-1.0000000000000000E+020
 20
-1.0000000000000000E+020
 30
-1.0000000000000000E+020
  9
$PLIMMIN
 10
0.0
 20
0.0
  9
$PLIMMAX
 10
420.0
 20
297.0
  9
$UNITMODE
 70
     0
  9
$VISRETAIN
 70
     0
  9
$PLINEGEN
 70
     0
  9
$PSLTSCALE
 70
     0
  0
ENDSEC
  0
SECTION
  2
TABLES
  0
TABLE
  2
VPORT
 70
     2
  0
VPORT
  2
*ACTIVE
 70
     0
 10
0.0
 20
0.0
 11
1.0
 21
1.0
 12
-565.31387776837789
 22
-217.1755620735282
 13
0.0
 23
0.0
 14
5.0
 24
5.0
 15
10.0
 25
10.0
 16
0.0
 26
0.0
 36
1.0
 17
1449.151032483011
 27
1012.134332871779
 37
0.0
 40
1535.369932443733
 41
1.7512195121951211
 42
50.0
 43
0.0
 44
0.0
 50
0.0
 51
0.0
 71
     0
 72
  2000
 73
     1
 74
     2
 75
     0
 76
     0
 77
     0
 78
     1
  0
ENDTAB
  0
TABLE
  2
LTYPE
 70
    13
  0
LTYPE
  2
CONTINUOUS
 70
     0
  3
Solid line
 72
    65
 73
     0
 40
0.0
  0
LTYPE
  2
CENTER
 70
     0
  3
____ _ ____ _ ____ _ ____ _ ____ _ ____ _ ____ 
 72
    65
 73
     4
 40
50.0
 49
31.25
 49
-6.25
 49
6.25
 49
-6.25
  0
LTYPE
  2
HIDDEN
 70
     0
  3
_ _ _ _ _ _ _ _ _ _ _ _ _ _ _ _ _ _ _ _ _ _ _ _
 72
    65
 73
     2
 40
9.375
 49
6.25
 49
-3.125
  0
LTYPE
  2
PHANTOM2
 70
     0
  3
Phantom (.5x) ___ _ _ ___ _ _ ___ _ _ ___ _ _
 72
    65
 73
     6
 40
1.25
 49
0.625
 49
-0.125
 49
0.125
 49
-0.125
 49
0.125
 49
-0.125
  0
LTYPE
  2
ASULTYPE
 70
     0
  3
Solid line
 72
    65
 73
     2
 40
3.0
 49
2.5
 49
0.5
  0
LTYPE
  2
ASVLTYPE
 70
     0
  3
__ __ __ __ __ __ __ __ __ __ __ __ __ __ __ __ __ __ __ __ __
 72
    65
 73
     2
 40
0.75
 49
0.5
 49
-0.25
  0
LTYPE
  2
AM_ISO02W050
 70
     0
  3
__ __ __ __ __ __ __ __ __ __ __ __ __ __ __
 72
    65
 73
     2
 40
7.5
 49
6.0
 49
-1.5
  0
LTYPE
  2
AM_ISO08W050
 70
     0
  3
____ . ____ . ____ . ____ . ____ . ____ . ____
 72
    65
 73
     4
 40
18.0
 49
12.0
 49
-1.5
 49
3.0
 49
-1.5
  0
LTYPE
  2
AM_ISO09W050
 70
     0
  3
_____ . . _____ . . _____ . . ____ .. ____
 72
    65
 73
     6
 40
22.5
 49
12.0
 49
-1.5
 49
3.0
 49
-1.5
 49
3.0
 49
-1.5
  0
LTYPE
  2
AMCONSTR
 70
     0
  3
_______________________
 72
    65
 73
     2
 40
9999.0
 49
9999.0
 49
0.0
  0
LTYPE
  2
AM_ISO08W050X2
 70
     0
  3
__ . __ . __ . __ . __ . __
 72
    65
 73
     4
 40
9.0
 49
6.0
 49
-0.75
 49
1.5
 49
-0.75
  0
LTYPE
  2
AM_ISO02W050X2
 70
     0
  3
 _ _ _ _ _ _ _ _ _ _ _ _
 72
    65
 73
     2
 40
3.75
 49
3.0
 49
-0.75
  0
LTYPE
  2
AMZIGZAG
 70
     0
  3
/\/-/\/-/\/-/\/-/\/-/\/
 72
    65
 73
     2
 40
11.000099999999991
 49
0.0001
 49
-11.0
  0
ENDTAB
  0
TABLE
  2
LAYER
 70
    10
  0
LAYER
  2
0
 70
     0
 62
     7
  6
CONTINUOUS
  0
LAYER
  2
DRG
 70
     0
 62
     1
  6
CONTINUOUS
  0
LAYER
  2
CRS
 70
     0
 62
     3
  6
CENTER
  0
LAYER
  2
HID
 70
     0
 62
     6
  6
HIDDEN
  0
LAYER
  2
BORT
 70
     0
 62
     7
  6
CONTINUOUS
  0
LAYER
  2
TXT
 70
     0
 62
     4
  6
CONTINUOUS
  0
LAYER
  2
DIM
 70
     0
 62
     2
  6
CONTINUOUS
  0
LAYER
  2
DRG2
 70
     0
 62
     8
  6
CONTINUOUS
  0
LAYER
  2
BOR
 70
     0
 62
     1
  6
CONTINUOUS
  0
LAYER
  2
HATCH
 70
     0
 62
     7
  6
CONTINUOUS
  0
ENDTAB
  0
TABLE
  2
STYLE
 70
     2
  0
STYLE
  2
STANDARD
 70
     0
 40
0.0
 41
1.0
 50
0.0
 71
     0
 42
7.0
  3
SIMPLEX
  4

  0
STYLE
  2

 70
     1
 40
0.0
 41
1.0
 50
0.0
 71
     0
 42
7.0
  3
ltypeshp.shx
  4

  0
ENDTAB
  0
TABLE
  2
VIEW
 70
     0
  0
ENDTAB
  0
TABLE
  2
UCS
 70
     0
  0
ENDTAB
  0
TABLE
  2
APPID
 70
    12
  0
APPID
  2
ACAD
 70
     0
  0
APPID
  2
GENIUS_GENDIM_13
 70
     0
  0
APPID
  2
GENIUS_GENDTOL_13
 70
     0
  0
APPID
  2
GENIUS_GE3DTOL_13
 70
     0
  0
APPID
  2
MCAD_NO_VIS
 70
     0
  0
APPID
  2
ACAD_TEMP_GRAPHIC
 70
     0
  0
APPID
  2
AD_DRAW
 70
     0
  0
APPID
  2
ACATTRIBSERVICES
 70
     0
  0
APPID
  2
ASURF_PCURVE_APPNAME
 70
     0
  0
APPID
  2
DESIGNERASSEMBLIES
 70
     0
  0
APPID
  2
ACADM_DIM_EDIT
 70
     0
  0
APPID
  2
CONTENTBLOCKICON
 70
     0
  0
ENDTAB
  0
TABLE
  2
DIMSTYLE
 70
     1
  0
DIMSTYLE
  2
STD
 70
     0
  3

  4

  5

  6

  7

 40
1.0
 41
8.0
 42
2.0
 43
10.0
 44
2.0
 45
0.0
 46
1.25
 47
0.0
 48
0.0
140
7.0
141
-3.0
142
0.0
143
0.039
144
1.0
145
1.1428571428571419
146
1.0
147
1.5
 71
     0
 72
     0
 73
     0
 74
     0
 75
     0
 76
     0
 77
     0
 78
     0
170
     0
171
     2
172
     0
173
     0
174
     0
175
     0
176
   256
177
   256
178
   256
  0
ENDTAB
  0
ENDSEC
  0
SECTION
  2
BLOCKS
  0
BLOCK
  8
0
  2
$MODEL_SPACE
 70
     0
 10
0.0
 20
0.0
 30
0.0
  3
$MODEL_SPACE
  1

  0
ENDBLK
  5
421
  8
0
  0
BLOCK
 67
     1
  8
0
  2
$PAPER_SPACE
 70
     0
 10
0.0
 20
0.0
 30
0.0
  3
$PAPER_SPACE
  1

  0
ENDBLK
  5
41F
 67
     1
  8
0
  0
BLOCK
  8
0
  2
*U0
 70
     1
 10
0.0
 20
0.0
 30
0.0
  3
*U0
  1

  0
ENDBLK
  5
4D7
  8
0
  0
BLOCK
  8
0
  2
LOGO
 70
     0
 10
0.0
 20
0.0
 30
0.0
  3
LOGO
  1

  0
INSERT
  5
502
  8
DRG
  6
CONTINUOUS
 62
     7
  2
*U3
 10
0.0
 20
0.0
 30
0.0
1001
ACAD
1002
{
1000
R14_HATCH_DATA
1000
502
1011
1.0
1021
0.0
1031
0.0
1021
0.0
1031
0.0
1011
0.0
1021
0.0
1031
0.0
1021
1.0
1031
0.0
1011
0.0
1021
0.0
1031
0.0
1021
0.0
1031
1.0
1040
0.0
1010
0.0
1020
0.0
1030
1.0
1000
SOLID
1070
     1
1070
     1
1071
       17
1071
        7
1070
     1
1070
     1
1071
        9
1040
18.821661727211438
1040
85.569427875032716
1040
-0.4142135623730951
1040
26.821661727211438
1040
93.569427875032716
1040
0.0
1040
28.191279411133561
1040
93.56942787503273
1040
0.0
1040
28.191279411133561
1040
102.0369718403326
1040
0.2674368359602434
1040
18.821661727211438
1040
97.915857504065912
1040
0.0
1040
18.821661727211438
1040
102.0369718403326
1040
0.0
1040
7.7802673214059723
1040
102.0369718403326
1040
0.0
1040
7.7802673214059723
1040
62.115696081838671
1040
0.0
1040
18.821661727211438
1040
62.115696081838678
1040
0.0
1071
        9
1005
525
1005
52C
1005
52B
1005
52A
1005
529
1005
524
1005
514
1005
516
1005
512
1071
        7
1070
     1
1070
     1
1071
        8
1040
29.838142899665851
1040
72.897331735467191
1040
0.4142135623730863
1040
41.838142899665847
1040
60.89733173546756
1040
0.0
1040
47.650196927116667
1040
60.89733173546756
1040
0.4142126981028046
1040
59.650196927064421
1040
72.897296325816569
1040
0.0348233422700972
1040
59.650196927064421
1040
90.096337111694368
1040
0.4142126981028142
1040
47.650196927116667
1040
102.0963017020437
1040
0.0
1040
41.838142899665847
1040
102.0963017020437
1040
0.4142135623730893
1040
29.838142899665851
1040
90.096301702044016
1040
0.0348231985322414
1071
        8
1005
506
1005
52D
1005
528
1005
527
1005
513
1005
523
1005
505
1005
564
1071
       22
1070
     1
1070
     1
1071
        4
1040
40.882971825549703
1040
90.337990088334166
1040
-1.0
1040
48.605370470334492
1040
90.337990088334735
1040
-0.0248818291691539
1040
48.605370470334492
1040
72.655643349175492
1040
-1.0
1040
40.882971825549703
1040
72.655643349177595
1040
-0.0248818291691501
1071
        4
1005
508
1005
563
1005
507
1005
526
1071
        7
1070
     1
1070
     1
1071
       18
1040
67.331191210151701
1040
68.89733173546756
1040
0.4142135623730951
1040
75.331191210151701
1040
60.89733173546756
1040
0.0
1040
80.675802928262684
1040
60.89733173546756
1040
0.1450058980834471
1040
84.501142256151084
1040
62.072518178885289
1040
0.0
1040
84.501142256151084
1040
70.214764581409185
1040
-0.0833071563303517
1040
83.501142256151255
1040
69.876055965300111
1040
0.0
1040
80.482556033578916
1040
69.876055965300111
1040
-0.4142135623730951
1040
77.482556033578931
1040
72.876055965300111
1040
0.0
1040
77.482556033578931
1040
94.593352860836134
1040
0.0
1040
84.553623006881026
1040
94.593352860836134
1040
0.0
1040
84.553623006881026
1040
101.9948050433795
1040
0.0
1040
77.482556033578931
1040
101.9948050433795
1040
0.0
1040
77.482556033578931
1040
107.1280725498991
1040
0.0
1040
67.331191210151701
1040
107.1280725498991
1040
0.0
1040
67.331191210151701
1040
101.9948050433795
1040
0.0
1040
62.478989637268562
1040
101.9948050433795
1040
0.0
1040
62.478989637268569
1040
94.593352860836134
1040
0.0
1040
67.331191210151687
1040
94.593352860836134
1040
0.0
1071
       18
1005
561
1005
575
1005
562
1005
56D
1005
56B
1005
56C
1005
568
1005
56A
1005
569
1005
565
1005
537
1005
54B
1005
53A
1005
538
1005
572
1005
560
1005
567
1005
566
1071
        7
1070
     1
1070
     1
1071
        8
1040
85.849782736700035
1040
72.897331735467475
1040
0.4142135623730931
1040
97.849782736700035
1040
60.89733173546756
1040
0.0
1040
103.66183676415081
1040
60.89733173546756
1040
0.4142126981028048
1040
115.6618367640986
1040
72.897296325816569
1040
0.0348233422700971
1040
115.6618367640986
1040
90.096337111694325
1040
0.4142126981028151
1040
103.66183676415081
1040
102.0963017020437
1040
0.0
1040
97.849782736700035
1040
102.0963017020437
1040
0.4142135623730893
1040
85.849782736700035
1040
90.096301702044016
1040
0.0348231985322409
1071
        8
1005
536
1005
576
1005
574
1005
570
1005
539
1005
55F
1005
535
1005
59D
1071
       22
1070
     1
1070
     1
1071
        4
1040
96.894611662583884
1040
90.337990088335033
1040
-1.0
1040
104.6170103073686
1040
90.337990088334763
1040
-0.0248818291691539
1040
104.6170103073686
1040
72.655643349175506
1040
-1.0
1040
96.894611662583884
1040
72.655643349177595
1040
-0.0248818291691514
1071
        4
1005
573
1005
56E
1005
571
1005
56F
1071
        7
1070
     1
1070
     1
1071
        9
1040
119.0096173095521
1040
62.115696081838678
1040
0.0
1040
130.05101171535759
1040
62.115696081838671
1040
0.0
1040
130.05101171535759
1040
85.569427875032716
1040
-0.4142135623730946
1040
138.05101171535759
1040
93.569427875032716
1040
0.0
1040
139.4206293992797
1040
93.56942787503273
1040
0.0
1040
139.4206293992797
1040
102.0369718403325
1040
0.2674368359602435
1040
130.05101171535759
1040
97.915857504065855
1040
0.0
1040
130.05101171535759
1040
102.0369718403326
1040
0.0
1040
119.0096173095521
1040
102.0369718403326
1040
0.0
1071
        9
1005
59C
1005
5A2
1005
5A1
1005
59E
1005
5A0
1005
59F
1005
578
1005
587
1005
577
1071
        7
1070
     0
1070
     1
1071
        4
1040
153.2899770207527
1040
102.0369718403326
1040
142.11987082690661
1040
102.0369718403326
1040
142.11987082690661
1040
62.115696081838678
1040
153.2899770207527
1040
62.115696081838678
1071
        4
1005
59B
1005
57C
1005
580
1005
57B
1071
        7
1070
     0
1070
     1
1071
        9
1040
161.3332883364622
1040
62.115696081838678
1040
171.78072804963571
1040
62.115696081838678
1040
165.4162645291251
1040
78.311404477182364
1040
176.9709164189357
1040
78.31140447718235
1040
176.9709164189357
1040
86.855763084496857
1040
165.4162645291251
1040
86.855763084496886
1040
171.38205787173379
1040
102.0369718403326
1040
160.9346181585602
1040
102.0369718403326
1040
153.2899770207527
1040
82.583583780839575
1071
        9
1005
5A8
1005
5A7
1005
5A6
1005
5A3
1005
57A
1005
596
1005
579
1005
5A5
1005
5A4
1071
        7
1070
     1
1070
     1
1071
       21
1040
152.52515784094209
1040
47.648154099737518
1040
-0.8501159182110916
1040
160.04745823702251
1040
46.421288526219293
1040
0.0
1040
160.04745823702251
1040
45.21828747592599
1040
0.0
1040
171.0912486890569
1040
45.21828747592599
1040
0.4103700463812956
1040
159.0922846938046
1040
57.06060729124669
1040
0.0
1040
153.28023066635379
1040
57.06060729124669
1040
0.3231315706904765
1040
141.8917942032017
1040
48.84260609145101
1040
0.1954153765693974
1040
142.3184035466634
1040
43.115005509834923
1040
0.2113556324406552
1040
155.72873071743231
1040
33.145354604103439
1040
-0.2264685134690167
1040
160.04745823702251
1040
29.300230626583549
1040
0.0
1040
160.04745823702251
1040
27.619948938379359
1040
-1.0
1040
152.32505959223769
1040
27.619948938379359
1040
0.0
1040
152.32505959223769
1040
29.959298931438969
1040
0.0
1040
141.28023066635379
1040
29.95929893143898
1040
0.0
1040
141.28023066635379
1040
27.861637324670479
1040
0.4142135623730951
1040
153.28023066635379
1040
15.861637324670481
1040
0.0
1040
159.0922846938046
1040
15.861637324670481
1040
0.4142135623730951
1040
171.0922846938046
1040
27.861637324670479
1040
0.0
1040
171.0922846938046
1040
29.95929893143904
1040
0.3201720163042325
1040
161.4128172083947
1040
39.98989916707626
1040
-0.1549843570040388
1040
153.4809683549079
1040
44.585756161105429
1040
-0.2969707756967668
1071
       21
1005
597
1005
599
1005
594
1005
595
1005
59A
1005
57F
1005
58C
1005
57D
1005
592
1005
58F
1005
591
1005
590
1005
57E
1005
584
1005
52F
1005
533
1005
530
1005
593
1005
58E
1005
58D
1005
598
1071
        7
1070
     1
1070
     1
1071
        9
1040
116.19314081319391
1040
17.28637227261407
1040
0.0
1040
127.2345352189994
1040
17.28637227261407
1040
0.0
1040
127.2345352189994
1040
40.740104065808097
1040
-0.4142135623730953
1040
135.23453521899941
1040
48.740104065808111
1040
0.0
1040
136.6041529029215
1040
48.740104065808111
1040
0.0
1040
136.6041529029215
1040
57.207648031108022
1040
0.2674368359602446
1040
127.2345352189994
1040
53.086533694841222
1040
0.0
1040
127.2345352189994
1040
57.207648031108022
1040
0.0
1040
116.19314081319391
1040
57.207648031108022
1040
0.0
1071
        9
1005
585
1005
589
1005
588
1005
582
1005
583
1005
581
1005
586
1005
58B
1005
58A
1071
        7
1070
     1
1070
     1
1071
       18
1040
111.2523129779601
1040
45.06060729124669
1040
0.4142135623730951
1040
99.252312977960173
1040
57.06060729124669
1040
0.0
1040
93.440258950509346
1040
57.06060729124669
1040
0.3935971290544443
1040
81.470405744524527
1040
45.910674481046733
1040
0.0
1040
92.485087876393209
1040
45.910674481046733
1040
0.0
1040
92.485087876393209
1040
47.313129977668268
1040
-1.0
1040
100.2074865211779
1040
47.313129977668268
1040
0.0
1040
100.207486521178
1040
42.948196427274922
1040
0.0
1040
93.358174068518778
1040
42.948196427274922
1040
0.3803366342075343
1040
81.440258950509346
1040
32.349374231810209
1040
0.0
1040
81.440258950509346
1040
27.861637324670479
1040
0.212203934851876
1040
85.398663329684837
1040
18.95474449545469
1040
0.2715779457989354
1040
94.991749269489972
1040
17.839408458597308
1040
0.2212147422997974
1040
102.1211660476033
1040
23.542010892025001
1040
0.0
1040
102.1211660476033
1040
21.102600968374279
1040
0.048558820350044
1040
102.6710305977499
1040
17.89352120355198
1040
0.0
1040
111.8021775281067
1040
17.893521203552009
1040
-0.0850534761391249
1040
111.2523129779601
1040
23.54201089202471
1040
0.0
1071
       18
1005
534
1005
55B
1005
53D
1005
55C
1005
55D
1005
55A
1005
55E
1005
559
1005
53B
1005
551
1005
53C
1005
52E
1005
54D
1005
555
1005
554
1005
553
1005
556
1005
54C
1071
       22
1070
     1
1070
     1
1071
        6
1040
101.5095597489034
1040
37.384730871555568
1040
0.0
1040
101.5095597489034
1040
29.984856014372749
1040
-0.4101584254678068
1040
95.863486513980718
1040
23.758749615986972
1040
-0.4142135623730822
1040
92.002287191588479
1040
27.619948938379359
1040
0.0
1040
92.002287191588479
1040
33.041326503689838
1040
-0.3592987923427892
1040
97.969021393668683
1040
37.384730871555568
1040
0.0
1071
        6
1005
557
1005
54F
1005
552
1005
550
1005
54E
1005
558
1071
        7
1070
     1
1070
     1
1071
       14
1040
74.280536421539182
1040
35.629722934820848
1040
0.0
1040
74.280536421539182
1040
45.06060729124669
1040
0.4142135623730951
1040
62.280536421539182
1040
57.06060729124669
1040
0.0
1040
56.468482394088369
1040
57.06060729124669
1040
0.4142135623730892
1040
44.468482394088362
1040
45.060607291246939
1040
0.0348231985322411
1040
44.468482394088362
1040
27.861637324670291
1040
0.4142135623730907
1040
56.468482394088369
1040
15.861637324670481
1040
0.0
1040
62.280536421539182
1040
15.861637324670481
1040
0.4142135623730951
1040
74.280536421539182
1040
27.861637324670479
1040
0.0
1040
74.280536421539196
1040
30.816887788353831
1040
0.0
1040
63.235709964757
1040
30.81688778835381
1040
0.0
1040
63.235709964757007
1040
27.61994893837937
1040
-1.0
1040
55.513311319972217
1040
27.61994893837937
1040
0.0
1040
55.513311319972232
1040
35.629722934820848
1040
0.0
1071
       14
1005
545
1005
54A
1005
504
1005
518
1005
503
1005
532
1005
531
1005
544
1005
53F
1005
541
1005
543
1005
542
1005
540
1005
53E
1071
       22
1070
     1
1070
     1
1071
        4
1040
63.235709964756971
1040
41.923431282527652
1040
0.0
1040
55.51331131997221
1040
41.923431282527638
1040
0.0
1040
55.513311319972217
1040
46.690614073903141
1040
-1.0
1040
63.235709964757007
1040
46.690614073903127
1040
0.0
1071
        4
1005
546
1005
548
1005
547
1005
549
1071
        7
1070
     1
1070
     1
1071
       15
1040
37.639779947293832
1040
57.06060729124669
1040
0.0
1040
27.267121908897028
1040
57.06060729124669
1040
0.0
1040
27.267121908897021
1040
51.255838552818979
1040
0.3392741364964821
1040
18.58303542025671
1040
58.127888502333931
1040
0.3975671648689696
1040
7.030577403887583
1040
46.170226698962978
1040
0.0322586733839356
1040
7.0565934473582743
1040
30.23514359210488
1040
0.381674351628262
1040
18.58303542025671
1040
18.945146626805109
1040
0.3392741364964824
1040
27.267121908897021
1040
25.817196576320061
1040
0.0
1040
27.267121908897021
1040
13.51984597021351
1040
-1.0
1040
19.544723264112228
1040
13.51984597021351
1040
0.0
1040
19.544723264112239
1040
14.846027306936771
1040
0.0
1040
7.7279273094568479
1040
14.846027306936771
1040
0.435111756420548
1040
18.100585347853119
1040
3.392610111620797
1040
0.0
1040
25.69916102541525
1040
3.392610111620797
1040
0.3589835117613411
1040
37.639779947293839
1040
13.760967175618781
1040
0.0
1071
       15
1005
51E
1005
522
1005
521
1005
515
1005
517
1005
509
1005
51D
1005
50A
1005
510
1005
511
1005
50C
1005
50D
1005
50F
1005
50E
1005
50B
1071
       22
1070
     1
1070
     1
1071
        6
1040
27.387732575171409
1040
32.086434320449378
1040
-0.3635850888704513
1040
22.683854862926161
1040
25.455509253088579
1040
-0.4081657147783189
1040
17.256300807526252
1040
30.5191262631974
1040
0.0
1040
17.256300807526252
1040
46.312783983787632
1040
-0.4081657147783226
1040
22.683854862926282
1040
51.376400993896397
1040
-0.3635850888704468
1040
27.387732575171409
1040
44.745475926535612
1040
0.0
1071
        6
1005
51C
1005
51B
1005
51A
1005
51F
1005
520
1005
519
1070
     0
1070
     1
1040
0.2228598800114194
1071
       17
1040
17.63743802729277
1040
76.626905651017751
1040
0.0
1040
33.91754890401171
1040
77.741205688022092
1040
0.0
1040
33.91754890401171
1040
77.741205688022092
1040
0.0
1040
69.153945982282949
1040
79.301225382558854
1040
0.0
1040
91.455465417142008
1040
80.861243290751887
1040
0.0
1040
91.455465417142008
1040
80.861243290751887
1040
0.0
1040
120.67045393727309
1040
80.861243290751887
1040
0.0
1040
151.44655150816561
1040
79.746945040091759
1040
0.0
1040
157.69097519808881
1040
82.198402263350317
1040
0.0
1040
149.43941532211869
1040
47.209401108474808
1040
0.0
1040
122.2315629880345
1040
49.21514046054449
1040
0.0
1040
107.73557316557979
1040
43.19792419067948
1040
0.0
1040
107.73557316557979
1040
43.19792419067948
1040
0.0
1040
69.376961114066034
1040
40.30074552354403
1040
0.0
1040
69.376961114066034
1040
40.30074552354403
1040
0.0
1040
30.572318798986078
1040
42.306483089269697
1040
0.0
1040
30.572318798986078
1040
42.306483089269697
1040
0.0
1002
}
  0
ARC
  5
503
  8
DRG
 62
     7
 10
56.468482394088369
 20
27.861637324670479
 30
0.0
 40
12.0
 50
180.0
 51
270.0
  0
ARC
  5
504
  8
DRG
 62
     7
 10
56.468482394088369
 20
45.06060729124669
 30
0.0
 40
12.0
 50
90.0
 51
180.0
  0
ARC
  5
505
  8
DRG
 62
     7
 10
47.650196927116667
 20
72.89733173546756
 30
0.0
 40
12.0
 50
270.0
 51
0.0
  0
ARC
  5
506
  8
DRG
 62
     7
 10
47.650196927116667
 20
90.096301702043775
 30
0.0
 40
12.0
 50
0.0
 51
90.0
  0
ARC
  5
507
  8
DRG
 62
     7
 10
44.74417114794209
 20
72.655643349176444
 30
0.0
 40
3.8611993223923942
 50
180.0
 51
0.0
  0
ARC
  5
508
  8
DRG
 62
     7
 10
44.74417114794209
 20
90.337990088334877
 30
0.0
 40
3.8611993223923942
 50
0.0
 51
180.0
  0
ARC
  5
509
  8
DRG
 62
     7
 10
19.137584483414571
 20
31.0402274344309
 30
0.0
 40
12.107786932649869
 50
183.81258486583951
 51
267.37487616930952
  0
LINE
  5
50A
  8
DRG
 62
     7
 10
27.267121908897021
 20
13.51984597021351
 30
0.0
 11
27.267121908897021
 21
25.817196576319979
 31
0.0
  0
LINE
  5
50B
  8
DRG
 62
     7
 10
37.639779947293839
 20
13.760967175618591
 30
0.0
 11
37.639779947293839
 21
57.06060729124669
 31
0.0
  0
LINE
  5
50C
  8
DRG
 62
     7
 10
7.7279273094568453
 20
14.846027306936771
 30
0.0
 11
19.544723264112228
 21
14.846027306936771
 31
0.0
  0
ARC
  5
50D
  8
DRG
 62
     7
 10
18.249110221157022
 20
13.95076893658401
 30
0.0
 40
10.559203445863639
 50
175.13635846835899
 51
269.19405577571678
  0
ARC
  5
50E
  8
DRG
 62
     7
 10
25.379351800633462
 20
15.82074347040526
 30
0.0
 40
12.432247452652581
 50
271.47404887186468
 51
350.4632534986161
  0
LINE
  5
50F
  8
DRG
 62
     7
 10
18.100585347854121
 20
3.392610111620797
 30
0.0
 11
25.699161025414639
 21
3.392610111620797
 31
0.0
  0
ARC
  5
510
  8
DRG
 62
     7
 10
23.40592258650463
 20
13.51984597021351
 30
0.0
 40
3.8611993223923942
 50
180.0
 51
0.0
  0
LINE
  5
511
  8
DRG
 62
     7
 10
19.544723264112228
 20
13.51984597021351
 30
0.0
 11
19.544723264112228
 21
14.846027306936771
 31
0.0
  0
LINE
  5
512
  8
DRG
 62
     7
 10
18.821661727211438
 20
62.115696081838678
 30
0.0
 11
18.821661727211438
 21
85.569427875032716
 31
0.0
  0
ARC
  5
513
  8
DRG
 62
     7
 10
41.838142899665847
 20
72.89733173546756
 30
0.0
 40
12.0
 50
180.0
 51
270.0
  0
LINE
  5
514
  8
DRG
 62
     7
 10
7.7802673214059723
 20
102.0369718403326
 30
0.0
 11
7.7802673214059723
 21
62.115696081838678
 31
0.0
  0
ARC
  5
515
  8
DRG
 62
     7
 10
19.137584483414571
 20
46.032807694708133
 30
0.0
 40
12.107786932649869
 50
92.625123830690427
 51
179.34969965531249
  0
LINE
  5
516
  8
DRG
 62
     7
 10
7.7802673214059723
 20
62.115696081838678
 30
0.0
 11
18.821661727211438
 21
62.115696081838678
 31
0.0
  0
ARC
  5
517
  8
DRG
 62
     7
 10
130.4096373956734
 20
38.404095866101891
 30
0.0
 40
123.62323904739679
 50
176.39825231050591
 51
183.7888327716102
  0
ARC
  5
518
  8
DRG
 62
     7
 10
167.7922598686371
 20
36.46112230795859
 30
0.0
 40
123.62323904739679
 50
176.01116722839041
 51
183.98883277160959
  0
LINE
  5
519
  8
DRG
 62
     7
 10
27.387732575171409
 20
32.086434320449371
 30
0.0
 11
27.387732575171409
 21
44.745475926535619
 31
0.0
  0
LINE
  5
51A
  8
DRG
 62
     7
 10
17.256300807526252
 20
30.519126263197901
 30
0.0
 11
17.256300807526252
 21
46.312783983787199
 31
0.0
  0
ARC
  5
51B
  8
DRG
 62
     7
 10
22.554825927420261
 20
30.757839296791811
 30
0.0
 40
5.3038997311936118
 50
182.57958705316651
 51
271.39398239048438
  0
ARC
  5
51C
  8
DRG
 62
     7
 10
21.079116203706629
 20
31.577778829510549
 30
0.0
 40
6.3290892655085571
 50
284.68766481341447
 51
4.6097118352224014
  0
ARC
  5
51D
  8
DRG
 62
     7
 10
18.444167318675341
 20
28.04361904615444
 30
0.0
 40
9.0995321151857773
 50
270.87442572940842
 51
345.83740798549388
  0
LINE
  5
51E
  8
DRG
 62
     7
 10
37.639779947293839
 20
57.06060729124669
 30
0.0
 11
27.267121908897021
 21
57.06060729124669
 31
0.0
  0
ARC
  5
51F
  8
DRG
 62
     7
 10
22.554825927420261
 20
46.074070950193168
 30
0.0
 40
5.3038997311936118
 50
88.606017609515575
 51
177.42041294683341
  0
ARC
  5
520
  8
DRG
 62
     7
 10
21.079116203706629
 20
45.254131417474468
 30
0.0
 40
6.3290892655085571
 50
355.39028816477759
 51
75.312335186585557
  0
ARC
  5
521
  8
DRG
 62
     7
 10
18.444167318675341
 20
49.029416082984589
 30
0.0
 40
9.0995321151857773
 50
14.16259201450603
 51
89.125574270591571
  0
LINE
  5
522
  8
DRG
 62
     7
 10
27.267121908897021
 20
51.255838552819107
 30
0.0
 11
27.267121908897021
 21
57.06060729124669
 31
0.0
  0
LINE
  5
523
  8
DRG
 62
     7
 10
41.838142899665847
 20
60.89733173546756
 30
0.0
 11
47.650196927116667
 21
60.89733173546756
 31
0.0
  0
LINE
  5
524
  8
DRG
 62
     7
 10
7.7802673214059723
 20
102.0369718403326
 30
0.0
 11
18.821661727211438
 21
102.0369718403326
 31
0.0
  0
ARC
  5
525
  8
DRG
 62
     7
 10
26.821661727211438
 20
85.569427875032716
 30
0.0
 40
8.0
 50
90.0
 51
180.0
  0
ARC
  5
526
  8
DRG
 62
     7
 10
218.4362314981995
 20
81.496816718755667
 30
0.0
 40
177.77324423808651
 50
177.14934059322539
 51
182.85065940677461
  0
ARC
  5
527
  8
DRG
 62
     7
 10
153.16192037421459
 20
81.496816718755667
 30
0.0
 40
123.62323904739679
 50
176.01116722839041
 51
183.98883277160959
  0
ARC
  5
528
  8
DRG
 62
     7
 10
41.838142899665847
 20
90.096301702043775
 30
0.0
 40
12.0
 50
90.0
 51
180.0
  0
LINE
  5
529
  8
DRG
 62
     7
 10
18.821661727211438
 20
97.915857504065912
 30
0.0
 11
18.821661727211438
 21
102.0369718403326
 31
0.0
  0
ARC
  5
52A
  8
DRG
 62
     7
 10
27.083354510939952
 20
91.844139685506846
 30
0.0
 40
10.2528691067876
 50
83.7965056449153
 51
143.68693404466879
  0
LINE
  5
52B
  8
DRG
 62
     7
 10
28.191279411133561
 20
102.0369718403326
 30
0.0
 11
28.191279411133561
 21
93.569427875032716
 31
0.0
  0
LINE
  5
52C
  8
DRG
 62
     7
 10
28.191279411133561
 20
93.569427875032716
 30
0.0
 11
26.821661727211438
 21
93.569427875032716
 31
0.0
  0
LINE
  5
52D
  8
DRG
 62
     7
 10
41.838142899665847
 20
102.0963017020437
 30
0.0
 11
47.650196927116667
 21
102.0963017020437
 31
0.0
  0
ARC
  5
52E
  8
DRG
 62
     7
 10
91.146199293645054
 20
26.576636016635941
 30
0.0
 40
9.5460672539884595
 50
232.98068850611
 51
293.75592135571679
  0
ARC
  5
52F
  8
DRG
 62
     7
 10
153.28023066635379
 20
27.861637324670479
 30
0.0
 40
12.0
 50
180.0
 51
270.0
  0
ARC
  5
530
  8
DRG
 62
     7
 10
159.0922846938046
 20
27.861637324670479
 30
0.0
 40
12.0
 50
270.0
 51
0.0
  0
ARC
  5
531
  8
DRG
 62
     7
 10
62.280536421539182
 20
27.861637324670479
 30
0.0
 40
12.0
 50
270.0
 51
0.0
  0
LINE
  5
532
  8
DRG
 62
     7
 10
56.468482394088369
 20
15.861637324670481
 30
0.0
 11
62.280536421539182
 21
15.861637324670481
 31
0.0
  0
LINE
  5
533
  8
DRG
 62
     7
 10
153.28023066635379
 20
15.861637324670481
 30
0.0
 11
159.0922846938046
 21
15.861637324670481
 31
0.0
  0
ARC
  5
534
  8
DRG
 62
     7
 10
99.252312977960173
 20
45.06060729124669
 30
0.0
 40
12.0
 50
0.0
 51
90.0
  0
ARC
  5
535
  8
DRG
 62
     7
 10
103.66183676415081
 20
72.89733173546756
 30
0.0
 40
12.0
 50
270.0
 51
0.0
  0
ARC
  5
536
  8
DRG
 62
     7
 10
103.66183676415081
 20
90.096301702043775
 30
0.0
 40
12.0
 50
0.0
 51
90.0
  0
ARC
  5
537
  8
DRG
 62
     7
 10
75.331191210151701
 20
68.89733173546756
 30
0.0
 40
8.0
 50
180.0
 51
270.0
  0
LINE
  5
538
  8
DRG
 62
     7
 10
84.501142256151084
 20
62.072518178885268
 30
0.0
 11
84.501142256151084
 21
70.214764581409213
 31
0.0
  0
ARC
  5
539
  8
DRG
 62
     7
 10
97.849782736700035
 20
72.89733173546756
 30
0.0
 40
12.0
 50
180.0
 51
270.0
  0
ARC
  5
53A
  8
DRG
 62
     7
 10
80.604973725058926
 20
67.941395133310024
 30
0.0
 40
7.044419488421358
 50
270.57609896713558
 51
303.5789717876612
  0
ARC
  5
53B
  8
DRG
 62
     7
 10
93.358174068518778
 20
30.948196427274919
 30
0.0
 40
12.0
 50
90.0
 51
173.29457252003729
  0
ARC
  5
53C
  8
DRG
 62
     7
 10
93.44025895050936
 20
27.861637324670479
 30
0.0
 40
12.0
 50
180.0
 51
227.9226718038604
  0
ARC
  5
53D
  8
DRG
 62
     7
 10
93.44025895050936
 20
45.06060729124669
 30
0.0
 40
12.0
 50
90.0
 51
175.93782586434531
  0
LINE
  5
53E
  8
DRG
 62
     7
 10
74.280536421539182
 20
45.06060729124669
 30
0.0
 11
74.280536421539182
 21
35.629722934820848
 31
0.0
  0
LINE
  5
53F
  8
DRG
 62
     7
 10
63.235709964757007
 20
30.816887788353821
 30
0.0
 11
74.280536421539182
 21
30.816887788353821
 31
0.0
  0
LINE
  5
540
  8
DRG
 62
     7
 10
55.513311319972217
 20
35.629722934820848
 30
0.0
 11
74.280536421539182
 21
35.629722934820848
 31
0.0
  0
LINE
  5
541
  8
DRG
 62
     7
 10
63.235709964757007
 20
30.816887788353821
 30
0.0
 11
63.235709964757007
 21
27.619948938379359
 31
0.0
  0
LINE
  5
542
  8
DRG
 62
     7
 10
55.513311319972217
 20
35.629722934820848
 30
0.0
 11
55.513311319972217
 21
27.619948938379359
 31
0.0
  0
ARC
  5
543
  8
DRG
 62
     7
 10
59.374510642364612
 20
27.619948938379359
 30
0.0
 40
3.8611993223923942
 50
180.0
 51
0.0
  0
LINE
  5
544
  8
DRG
 62
     7
 10
74.280536421539182
 20
30.816887788353821
 30
0.0
 11
74.280536421539182
 21
27.861637324670479
 31
0.0
  0
ARC
  5
545
  8
DRG
 62
     7
 10
62.280536421539182
 20
45.06060729124669
 30
0.0
 40
12.0
 50
0.0
 51
90.0
  0
LINE
  5
546
  8
DRG
 62
     7
 10
55.513311319972217
 20
41.923431282527652
 30
0.0
 11
63.235709964757007
 21
41.923431282527652
 31
0.0
  0
ARC
  5
547
  8
DRG
 62
     7
 10
59.374510642364612
 20
46.690614073903127
 30
0.0
 40
3.8611993223923942
 50
0.0
 51
180.0
  0
LINE
  5
548
  8
DRG
 62
     7
 10
55.513311319972217
 20
46.690614073903127
 30
0.0
 11
55.513311319972217
 21
41.923431282527652
 31
0.0
  0
LINE
  5
549
  8
DRG
 62
     7
 10
63.235709964757007
 20
46.690614073903127
 30
0.0
 11
63.235709964757007
 21
41.923431282527652
 31
0.0
  0
LINE
  5
54A
  8
DRG
 62
     7
 10
56.468482394088369
 20
57.06060729124669
 30
0.0
 11
62.280536421539182
 21
57.06060729124669
 31
0.0
  0
LINE
  5
54B
  8
DRG
 62
     7
 10
75.331191210151701
 20
60.89733173546756
 30
0.0
 11
80.675802928264815
 21
60.89733173546756
 31
0.0
  0
LINE
  5
54C
  8
DRG
 62
     7
 10
111.2523129779601
 20
45.06060729124669
 30
0.0
 11
111.2523129779601
 21
21.10260096837424
 31
0.0
  0
ARC
  5
54D
  8
DRG
 62
     7
 10
92.427187023305351
 20
28.353548776339029
 30
0.0
 40
10.822390038051561
 50
283.70766965543032
 51
333.6028219757398
  0
ARC
  5
54E
  8
DRG
 62
     7
 10
97.617648860406234
 20
31.597336783954741
 30
0.0
 40
5.7980507916306081
 50
86.525641605078704
 51
165.57884810514051
  0
ARC
  5
54F
  8
DRG
 62
     7
 10
95.530005668639475
 20
29.734254501986349
 30
0.0
 40
5.9848030975807349
 50
273.19424815916329
 51
2.3998464036014582
  0
LINE
  5
550
  8
DRG
 62
     7
 10
92.002287191588479
 20
27.619948938379359
 30
0.0
 11
92.002287191588479
 21
33.041326503689788
 31
0.0
  0
LINE
  5
551
  8
DRG
 62
     7
 10
81.440258950509346
 20
32.349374231809861
 30
0.0
 11
81.440258950509346
 21
27.861637324670479
 31
0.0
  0
ARC
  5
552
  8
DRG
 62
     7
 10
95.863486513980874
 20
27.619948938379359
 30
0.0
 40
3.8611993223923942
 50
180.0
 51
270.0
  0
LINE
  5
553
  8
DRG
 62
     7
 10
102.6710305977499
 20
17.89352120355198
 30
0.0
 11
111.8021775281067
 21
17.893521203552009
 31
0.0
  0
ARC
  5
554
  8
DRG
 62
     7
 10
118.87875205644769
 20
22.322305930199491
 30
0.0
 40
16.801915635954131
 50
175.83705377070211
 51
195.28307330703629
  0
LINE
  5
555
  8
DRG
 62
     7
 10
102.1211660476033
 20
23.542010892025068
 30
0.0
 11
102.1211660476033
 21
21.102600968374329
 31
0.0
  0
ARC
  5
556
  8
DRG
 62
     7
 10
128.00989898680459
 20
22.322305930199519
 30
0.0
 40
16.801915635954131
 50
175.83705377070211
 51
195.28307330703629
  0
LINE
  5
557
  8
DRG
 62
     7
 10
101.5095597489034
 20
37.384730871555568
 30
0.0
 11
101.5095597489034
 21
29.483652989600269
 31
0.0
  0
LINE
  5
558
  8
DRG
 62
     7
 10
101.5095597489034
 20
37.384730871555568
 30
0.0
 11
97.266276327143615
 21
37.384730871555568
 31
0.0
  0
LINE
  5
559
  8
DRG
 62
     7
 10
100.2074865211779
 20
42.948196427274922
 30
0.0
 11
93.358174068518778
 21
42.948196427274922
 31
0.0
  0
ARC
  5
55A
  8
DRG
 62
     7
 10
96.346287198785603
 20
47.313129977668268
 30
0.0
 40
3.8611993223923942
 50
0.0
 51
180.0
  0
LINE
  5
55B
  8
DRG
 62
     7
 10
93.44025895050936
 20
57.06060729124669
 30
0.0
 11
99.252312977960173
 21
57.06060729124669
 31
0.0
  0
LINE
  5
55C
  8
DRG
 62
     7
 10
92.485087876393209
 20
45.910674481046733
 30
0.0
 11
81.470405744524555
 21
45.910674481046733
 31
0.0
  0
LINE
  5
55D
  8
DRG
 62
     7
 10
92.485087876393209
 20
47.313129977668268
 30
0.0
 11
92.485087876393209
 21
45.910674481046733
 31
0.0
  0
LINE
  5
55E
  8
DRG
 62
     7
 10
100.2074865211779
 20
47.313129977668268
 30
0.0
 11
100.2074865211779
 21
42.948196427274922
 31
0.0
  0
LINE
  5
55F
  8
DRG
 62
     7
 10
97.849782736700035
 20
60.89733173546756
 30
0.0
 11
103.66183676415081
 21
60.89733173546756
 31
0.0
  0
LINE
  5
560
  8
DRG
 62
     7
 10
80.482556033578916
 20
69.876055965300111
 30
0.0
 11
83.501142256151056
 21
69.876055965300111
 31
0.0
  0
LINE
  5
561
  8
DRG
 62
     7
 10
77.482556033578931
 20
94.593352860836134
 30
0.0
 11
84.553623006881026
 21
94.593352860836134
 31
0.0
  0
LINE
  5
562
  8
DRG
 62
     7
 10
77.482556033578931
 20
101.9948050433795
 30
0.0
 11
84.553623006881026
 21
101.9948050433795
 31
0.0
  0
ARC
  5
563
  8
DRG
 62
     7
 10
-128.9478892023152
 20
81.496816718755667
 30
0.0
 40
177.77324423808651
 50
357.1493405932253
 51
2.8506594067746178
  0
ARC
  5
564
  8
DRG
 62
     7
 10
-63.673578078330422
 20
81.496816718755667
 30
0.0
 40
123.62323904739679
 50
356.01116722839038
 51
3.9888327716095779
  0
LINE
  5
565
  8
DRG
 62
     7
 10
67.331191210151701
 20
94.593352860836134
 30
0.0
 11
67.331191210151701
 21
68.89733173546756
 31
0.0
  0
LINE
  5
566
  8
DRG
 62
     7
 10
77.482556033578931
 20
94.593352860836134
 30
0.0
 11
77.482556033578931
 21
72.876055965300111
 31
0.0
  0
ARC
  5
567
  8
DRG
 62
     7
 10
80.482556033578916
 20
72.876055965300111
 30
0.0
 40
3.0
 50
180.0
 51
270.0
  0
LINE
  5
568
  8
DRG
 62
     7
 10
62.478989637268569
 20
101.9948050433795
 30
0.0
 11
67.331191210151701
 21
101.9948050433795
 31
0.0
  0
LINE
  5
569
  8
DRG
 62
     7
 10
62.478989637268569
 20
94.593352860836134
 30
0.0
 11
67.331191210151701
 21
94.593352860836134
 31
0.0
  0
LINE
  5
56A
  8
DRG
 62
     7
 10
62.478989637268569
 20
94.593352860836134
 30
0.0
 11
62.478989637268569
 21
101.9948050433795
 31
0.0
  0
LINE
  5
56B
  8
DRG
 62
     7
 10
67.331191210151701
 20
107.1280725498991
 30
0.0
 11
77.482556033578931
 21
107.1280725498991
 31
0.0
  0
LINE
  5
56C
  8
DRG
 62
     7
 10
67.331191210151701
 20
107.1280725498991
 30
0.0
 11
67.331191210151701
 21
101.9948050433795
 31
0.0
  0
LINE
  5
56D
  8
DRG
 62
     7
 10
77.482556033578931
 20
101.9948050433795
 30
0.0
 11
77.482556033578931
 21
107.1280725498991
 31
0.0
  0
ARC
  5
56E
  8
DRG
 62
     7
 10
-72.936249365281071
 20
81.496816718755667
 30
0.0
 40
177.77324423808651
 50
357.1493405932253
 51
2.8506594067746178
  0
ARC
  5
56F
  8
DRG
 62
     7
 10
274.44787133523357
 20
81.496816718755667
 30
0.0
 40
177.77324423808651
 50
177.14934059322539
 51
182.85065940677461
  0
ARC
  5
570
  8
DRG
 62
     7
 10
209.1735602112488
 20
81.496816718755667
 30
0.0
 40
123.62323904739679
 50
176.01116722839041
 51
183.98883277160959
  0
ARC
  5
571
  8
DRG
 62
     7
 10
100.75581098497619
 20
72.655643349176444
 30
0.0
 40
3.8611993223923942
 50
180.0
 51
0.0
  0
ARC
  5
572
  8
DRG
 62
     7
 10
82.991751330883176
 20
73.025526152493626
 30
0.0
 40
3.1903983410800212
 50
279.18737892597682
 51
298.2359877234839
  0
ARC
  5
573
  8
DRG
 62
     7
 10
100.75581098497619
 20
90.337990088334877
 30
0.0
 40
3.8611993223923942
 50
0.0
 51
180.0
  0
ARC
  5
574
  8
DRG
 62
     7
 10
97.849782736700035
 20
90.096301702043775
 30
0.0
 40
12.0
 50
90.0
 51
180.0
  0
LINE
  5
575
  8
DRG
 62
     7
 10
84.553623006881026
 20
101.9948050433795
 30
0.0
 11
84.553623006881026
 21
94.593352860836134
 31
0.0
  0
LINE
  5
576
  8
DRG
 62
     7
 10
97.849782736700035
 20
102.0963017020437
 30
0.0
 11
103.66183676415081
 21
102.0963017020437
 31
0.0
  0
LINE
  5
577
  8
DRG
 62
     7
 10
130.05101171535759
 20
62.115696081838678
 30
0.0
 11
130.05101171535759
 21
85.569427875032716
 31
0.0
  0
LINE
  5
578
  8
DRG
 62
     7
 10
119.0096173095521
 20
102.0369718403326
 30
0.0
 11
119.0096173095521
 21
62.115696081838678
 31
0.0
  0
LINE
  5
579
  8
DRG
 62
     7
 10
165.4162645291251
 20
78.31140447718235
 30
0.0
 11
171.78072804963571
 21
62.115696081838678
 31
0.0
  0
LINE
  5
57A
  8
DRG
 62
     7
 10
153.2899770207527
 20
82.583583780839604
 30
0.0
 11
161.3332883364622
 21
62.115696081838678
 31
0.0
  0
LINE
  5
57B
  8
DRG
 62
     7
 10
153.2899770207527
 20
102.0369718403326
 30
0.0
 11
153.2899770207527
 21
62.115696081838678
 31
0.0
  0
LINE
  5
57C
  8
DRG
 62
     7
 10
142.11987082690661
 20
102.0369718403326
 30
0.0
 11
142.11987082690661
 21
62.115696081838678
 31
0.0
  0
ARC
  5
57D
  8
DRG
 62
     7
 10
160.28928843394391
 20
53.283870983727013
 30
0.0
 40
20.648450998997479
 50
209.50344874889601
 51
257.2400493880096
  0
LINE
  5
57E
  8
DRG
 62
     7
 10
141.28023066635379
 20
29.95929893143898
 30
0.0
 11
152.32505959223769
 21
29.95929893143898
 31
0.0
  0
ARC
  5
57F
  8
DRG
 62
     7
 10
153.28023066635379
 20
45.06060729124669
 30
0.0
 40
12.0
 50
90.0
 51
161.62913043773071
  0
LINE
  5
580
  8
DRG
 62
     7
 10
153.2899770207527
 20
62.115696081838678
 30
0.0
 11
142.11987082690661
 21
62.115696081838678
 31
0.0
  0
LINE
  5
581
  8
DRG
 62
     7
 10
127.2345352189994
 20
17.28637227261407
 30
0.0
 11
127.2345352189994
 21
40.740104065808111
 31
0.0
  0
LINE
  5
582
  8
DRG
 62
     7
 10
116.19314081319391
 20
57.207648031108022
 30
0.0
 11
116.19314081319391
 21
17.28637227261407
 31
0.0
  0
LINE
  5
583
  8
DRG
 62
     7
 10
116.19314081319391
 20
17.28637227261407
 30
0.0
 11
127.2345352189994
 21
17.28637227261407
 31
0.0
  0
LINE
  5
584
  8
DRG
 62
     7
 10
141.28023066635379
 20
29.95929893143898
 30
0.0
 11
141.28023066635379
 21
27.861637324670479
 31
0.0
  0
ARC
  5
585
  8
DRG
 62
     7
 10
135.496228002728
 20
47.014815876282221
 30
0.0
 40
10.2528691067876
 50
83.7965056449153
 51
143.68693404466879
  0
ARC
  5
586
  8
DRG
 62
     7
 10
135.23453521899941
 20
40.740104065808111
 30
0.0
 40
8.0
 50
90.0
 51
180.0
  0
LINE
  5
587
  8
DRG
 62
     7
 10
119.0096173095521
 20
62.115696081838678
 30
0.0
 11
130.05101171535759
 21
62.115696081838678
 31
0.0
  0
LINE
  5
588
  8
DRG
 62
     7
 10
116.19314081319391
 20
57.207648031108022
 30
0.0
 11
127.2345352189994
 21
57.207648031108022
 31
0.0
  0
LINE
  5
589
  8
DRG
 62
     7
 10
127.2345352189994
 20
53.0865336948413
 30
0.0
 11
127.2345352189994
 21
57.207648031108079
 31
0.0
  0
LINE
  5
58A
  8
DRG
 62
     7
 10
136.6041529029215
 20
57.207648031108022
 30
0.0
 11
136.6041529029215
 21
48.740104065808111
 31
0.0
  0
LINE
  5
58B
  8
DRG
 62
     7
 10
136.6041529029215
 20
48.740104065808111
 30
0.0
 11
135.23453521899941
 21
48.740104065808111
 31
0.0
  0
ARC
  5
58C
  8
DRG
 62
     7
 10
149.15275272984229
 20
46.50373678022958
 30
0.0
 40
7.6283568598071962
 50
162.14543119997589
 51
216.29372603558031
  0
ARC
  5
58D
  8
DRG
 62
     7
 10
164.68224204875119
 20
54.775095406185869
 30
0.0
 40
15.14236331012172
 50
222.29150451995909
 51
257.53093545652467
  0
ARC
  5
58E
  8
DRG
 62
     7
 10
159.223234097084
 20
28.191351553125511
 30
0.0
 40
12.0
 50
8.4721667757414814
 51
79.486612768212169
  0
LINE
  5
58F
  8
DRG
 62
     7
 10
160.04745823702251
 20
29.300230626583438
 30
0.0
 11
160.04745823702251
 21
27.619948938379359
 31
0.0
  0
LINE
  5
590
  8
DRG
 62
     7
 10
152.32505959223769
 20
27.619948938379359
 30
0.0
 11
152.32505959223769
 21
29.95929893143898
 31
0.0
  0
ARC
  5
591
  8
DRG
 62
     7
 10
156.18625891463009
 20
27.619948938379359
 30
0.0
 40
3.8611993223923942
 50
180.0
 51
0.0
  0
ARC
  5
592
  8
DRG
 62
     7
 10
153.8611380906755
 20
26.699836406787622
 30
0.0
 40
6.7106338785129491
 50
22.799249772319211
 51
73.841024038773142
  0
LINE
  5
593
  8
DRG
 62
     7
 10
171.0922846938046
 20
29.95929893143915
 30
0.0
 11
171.0922846938046
 21
27.861637324670479
 31
0.0
  0
LINE
  5
594
  8
DRG
 62
     7
 10
171.0912486890569
 20
45.21828747592599
 30
0.0
 11
160.04745823702251
 21
45.21828747592599
 31
0.0
  0
ARC
  5
595
  8
DRG
 62
     7
 10
159.0922846938046
 20
45.06060729124669
 30
0.0
 40
12.0
 50
0.7528890912800703
 51
90.0
  0
LINE
  5
596
  8
DRG
 62
     7
 10
161.3332883364622
 20
62.115696081838678
 30
0.0
 11
171.78072804963571
 21
62.115696081838678
 31
0.0
  0
ARC
  5
597
  8
DRG
 62
     7
 10
156.18625891463009
 20
46.421288526219307
 30
0.0
 40
3.8611993223923942
 50
0.0
 51
161.4735686305323
  0
ARC
  5
598
  8
DRG
 62
     7
 10
155.35373214152469
 20
46.850626662257177
 30
0.0
 40
2.938857360854815
 50
164.25399710017811
 51
230.4135202949499
  0
LINE
  5
599
  8
DRG
 62
     7
 10
160.04745823702251
 20
46.421288526219307
 30
0.0
 11
160.04745823702251
 21
45.21828747592599
 31
0.0
  0
LINE
  5
59A
  8
DRG
 62
     7
 10
153.28023066635379
 20
57.06060729124669
 30
0.0
 11
159.0922846938046
 21
57.06060729124669
 31
0.0
  0
LINE
  5
59B
  8
DRG
 62
     7
 10
142.11987082690661
 20
102.0369718403326
 30
0.0
 11
153.2899770207527
 21
102.0369718403326
 31
0.0
  0
ARC
  5
59C
  8
DRG
 62
     7
 10
138.05101171535759
 20
85.569427875032716
 30
0.0
 40
8.0
 50
90.0
 51
180.0
  0
ARC
  5
59D
  8
DRG
 62
     7
 10
-7.66193824129624
 20
81.496816718755667
 30
0.0
 40
123.62323904739679
 50
356.01116722839038
 51
3.9888327716095779
  0
ARC
  5
59E
  8
DRG
 62
     7
 10
138.3127044990861
 20
91.844139685506775
 30
0.0
 40
10.2528691067876
 50
83.7965056449153
 51
143.68693404466879
  0
LINE
  5
59F
  8
DRG
 62
     7
 10
119.0096173095521
 20
102.0369718403326
 30
0.0
 11
130.05101171535759
 21
102.0369718403326
 31
0.0
  0
LINE
  5
5A0
  8
DRG
 62
     7
 10
130.05101171535759
 20
97.915857504065855
 30
0.0
 11
130.05101171535759
 21
102.0369718403326
 31
0.0
  0
LINE
  5
5A1
  8
DRG
 62
     7
 10
139.4206293992797
 20
102.0369718403326
 30
0.0
 11
139.4206293992797
 21
93.569427875032716
 31
0.0
  0
LINE
  5
5A2
  8
DRG
 62
     7
 10
139.4206293992797
 20
93.569427875032716
 30
0.0
 11
138.05101171535759
 21
93.569427875032716
 31
0.0
  0
LINE
  5
5A3
  8
DRG
 62
     7
 10
153.2899770207527
 20
82.583583780839604
 30
0.0
 11
160.9346181585602
 21
102.0369718403326
 31
0.0
  0
LINE
  5
5A4
  8
DRG
 62
     7
 10
176.9709164189357
 20
78.31140447718235
 30
0.0
 11
176.9709164189357
 21
86.855763084496857
 31
0.0
  0
LINE
  5
5A5
  8
DRG
 62
     7
 10
176.9709164189357
 20
78.31140447718235
 30
0.0
 11
165.4162645291251
 21
78.31140447718235
 31
0.0
  0
LINE
  5
5A6
  8
DRG
 62
     7
 10
160.9346181585602
 20
102.0369718403326
 30
0.0
 11
171.38205787173379
 21
102.0369718403326
 31
0.0
  0
LINE
  5
5A7
  8
DRG
 62
     7
 10
165.4162645291251
 20
86.855763084496857
 30
0.0
 11
171.38205787173379
 21
102.0369718403326
 31
0.0
  0
LINE
  5
5A8
  8
DRG
 62
     7
 10
176.9709164189357
 20
86.855763084496857
 30
0.0
 11
165.4162645291251
 21
86.855763084496857
 31
0.0
  0
ENDBLK
  5
5AA
  8
0
  0
BLOCK
  8
0
  2
ROTORK_GEARS_LOGO
 70
     0
 10
0.0
 20
0.0
 30
0.0
  3
ROTORK_GEARS_LOGO
  1

  0
INSERT
  5
5AC
  8
0
  2
LOGO
 10
16.592937132437999
 20
3.1720898939720419
 30
0.0
  0
ENDBLK
  5
5AE
  8
0
  0
BLOCK
  8
0
  2
*U3
 70
     1
 10
0.0
 20
0.0
 30
0.0
  3
*U3
  1

  0
SOLID
  5
5D2
  8
DRG
  6
CONTINUOUS
 62
     7
 10
28.124856726242442
 20
3.695440198839492
 30
0.0
 11
18.100585347853119
 21
3.392610111620797
 31
0.0
 12
25.69916102541524
 22
3.392610111620797
 32
0.0
 13
25.69916102541524
 23
3.392610111620797
 33
0.0
210
0.0
220
0.0
230
1.0
  0
SOLID
  5
5D3
  8
DRG
  6
CONTINUOUS
 62
     7
 10
15.651221102570281
 20
3.7161341341757188
 30
0.0
 11
18.100585347853119
 21
3.392610111620797
 31
0.0
 12
28.124856726242442
 22
3.695440198839492
 32
0.0
 13
28.124856726242442
 23
3.695440198839492
 33
0.0
210
0.0
220
0.0
230
1.0
  0
SOLID
  5
5D4
  8
DRG
  6
CONTINUOUS
 62
     7
 10
30.444404348840269
 20
4.4670647974864996
 30
0.0
 11
15.651221102570281
 21
3.7161341341757188
 31
0.0
 12
28.124856726242442
 22
3.695440198839492
 32
0.0
 13
28.124856726242442
 23
3.695440198839492
 33
0.0
210
0.0
220
0.0
230
1.0
  0
SOLID
  5
5D5
  8
DRG
  6
CONTINUOUS
 62
     7
 10
13.34408206983799
 20
4.5999681021150032
 30
0.0
 11
15.651221102570281
 21
3.7161341341757188
 31
0.0
 12
30.444404348840269
 22
4.4670647974864996
 32
0.0
 13
30.444404348840269
 23
4.4670647974864996
 33
0.0
210
0.0
220
0.0
230
1.0
  0
SOLID
  5
5D6
  8
DRG
  6
CONTINUOUS
 62
     7
 10
32.56812438828284
 20
5.6776509731908433
 30
0.0
 11
13.34408206983799
 21
4.5999681021150032
 31
0.0
 12
30.444404348840269
 22
4.4670647974864996
 32
0.0
 13
30.444404348840269
 23
4.4670647974864996
 33
0.0
210
0.0
220
0.0
230
1.0
  0
SOLID
  5
5D7
  8
DRG
  6
CONTINUOUS
 62
     7
 10
11.305475926518399
 20
5.9957252413264612
 30
0.0
 11
13.34408206983799
 21
4.5999681021150032
 31
0.0
 12
32.56812438828284
 22
5.6776509731908433
 32
0.0
 13
32.56812438828284
 23
5.6776509731908433
 33
0.0
210
0.0
220
0.0
230
1.0
  0
SOLID
  5
5D8
  8
DRG
  6
CONTINUOUS
 62
     7
 10
34.413908523153097
 20
7.2803944405609959
 30
0.0
 11
11.305475926518399
 21
5.9957252413264612
 31
0.0
 12
32.56812438828284
 22
5.6776509731908433
 32
0.0
 13
32.56812438828284
 23
5.6776509731908433
 33
0.0
210
0.0
220
0.0
230
1.0
  0
SOLID
  5
5D9
  8
DRG
  6
CONTINUOUS
 62
     7
 10
9.6470091264690279
 20
7.8269928002522784
 30
0.0
 11
11.305475926518399
 21
5.9957252413264612
 31
0.0
 12
34.413908523153097
 22
7.2803944405609959
 32
0.0
 13
34.413908523153097
 23
7.2803944405609959
 33
0.0
210
0.0
220
0.0
230
1.0
  0
SOLID
  5
5DA
  8
DRG
  6
CONTINUOUS
 62
     7
 10
35.910394128341451
 20
9.2133291337672762
 30
0.0
 11
9.6470091264690279
 21
7.8269928002522784
 31
0.0
 12
34.413908523153097
 22
7.2803944405609959
 32
0.0
 13
34.413908523153097
 23
7.2803944405609959
 33
0.0
210
0.0
220
0.0
230
1.0
  0
SOLID
  5
5DB
  8
DRG
  6
CONTINUOUS
 62
     7
 10
23.40592258650463
 20
9.658646647821115
 30
0.0
 11
9.6470091264690279
 21
7.8269928002522784
 31
0.0
 12
35.910394128341451
 22
9.2133291337672762
 32
0.0
 13
35.910394128341451
 23
9.2133291337672762
 33
0.0
210
0.0
220
0.0
230
1.0
  0
SOLID
  5
5DC
  8
DRG
  6
CONTINUOUS
 62
     7
 10
22.212746377216352
 20
9.8476271939377913
 30
0.0
 11
9.6470091264690279
 21
7.8269928002522784
 31
0.0
 12
23.40592258650463
 22
9.658646647821115
 32
0.0
 13
23.40592258650463
 23
9.658646647821115
 33
0.0
210
0.0
220
0.0
230
1.0
  0
SOLID
  5
5DD
  8
DRG
  6
CONTINUOUS
 62
     7
 10
24.599098795792909
 20
9.8476271939377931
 30
0.0
 11
23.40592258650463
 21
9.658646647821115
 31
0.0
 12
35.910394128341451
 22
9.2133291337672762
 32
0.0
 13
35.910394128341451
 23
9.2133291337672762
 33
0.0
210
0.0
220
0.0
230
1.0
  0
SOLID
  5
5DE
  8
DRG
  6
CONTINUOUS
 62
     7
 10
8.4594768431472307
 20
9.9935153769425522
 30
0.0
 11
9.6470091264690279
 21
7.8269928002522784
 31
0.0
 12
22.212746377216352
 22
9.8476271939377913
 32
0.0
 13
22.212746377216352
 23
9.8476271939377913
 33
0.0
210
0.0
220
0.0
230
1.0
  0
SOLID
  5
5DF
  8
DRG
  6
CONTINUOUS
 62
     7
 10
21.136366568640689
 20
10.39607009972903
 30
0.0
 11
8.4594768431472307
 21
9.9935153769425522
 31
0.0
 12
22.212746377216352
 22
9.8476271939377913
 32
0.0
 13
22.212746377216352
 23
9.8476271939377913
 33
0.0
210
0.0
220
0.0
230
1.0
  0
SOLID
  5
5E0
  8
DRG
  6
CONTINUOUS
 62
     7
 10
25.675478604368571
 20
10.39607009972903
 30
0.0
 11
24.599098795792909
 21
9.8476271939377931
 31
0.0
 12
35.910394128341451
 22
9.2133291337672762
 32
0.0
 13
35.910394128341451
 23
9.2133291337672762
 33
0.0
210
0.0
220
0.0
230
1.0
  0
SOLID
  5
5E1
  8
DRG
  6
CONTINUOUS
 62
     7
 10
20.282146716020151
 20
11.25028995234956
 30
0.0
 11
8.4594768431472307
 21
9.9935153769425522
 31
0.0
 12
21.136366568640689
 22
10.39607009972903
 32
0.0
 13
21.136366568640689
 23
10.39607009972903
 33
0.0
210
0.0
220
0.0
230
1.0
  0
SOLID
  5
5E2
  8
DRG
  6
CONTINUOUS
 62
     7
 10
26.529698456989109
 20
11.25028995234957
 30
0.0
 11
25.675478604368571
 21
10.39607009972903
 31
0.0
 12
35.910394128341451
 22
9.2133291337672762
 32
0.0
 13
35.910394128341451
 23
9.2133291337672762
 33
0.0
210
0.0
220
0.0
230
1.0
  0
SOLID
  5
5E3
  8
DRG
  6
CONTINUOUS
 62
     7
 10
36.999723332384292
 20
11.40172296942753
 30
0.0
 11
26.529698456989109
 21
11.25028995234957
 31
0.0
 12
35.910394128341451
 22
9.2133291337672762
 32
0.0
 13
35.910394128341451
 23
9.2133291337672762
 33
0.0
  0
SOLID
  5
5E4
  8
DRG
  6
CONTINUOUS
 62
     7
 10
19.73370381022891
 20
12.32666976092522
 30
0.0
 11
8.4594768431472307
 21
9.9935153769425522
 31
0.0
 12
20.282146716020151
 22
11.25028995234956
 32
0.0
 13
20.282146716020151
 23
11.25028995234956
 33
0.0
210
0.0
220
0.0
230
1.0
  0
SOLID
  5
5E5
  8
DRG
  6
CONTINUOUS
 62
     7
 10
27.07814136278035
 20
12.326669760925229
 30
0.0
 11
26.529698456989109
 21
11.25028995234957
 31
0.0
 12
36.999723332384292
 22
11.40172296942753
 32
0.0
 13
36.999723332384292
 23
11.40172296942753
 33
0.0
210
0.0
220
0.0
230
1.0
  0
SOLID
  5
5E6
  8
DRG
  6
CONTINUOUS
 62
     7
 10
7.8078922559830843
 20
12.37668354662976
 30
0.0
 11
8.4594768431472307
 21
9.9935153769425522
 31
0.0
 12
19.73370381022891
 22
12.32666976092522
 32
0.0
 13
19.73370381022891
 23
12.32666976092522
 33
0.0
210
0.0
220
0.0
230
1.0
  0
SOLID
  5
5E7
  8
DRG
  6
CONTINUOUS
 62
     7
 10
19.544723264112228
 20
13.51984597021351
 30
0.0
 11
7.8078922559830843
 21
12.37668354662976
 31
0.0
 12
19.73370381022891
 22
12.32666976092522
 32
0.0
 13
19.73370381022891
 23
12.32666976092522
 33
0.0
210
0.0
220
0.0
230
1.0
  0
SOLID
  5
5E8
  8
DRG
  6
CONTINUOUS
 62
     7
 10
27.267121908897021
 20
13.51984597021351
 30
0.0
 11
27.07814136278035
 21
12.326669760925229
 31
0.0
 12
36.999723332384292
 22
11.40172296942753
 32
0.0
 13
36.999723332384292
 23
11.40172296942753
 33
0.0
210
0.0
220
0.0
230
1.0
  0
SOLID
  5
5E9
  8
DRG
  6
CONTINUOUS
 62
     7
 10
37.639779947293839
 20
13.760967175618781
 30
0.0
 11
27.267121908897021
 21
13.51984597021351
 31
0.0
 12
36.999723332384292
 22
11.40172296942753
 32
0.0
 13
36.999723332384292
 23
11.40172296942753
 33
0.0
210
0.0
220
0.0
230
1.0
  0
SOLID
  5
5EA
  8
DRG
  6
CONTINUOUS
 62
     7
 10
19.544723264112228
 20
13.51984597021351
 30
0.0
 11
19.544723264112239
 21
14.846027306936771
 31
0.0
 12
7.7279273094568479
 22
14.846027306936771
 32
0.0
 13
7.7279273094568479
 23
14.846027306936771
 33
0.0
210
0.0
220
0.0
230
1.0
  0
SOLID
  5
5EB
  8
DRG
  6
CONTINUOUS
 62
     7
 10
7.7279273094568479
 20
14.846027306936771
 30
0.0
 11
7.8078922559830843
 21
12.37668354662976
 31
0.0
 12
19.544723264112228
 22
13.51984597021351
 32
0.0
 13
19.544723264112228
 23
13.51984597021351
 33
0.0
210
0.0
220
0.0
230
1.0
  0
SOLID
  5
5EC
  8
DRG
  6
CONTINUOUS
 62
     7
 10
54.127398529894847
 20
16.09221395983171
 30
0.0
 11
56.468482394088369
 21
15.861637324670481
 31
0.0
 12
62.280536421539182
 22
15.861637324670481
 32
0.0
 13
62.280536421539182
 23
15.861637324670481
 33
0.0
210
0.0
220
0.0
230
1.0
  0
SOLID
  5
5ED
  8
DRG
  6
CONTINUOUS
 62
     7
 10
161.43336855799819
 20
16.09221395983171
 30
0.0
 11
153.28023066635379
 21
15.861637324670481
 31
0.0
 12
159.0922846938046
 22
15.861637324670481
 32
0.0
 13
159.0922846938046
 23
15.861637324670481
 33
0.0
210
0.0
220
0.0
230
1.0
  0
SOLID
  5
5EE
  8
DRG
  6
CONTINUOUS
 62
     7
 10
64.621620285732703
 20
16.09221395983171
 30
0.0
 11
54.127398529894847
 21
16.09221395983171
 31
0.0
 12
62.280536421539182
 22
15.861637324670481
 32
0.0
 13
62.280536421539182
 23
15.861637324670481
 33
0.0
210
0.0
220
0.0
230
1.0
  0
SOLID
  5
5EF
  8
DRG
  6
CONTINUOUS
 62
     7
 10
150.93914680216031
 20
16.09221395983171
 30
0.0
 11
153.28023066635379
 21
15.861637324670481
 31
0.0
 12
161.43336855799819
 22
16.09221395983171
 32
0.0
 13
161.43336855799819
 23
16.09221395983171
 33
0.0
210
0.0
220
0.0
230
1.0
  0
SOLID
  5
5F0
  8
DRG
  6
CONTINUOUS
 62
     7
 10
51.876281205707329
 20
16.775082934535021
 30
0.0
 11
54.127398529894847
 21
16.09221395983171
 31
0.0
 12
64.621620285732703
 22
16.09221395983171
 32
0.0
 13
64.621620285732703
 23
16.09221395983171
 33
0.0
210
0.0
220
0.0
230
1.0
  0
SOLID
  5
5F1
  8
DRG
  6
CONTINUOUS
 62
     7
 10
66.87273760992025
 20
16.775082934535039
 30
0.0
 11
51.876281205707329
 21
16.775082934535021
 31
0.0
 12
64.621620285732703
 22
16.09221395983171
 32
0.0
 13
64.621620285732703
 23
16.09221395983171
 33
0.0
210
0.0
220
0.0
230
1.0
  0
SOLID
  5
5F2
  8
DRG
  6
CONTINUOUS
 62
     7
 10
163.6844858821857
 20
16.775082934535039
 30
0.0
 11
150.93914680216031
 21
16.09221395983171
 31
0.0
 12
161.43336855799819
 22
16.09221395983171
 32
0.0
 13
161.43336855799819
 23
16.09221395983171
 33
0.0
210
0.0
220
0.0
230
1.0
  0
SOLID
  5
5F3
  8
DRG
  6
CONTINUOUS
 62
     7
 10
148.6880294779728
 20
16.775082934535039
 30
0.0
 11
150.93914680216031
 21
16.09221395983171
 31
0.0
 12
163.6844858821857
 22
16.775082934535039
 32
0.0
 13
163.6844858821857
 23
16.775082934535039
 33
0.0
210
0.0
220
0.0
230
1.0
  0
SOLID
  5
5F4
  8
DRG
  6
CONTINUOUS
 62
     7
 10
89.046034371584071
 20
17.264455427868601
 30
0.0
 11
91.053870003696062
 21
17.031015276218469
 31
0.0
 12
93.065845423427419
 22
17.225574111478739
 32
0.0
 13
93.065845423427419
 23
17.225574111478739
 33
0.0
210
0.0
220
0.0
230
1.0
  0
SOLID
  5
5F5
  8
DRG
  6
CONTINUOUS
 62
     7
 10
94.991749269489972
 20
17.839408458597301
 30
0.0
 11
89.046034371584071
 21
17.264455427868601
 31
0.0
 12
93.065845423427419
 22
17.225574111478739
 32
0.0
 13
93.065845423427419
 23
17.225574111478739
 33
0.0
210
0.0
220
0.0
230
1.0
  0
SOLID
  5
5F6
  8
DRG
  6
CONTINUOUS
 62
     7
 10
49.801639597853189
 20
17.884001977039901
 30
0.0
 11
51.876281205707329
 21
16.775082934535021
 31
0.0
 12
66.87273760992025
 22
16.775082934535039
 32
0.0
 13
66.87273760992025
 23
16.775082934535039
 33
0.0
210
0.0
220
0.0
230
1.0
  0
SOLID
  5
5F7
  8
DRG
  6
CONTINUOUS
 62
     7
 10
68.947379217774412
 20
17.88400197703994
 30
0.0
 11
49.801639597853189
 21
17.884001977039901
 31
0.0
 12
66.87273760992025
 22
16.775082934535039
 32
0.0
 13
66.87273760992025
 23
16.775082934535039
 33
0.0
210
0.0
220
0.0
230
1.0
  0
SOLID
  5
5F8
  8
DRG
  6
CONTINUOUS
 62
     7
 10
165.7591274900399
 20
17.88400197703994
 30
0.0
 11
148.6880294779728
 21
16.775082934535039
 31
0.0
 12
163.6844858821857
 22
16.775082934535039
 32
0.0
 13
163.6844858821857
 23
16.775082934535039
 33
0.0
210
0.0
220
0.0
230
1.0
  0
SOLID
  5
5F9
  8
DRG
  6
CONTINUOUS
 62
     7
 10
146.6133878701186
 20
17.88400197703994
 30
0.0
 11
148.6880294779728
 21
16.775082934535039
 31
0.0
 12
165.7591274900399
 22
17.88400197703994
 32
0.0
 13
165.7591274900399
 23
17.88400197703994
 33
0.0
210
0.0
220
0.0
230
1.0
  0
SOLID
  5
5FA
  8
DRG
  6
CONTINUOUS
 62
     7
 10
87.132364271859174
 20
17.915427761689291
 30
0.0
 11
89.046034371584071
 21
17.264455427868601
 31
0.0
 12
94.991749269489972
 22
17.839408458597301
 32
0.0
 13
94.991749269489972
 23
17.839408458597301
 33
0.0
210
0.0
220
0.0
230
1.0
  0
SOLID
  5
5FB
  8
DRG
  6
CONTINUOUS
 62
     7
 10
97.202192775961791
 20
18.641522921873062
 30
0.0
 11
87.132364271859174
 21
17.915427761689291
 31
0.0
 12
94.991749269489972
 22
17.839408458597301
 32
0.0
 13
94.991749269489972
 23
17.839408458597301
 33
0.0
210
0.0
220
0.0
230
1.0
  0
SOLID
  5
5FC
  8
DRG
  6
CONTINUOUS
 62
     7
 10
85.398663329684837
 20
18.95474449545469
 30
0.0
 11
87.132364271859174
 21
17.915427761689291
 31
0.0
 12
97.202192775961791
 22
18.641522921873062
 32
0.0
 13
97.202192775961791
 23
18.641522921873062
 33
0.0
210
0.0
220
0.0
230
1.0
  0
SOLID
  5
5FD
  8
DRG
  6
CONTINUOUS
 62
     7
 10
16.093232463699319
 20
19.321420959942859
 30
0.0
 11
18.58303542025671
 21
18.945146626805109
 31
0.0
 12
20.548060271541839
 22
19.190646711498921
 32
0.0
 13
20.548060271541839
 23
19.190646711498921
 33
0.0
210
0.0
220
0.0
230
1.0
  0
SOLID
  5
5FE
  8
DRG
  6
CONTINUOUS
 62
     7
 10
47.983201019849858
 20
19.37635595043184
 30
0.0
 11
49.801639597853189
 21
17.884001977039901
 31
0.0
 12
68.947379217774412
 22
17.88400197703994
 32
0.0
 13
68.947379217774412
 23
17.88400197703994
 33
0.0
210
0.0
220
0.0
230
1.0
  0
SOLID
  5
5FF
  8
DRG
  6
CONTINUOUS
 62
     7
 10
70.76581779577775
 20
19.376355950431911
 30
0.0
 11
47.983201019849858
 21
19.37635595043184
 31
0.0
 12
68.947379217774412
 22
17.88400197703994
 32
0.0
 13
68.947379217774412
 23
17.88400197703994
 33
0.0
210
0.0
220
0.0
230
1.0
  0
SOLID
  5
600
  8
DRG
  6
CONTINUOUS
 62
     7
 10
167.57756606804321
 20
19.376355950431911
 30
0.0
 11
146.6133878701186
 21
17.88400197703994
 31
0.0
 12
165.7591274900399
 22
17.88400197703994
 32
0.0
 13
165.7591274900399
 23
17.88400197703994
 33
0.0
210
0.0
220
0.0
230
1.0
  0
SOLID
  5
601
  8
DRG
  6
CONTINUOUS
 62
     7
 10
144.79494929211521
 20
19.376355950431911
 30
0.0
 11
146.6133878701186
 21
17.88400197703994
 31
0.0
 12
167.57756606804321
 22
19.376355950431911
 32
0.0
 13
167.57756606804321
 23
19.376355950431911
 33
0.0
210
0.0
220
0.0
230
1.0
  0
SOLID
  5
602
  8
DRG
  6
CONTINUOUS
 62
     7
 10
102.3181837587821
 20
19.484710699009419
 30
0.0
 11
102.6710305977499
 21
17.89352120355198
 31
0.0
 12
111.8021775281067
 22
17.893521203552009
 32
0.0
 13
111.8021775281067
 23
17.893521203552009
 33
0.0
210
0.0
220
0.0
230
1.0
  0
SOLID
  5
603
  8
DRG
  6
CONTINUOUS
 62
     7
 10
22.41344183966368
 20
19.855435823220908
 30
0.0
 11
16.093232463699319
 21
19.321420959942859
 31
0.0
 12
20.548060271541839
 22
19.190646711498921
 32
0.0
 13
20.548060271541839
 23
19.190646711498921
 33
0.0
  0
SOLID
  5
604
  8
DRG
  6
CONTINUOUS
 62
     7
 10
99.18720752242109
 20
19.902143627652059
 30
0.0
 11
85.398663329684837
 21
18.95474449545469
 31
0.0
 12
97.202192775961791
 22
18.641522921873062
 32
0.0
 13
97.202192775961791
 23
18.641522921873062
 33
0.0
210
0.0
220
0.0
230
1.0
  0
SOLID
  5
605
  8
DRG
  6
CONTINUOUS
 62
     7
 10
13.73510429051534
 20
20.204558919208651
 30
0.0
 11
16.093232463699319
 21
19.321420959942859
 31
0.0
 12
22.41344183966368
 22
19.855435823220908
 32
0.0
 13
22.41344183966368
 23
19.855435823220908
 33
0.0
210
0.0
220
0.0
230
1.0
  0
SOLID
  5
606
  8
DRG
  6
CONTINUOUS
 62
     7
 10
111.2870334115631
 20
20.69438210209054
 30
0.0
 11
102.3181837587821
 21
19.484710699009419
 31
0.0
 12
111.8021775281067
 22
17.893521203552009
 32
0.0
 13
111.8021775281067
 23
17.893521203552009
 33
0.0
210
0.0
220
0.0
230
1.0
  0
SOLID
  5
607
  8
DRG
  6
CONTINUOUS
 62
     7
 10
83.724920350627414
 20
20.818044783243639
 30
0.0
 11
85.398663329684837
 21
18.95474449545469
 31
0.0
 12
99.18720752242109
 22
19.902143627652059
 32
0.0
 13
99.18720752242109
 23
19.902143627652059
 33
0.0
210
0.0
220
0.0
230
1.0
  0
SOLID
  5
608
  8
DRG
  6
CONTINUOUS
 62
     7
 10
24.090833070868062
 20
20.90802862921548
 30
0.0
 11
13.73510429051534
 21
20.204558919208651
 31
0.0
 12
22.41344183966368
 22
19.855435823220908
 32
0.0
 13
22.41344183966368
 23
19.855435823220908
 33
0.0
  0
SOLID
  5
609
  8
DRG
  6
CONTINUOUS
 62
     7
 10
102.1211660476033
 20
21.102600968374279
 30
0.0
 11
102.3181837587821
 21
19.484710699009419
 31
0.0
 12
111.2870334115631
 22
20.69438210209054
 32
0.0
 13
111.2870334115631
 23
20.69438210209054
 33
0.0
210
0.0
220
0.0
230
1.0
  0
SOLID
  5
60A
  8
DRG
  6
CONTINUOUS
 62
     7
 10
46.490847046457887
 20
21.19479452843516
 30
0.0
 11
47.983201019849858
 21
19.37635595043184
 31
0.0
 12
70.76581779577775
 22
19.376355950431911
 32
0.0
 13
70.76581779577775
 23
19.376355950431911
 33
0.0
210
0.0
220
0.0
230
1.0
  0
SOLID
  5
60B
  8
DRG
  6
CONTINUOUS
 62
     7
 10
169.06992004143521
 20
21.194794528435249
 30
0.0
 11
144.79494929211521
 21
19.376355950431911
 31
0.0
 12
167.57756606804321
 22
19.376355950431911
 32
0.0
 13
167.57756606804321
 23
19.376355950431911
 33
0.0
210
0.0
220
0.0
230
1.0
  0
SOLID
  5
60C
  8
DRG
  6
CONTINUOUS
 62
     7
 10
72.258171769169721
 20
21.194794528435249
 30
0.0
 11
46.490847046457887
 21
21.19479452843516
 31
0.0
 12
70.76581779577775
 22
19.376355950431911
 32
0.0
 13
70.76581779577775
 23
19.376355950431911
 33
0.0
  0
SOLID
  5
60D
  8
DRG
  6
CONTINUOUS
 62
     7
 10
143.30259531872329
 20
21.194794528435249
 30
0.0
 11
144.79494929211521
 21
19.376355950431911
 31
0.0
 12
169.06992004143521
 22
21.194794528435249
 32
0.0
 13
169.06992004143521
 23
21.194794528435249
 33
0.0
210
0.0
220
0.0
230
1.0
  0
SOLID
  5
60E
  8
DRG
  6
CONTINUOUS
 62
     7
 10
11.61064502436718
 20
21.55636288529891
 30
0.0
 11
13.73510429051534
 21
20.204558919208651
 31
0.0
 12
24.090833070868062
 22
20.90802862921548
 32
0.0
 13
24.090833070868062
 23
20.90802862921548
 33
0.0
210
0.0
220
0.0
230
1.0
  0
SOLID
  5
60F
  8
DRG
  6
CONTINUOUS
 62
     7
 10
100.8530806557153
 20
21.561756477466091
 30
0.0
 11
83.724920350627414
 21
20.818044783243639
 31
0.0
 12
99.18720752242109
 22
19.902143627652059
 32
0.0
 13
99.18720752242109
 23
19.902143627652059
 33
0.0
210
0.0
220
0.0
230
1.0
  0
SOLID
  5
610
  8
DRG
  6
CONTINUOUS
 62
     7
 10
25.500790394036571
 20
22.298572876838069
 30
0.0
 11
11.61064502436718
 21
21.55636288529891
 31
0.0
 12
24.090833070868062
 22
20.90802862921548
 32
0.0
 13
24.090833070868062
 23
20.90802862921548
 33
0.0
210
0.0
220
0.0
230
1.0
  0
SOLID
  5
611
  8
DRG
  6
CONTINUOUS
 62
     7
 10
82.474422287265327
 20
22.98819641756462
 30
0.0
 11
83.724920350627414
 21
20.818044783243639
 31
0.0
 12
100.8530806557153
 22
21.561756477466091
 32
0.0
 13
100.8530806557153
 23
21.561756477466091
 33
0.0
210
0.0
220
0.0
230
1.0
  0
SOLID
  5
612
  8
DRG
  6
CONTINUOUS
 62
     7
 10
45.381928003952979
 20
23.269436136289279
 30
0.0
 11
46.490847046457887
 21
21.19479452843516
 31
0.0
 12
72.258171769169721
 22
21.194794528435249
 32
0.0
 13
72.258171769169721
 23
21.194794528435249
 33
0.0
210
0.0
220
0.0
230
1.0
  0
SOLID
  5
613
  8
DRG
  6
CONTINUOUS
 62
     7
 10
73.367090811674615
 20
23.2694361362894
 30
0.0
 11
45.381928003952979
 21
23.269436136289279
 31
0.0
 12
72.258171769169721
 22
21.194794528435249
 32
0.0
 13
72.258171769169721
 23
21.194794528435249
 33
0.0
210
0.0
220
0.0
230
1.0
  0
SOLID
  5
614
  8
DRG
  6
CONTINUOUS
 62
     7
 10
170.17883908394009
 20
23.2694361362894
 30
0.0
 11
143.30259531872329
 21
21.194794528435249
 31
0.0
 12
169.06992004143521
 22
21.194794528435249
 32
0.0
 13
169.06992004143521
 23
21.194794528435249
 33
0.0
210
0.0
220
0.0
230
1.0
  0
SOLID
  5
615
  8
DRG
  6
CONTINUOUS
 62
     7
 10
142.19367627621841
 20
23.2694361362894
 30
0.0
 11
143.30259531872329
 21
21.194794528435249
 31
0.0
 12
170.17883908394009
 22
23.2694361362894
 32
0.0
 13
170.17883908394009
 23
23.2694361362894
 33
0.0
210
0.0
220
0.0
230
1.0
  0
SOLID
  5
616
  8
DRG
  6
CONTINUOUS
 62
     7
 10
9.8117421052893903
 20
23.318364424456458
 30
0.0
 11
11.61064502436718
 21
21.55636288529891
 31
0.0
 12
25.500790394036571
 22
22.298572876838069
 32
0.0
 13
25.500790394036571
 23
22.298572876838069
 33
0.0
210
0.0
220
0.0
230
1.0
  0
SOLID
  5
617
  8
DRG
  6
CONTINUOUS
 62
     7
 10
111.2523129779601
 20
23.54201089202471
 30
0.0
 11
102.1211660476033
 21
21.102600968374279
 31
0.0
 12
111.2870334115631
 22
20.69438210209054
 32
0.0
 13
111.2870334115631
 23
20.69438210209054
 33
0.0
210
0.0
220
0.0
230
1.0
  0
SOLID
  5
618
  8
DRG
  6
CONTINUOUS
 62
     7
 10
102.1211660476033
 20
23.542010892025001
 30
0.0
 11
82.474422287265327
 21
22.98819641756462
 31
0.0
 12
100.8530806557153
 22
21.561756477466091
 32
0.0
 13
100.8530806557153
 23
21.561756477466091
 33
0.0
210
0.0
220
0.0
230
1.0
  0
SOLID
  5
619
  8
DRG
  6
CONTINUOUS
 62
     7
 10
102.1211660476033
 20
23.542010892025001
 30
0.0
 11
102.1211660476033
 21
21.102600968374279
 31
0.0
 12
111.2523129779601
 22
23.54201089202471
 32
0.0
 13
111.2523129779601
 23
23.54201089202471
 33
0.0
210
0.0
220
0.0
230
1.0
  0
SOLID
  5
61A
  8
DRG
  6
CONTINUOUS
 62
     7
 10
95.863486513980718
 20
23.758749615986972
 30
0.0
 11
102.1211660476033
 21
23.542010892025001
 31
0.0
 12
111.2523129779601
 22
23.54201089202471
 32
0.0
 13
111.2523129779601
 23
23.54201089202471
 33
0.0
210
0.0
220
0.0
230
1.0
  0
SOLID
  5
61B
  8
DRG
  6
CONTINUOUS
 62
     7
 10
95.863486513980718
 20
23.758749615986972
 30
0.0
 11
82.474422287265327
 21
22.98819641756462
 31
0.0
 12
102.1211660476033
 22
23.542010892025001
 32
0.0
 13
102.1211660476033
 23
23.542010892025001
 33
0.0
210
0.0
220
0.0
230
1.0
  0
SOLID
  5
61C
  8
DRG
  6
CONTINUOUS
 62
     7
 10
156.18625891463009
 20
23.758749615986972
 30
0.0
 11
142.19367627621841
 21
23.2694361362894
 31
0.0
 12
170.17883908394009
 22
23.2694361362894
 32
0.0
 13
170.17883908394009
 23
23.2694361362894
 33
0.0
210
0.0
220
0.0
230
1.0
  0
SOLID
  5
61D
  8
DRG
  6
CONTINUOUS
 62
     7
 10
59.374510642364612
 20
23.758749615986979
 30
0.0
 11
45.381928003952979
 21
23.269436136289279
 31
0.0
 12
73.367090811674615
 22
23.2694361362894
 32
0.0
 13
73.367090811674615
 23
23.2694361362894
 33
0.0
210
0.0
220
0.0
230
1.0
  0
SOLID
  5
61E
  8
DRG
  6
CONTINUOUS
 62
     7
 10
154.99308270534181
 20
23.947730162103639
 30
0.0
 11
142.19367627621841
 21
23.2694361362894
 31
0.0
 12
156.18625891463009
 22
23.758749615986972
 32
0.0
 13
156.18625891463009
 23
23.758749615986972
 33
0.0
210
0.0
220
0.0
230
1.0
  0
SOLID
  5
61F
  8
DRG
  6
CONTINUOUS
 62
     7
 10
157.3794351239184
 20
23.947730162103639
 30
0.0
 11
156.18625891463009
 21
23.758749615986972
 31
0.0
 12
170.17883908394009
 22
23.2694361362894
 32
0.0
 13
170.17883908394009
 23
23.2694361362894
 33
0.0
210
0.0
220
0.0
230
1.0
  0
SOLID
  5
620
  8
DRG
  6
CONTINUOUS
 62
     7
 10
58.18133443307633
 20
23.94773016210365
 30
0.0
 11
45.381928003952979
 21
23.269436136289279
 31
0.0
 12
59.374510642364612
 22
23.758749615986979
 32
0.0
 13
59.374510642364612
 23
23.758749615986979
 33
0.0
210
0.0
220
0.0
230
1.0
  0
SOLID
  5
621
  8
DRG
  6
CONTINUOUS
 62
     7
 10
60.567686851652887
 20
23.94773016210365
 30
0.0
 11
59.374510642364612
 21
23.758749615986979
 31
0.0
 12
73.367090811674615
 22
23.2694361362894
 32
0.0
 13
73.367090811674615
 23
23.2694361362894
 33
0.0
210
0.0
220
0.0
230
1.0
  0
SOLID
  5
622
  8
DRG
  6
CONTINUOUS
 62
     7
 10
94.670310304692478
 20
23.947730162103682
 30
0.0
 11
82.474422287265327
 21
22.98819641756462
 31
0.0
 12
95.863486513980718
 22
23.758749615986972
 32
0.0
 13
95.863486513980718
 23
23.758749615986972
 33
0.0
210
0.0
220
0.0
230
1.0
  0
SOLID
  5
623
  8
DRG
  6
CONTINUOUS
 62
     7
 10
26.5765362782073
 20
23.961210465262731
 30
0.0
 11
9.8117421052893903
 21
23.318364424456458
 31
0.0
 12
25.500790394036571
 22
22.298572876838069
 32
0.0
 13
25.500790394036571
 23
22.298572876838069
 33
0.0
210
0.0
220
0.0
230
1.0
  0
SOLID
  5
624
  8
DRG
  6
CONTINUOUS
 62
     7
 10
97.385554555218334
 20
24.044368172161469
 30
0.0
 11
95.863486513980718
 21
23.758749615986972
 31
0.0
 12
111.2523129779601
 22
23.54201089202471
 32
0.0
 13
111.2523129779601
 23
23.54201089202471
 33
0.0
210
0.0
220
0.0
230
1.0
  0
SOLID
  5
625
  8
DRG
  6
CONTINUOUS
 62
     7
 10
153.91670289676611
 20
24.49617306789488
 30
0.0
 11
142.19367627621841
 21
23.2694361362894
 31
0.0
 12
154.99308270534181
 22
23.947730162103639
 32
0.0
 13
154.99308270534181
 23
23.947730162103639
 33
0.0
210
0.0
220
0.0
230
1.0
  0
SOLID
  5
626
  8
DRG
  6
CONTINUOUS
 62
     7
 10
158.45581493249401
 20
24.49617306789488
 30
0.0
 11
157.3794351239184
 21
23.947730162103639
 31
0.0
 12
170.17883908394009
 22
23.2694361362894
 32
0.0
 13
170.17883908394009
 23
23.2694361362894
 33
0.0
210
0.0
220
0.0
230
1.0
  0
SOLID
  5
627
  8
DRG
  6
CONTINUOUS
 62
     7
 10
57.104954624500678
 20
24.49617306789489
 30
0.0
 11
45.381928003952979
 21
23.269436136289279
 31
0.0
 12
58.18133443307633
 22
23.94773016210365
 32
0.0
 13
58.18133443307633
 23
23.94773016210365
 33
0.0
210
0.0
220
0.0
230
1.0
  0
SOLID
  5
628
  8
DRG
  6
CONTINUOUS
 62
     7
 10
61.64406666022856
 20
24.49617306789489
 30
0.0
 11
60.567686851652887
 21
23.94773016210365
 31
0.0
 12
73.367090811674615
 22
23.2694361362894
 32
0.0
 13
73.367090811674615
 23
23.2694361362894
 33
0.0
210
0.0
220
0.0
230
1.0
  0
SOLID
  5
629
  8
DRG
  6
CONTINUOUS
 62
     7
 10
93.593930496116869
 20
24.496173067894951
 30
0.0
 11
82.474422287265327
 21
22.98819641756462
 31
0.0
 12
94.670310304692478
 22
23.947730162103682
 32
0.0
 13
94.670310304692478
 23
23.947730162103682
 33
0.0
210
0.0
220
0.0
230
1.0
  0
SOLID
  5
62A
  8
DRG
  6
CONTINUOUS
 62
     7
 10
98.783379983525563
 20
24.710966367302891
 30
0.0
 11
97.385554555218334
 21
24.044368172161469
 31
0.0
 12
111.2523129779601
 22
23.54201089202471
 32
0.0
 13
111.2523129779601
 23
23.54201089202471
 33
0.0
210
0.0
220
0.0
230
1.0
  0
SOLID
  5
62B
  8
DRG
  6
CONTINUOUS
 62
     7
 10
153.06248304414561
 20
25.350392920515421
 30
0.0
 11
142.19367627621841
 21
23.2694361362894
 31
0.0
 12
153.91670289676611
 22
24.49617306789488
 32
0.0
 13
153.91670289676611
 23
24.49617306789488
 33
0.0
210
0.0
220
0.0
230
1.0
  0
SOLID
  5
62C
  8
DRG
  6
CONTINUOUS
 62
     7
 10
159.3100347851146
 20
25.350392920515429
 30
0.0
 11
158.45581493249401
 21
24.49617306789488
 31
0.0
 12
170.17883908394009
 22
23.2694361362894
 32
0.0
 13
170.17883908394009
 23
23.2694361362894
 33
0.0
210
0.0
220
0.0
230
1.0
  0
SOLID
  5
62D
  8
DRG
  6
CONTINUOUS
 62
     7
 10
56.250734771880133
 20
25.350392920515429
 30
0.0
 11
45.381928003952979
 21
23.269436136289279
 31
0.0
 12
57.104954624500678
 22
24.49617306789489
 32
0.0
 13
57.104954624500678
 23
24.49617306789489
 33
0.0
210
0.0
220
0.0
230
1.0
  0
SOLID
  5
62E
  8
DRG
  6
CONTINUOUS
 62
     7
 10
62.498286512849091
 20
25.350392920515429
 30
0.0
 11
61.64406666022856
 21
24.49617306789489
 31
0.0
 12
73.367090811674615
 22
23.2694361362894
 32
0.0
 13
73.367090811674615
 23
23.2694361362894
 33
0.0
210
0.0
220
0.0
230
1.0
  0
SOLID
  5
62F
  8
DRG
  6
CONTINUOUS
 62
     7
 10
92.739710643496366
 20
25.350392920515478
 30
0.0
 11
82.474422287265327
 21
22.98819641756462
 31
0.0
 12
93.593930496116869
 22
24.496173067894951
 32
0.0
 13
93.593930496116869
 23
24.496173067894951
 33
0.0
  0
SOLID
  5
630
  8
DRG
  6
CONTINUOUS
 62
     7
 10
81.701646597276806
 20
25.370657593613689
 30
0.0
 11
82.474422287265327
 21
22.98819641756462
 31
0.0
 12
92.739710643496366
 22
25.350392920515478
 32
0.0
 13
92.739710643496366
 23
25.350392920515478
 33
0.0
210
0.0
220
0.0
230
1.0
  0
SOLID
  5
631
  8
DRG
  6
CONTINUOUS
 62
     7
 10
8.4162019599518825
 20
25.41435317419046
 30
0.0
 11
9.8117421052893903
 21
23.318364424456458
 31
0.0
 12
26.5765362782073
 22
23.961210465262731
 32
0.0
 13
26.5765362782073
 23
23.961210465262731
 33
0.0
  0
SOLID
  5
632
  8
DRG
  6
CONTINUOUS
 62
     7
 10
22.683854862926161
 20
25.455509253088579
 30
0.0
 11
8.4162019599518825
 21
25.41435317419046
 31
0.0
 12
26.5765362782073
 22
23.961210465262731
 32
0.0
 13
26.5765362782073
 23
23.961210465262731
 33
0.0
210
0.0
220
0.0
230
1.0
  0
SOLID
  5
633
  8
DRG
  6
CONTINUOUS
 62
     7
 10
44.699059029249632
 20
25.52055346047678
 30
0.0
 11
45.381928003952979
 21
23.269436136289279
 31
0.0
 12
56.250734771880133
 22
25.350392920515429
 32
0.0
 13
56.250734771880133
 23
25.350392920515429
 33
0.0
210
0.0
220
0.0
230
1.0
  0
SOLID
  5
634
  8
DRG
  6
CONTINUOUS
 62
     7
 10
74.04995978637794
 20
25.52055346047694
 30
0.0
 11
62.498286512849091
 21
25.350392920515429
 31
0.0
 12
73.367090811674615
 22
23.2694361362894
 32
0.0
 13
73.367090811674615
 23
23.2694361362894
 33
0.0
210
0.0
220
0.0
230
1.0
  0
SOLID
  5
635
  8
DRG
  6
CONTINUOUS
 62
     7
 10
170.86170805864339
 20
25.52055346047694
 30
0.0
 11
159.3100347851146
 21
25.350392920515429
 31
0.0
 12
170.17883908394009
 22
23.2694361362894
 32
0.0
 13
170.17883908394009
 23
23.2694361362894
 33
0.0
210
0.0
220
0.0
230
1.0
  0
SOLID
  5
636
  8
DRG
  6
CONTINUOUS
 62
     7
 10
141.51080730151509
 20
25.52055346047694
 30
0.0
 11
142.19367627621841
 21
23.2694361362894
 31
0.0
 12
153.06248304414561
 22
25.350392920515421
 32
0.0
 13
153.06248304414561
 23
25.350392920515421
 33
0.0
  0
SOLID
  5
637
  8
DRG
  6
CONTINUOUS
 62
     7
 10
21.06007747620443
 20
25.668921983045841
 30
0.0
 11
8.4162019599518825
 21
25.41435317419046
 31
0.0
 12
22.683854862926161
 22
25.455509253088579
 32
0.0
 13
22.683854862926161
 23
25.455509253088579
 33
0.0
210
0.0
220
0.0
230
1.0
  0
SOLID
  5
638
  8
DRG
  6
CONTINUOUS
 62
     7
 10
99.963368130020584
 20
25.713910561123939
 30
0.0
 11
98.783379983525563
 21
24.710966367302891
 31
0.0
 12
111.2523129779601
 22
23.54201089202471
 32
0.0
 13
111.2523129779601
 23
23.54201089202471
 33
0.0
  0
SOLID
  5
639
  8
DRG
  6
CONTINUOUS
 62
     7
 10
27.267121908897021
 20
25.817196576320061
 30
0.0
 11
22.683854862926161
 21
25.455509253088579
 31
0.0
 12
26.5765362782073
 22
23.961210465262731
 32
0.0
 13
26.5765362782073
 23
23.961210465262731
 33
0.0
210
0.0
220
0.0
230
1.0
  0
SOLID
  5
63A
  8
DRG
  6
CONTINUOUS
 62
     7
 10
27.267121908897021
 20
25.817196576320061
 30
0.0
 11
27.267121908897021
 21
13.51984597021351
 31
0.0
 12
37.639779947293839
 22
13.760967175618781
 32
0.0
 13
37.639779947293839
 23
13.760967175618781
 33
0.0
  0
SOLID
  5
63B
  8
DRG
  6
CONTINUOUS
 62
     7
 10
24.307735067847531
 20
26.13412278224882
 30
0.0
 11
22.683854862926161
 21
25.455509253088579
 31
0.0
 12
27.267121908897021
 22
25.817196576320061
 32
0.0
 13
27.267121908897021
 23
25.817196576320061
 33
0.0
210
0.0
220
0.0
230
1.0
  0
SOLID
  5
63C
  8
DRG
  6
CONTINUOUS
 62
     7
 10
19.578817635304372
 20
26.367540103819518
 30
0.0
 11
8.4162019599518825
 21
25.41435317419046
 31
0.0
 12
21.06007747620443
 22
25.668921983045841
 32
0.0
 13
21.06007747620443
 23
25.668921983045841
 33
0.0
210
0.0
220
0.0
230
1.0
  0
SOLID
  5
63D
  8
DRG
  6
CONTINUOUS
 62
     7
 10
152.5140401383544
 20
26.426772729091081
 30
0.0
 11
141.51080730151509
 21
25.52055346047694
 31
0.0
 12
153.06248304414561
 22
25.350392920515421
 32
0.0
 13
153.06248304414561
 23
25.350392920515421
 33
0.0
210
0.0
220
0.0
230
1.0
  0
SOLID
  5
63E
  8
DRG
  6
CONTINUOUS
 62
     7
 10
159.8584776909058
 20
26.426772729091081
 30
0.0
 11
159.3100347851146
 21
25.350392920515429
 31
0.0
 12
170.86170805864339
 22
25.52055346047694
 32
0.0
 13
170.86170805864339
 23
25.52055346047694
 33
0.0
  0
SOLID
  5
63F
  8
DRG
  6
CONTINUOUS
 62
     7
 10
55.702291866088899
 20
26.426772729091091
 30
0.0
 11
44.699059029249632
 21
25.52055346047678
 31
0.0
 12
56.250734771880133
 22
25.350392920515429
 32
0.0
 13
56.250734771880133
 23
25.350392920515429
 33
0.0
210
0.0
220
0.0
230
1.0
  0
SOLID
  5
640
  8
DRG
  6
CONTINUOUS
 62
     7
 10
63.046729418640332
 20
26.426772729091091
 30
0.0
 11
62.498286512849091
 21
25.350392920515429
 31
0.0
 12
74.04995978637794
 22
25.52055346047694
 32
0.0
 13
74.04995978637794
 23
25.52055346047694
 33
0.0
210
0.0
220
0.0
230
1.0
  0
SOLID
  5
641
  8
DRG
  6
CONTINUOUS
 62
     7
 10
92.191267737705175
 20
26.426772729091109
 30
0.0
 11
81.701646597276806
 21
25.370657593613689
 31
0.0
 12
92.739710643496366
 22
25.350392920515478
 32
0.0
 13
92.739710643496366
 23
25.350392920515478
 33
0.0
210
0.0
220
0.0
230
1.0
  0
SOLID
  5
642
  8
DRG
  6
CONTINUOUS
 62
     7
 10
100.8465101302062
 20
26.98604628080799
 30
0.0
 11
99.963368130020584
 21
25.713910561123939
 31
0.0
 12
111.2523129779601
 22
23.54201089202471
 32
0.0
 13
111.2523129779601
 23
23.54201089202471
 33
0.0
  0
SOLID
  5
643
  8
DRG
  6
CONTINUOUS
 62
     7
 10
25.68195691611335
 20
27.233676125040169
 30
0.0
 11
24.307735067847531
 21
26.13412278224882
 31
0.0
 12
27.267121908897021
 22
25.817196576320061
 32
0.0
 13
27.267121908897021
 23
25.817196576320061
 33
0.0
210
0.0
220
0.0
230
1.0
  0
SOLID
  5
644
  8
DRG
  6
CONTINUOUS
 62
     7
 10
18.3813068076863
 20
27.48475351793256
 30
0.0
 11
8.4162019599518825
 21
25.41435317419046
 31
0.0
 12
19.578817635304372
 22
26.367540103819518
 32
0.0
 13
19.578817635304372
 23
26.367540103819518
 33
0.0
210
0.0
220
0.0
230
1.0
  0
SOLID
  5
645
  8
DRG
  6
CONTINUOUS
 62
     7
 10
92.002287191588479
 20
27.619948938379359
 30
0.0
 11
81.701646597276806
 21
25.370657593613689
 31
0.0
 12
92.191267737705175
 22
26.426772729091109
 32
0.0
 13
92.191267737705175
 23
26.426772729091109
 33
0.0
210
0.0
220
0.0
230
1.0
  0
SOLID
  5
646
  8
DRG
  6
CONTINUOUS
 62
     7
 10
152.32505959223769
 20
27.619948938379359
 30
0.0
 11
141.51080730151509
 21
25.52055346047694
 31
0.0
 12
152.5140401383544
 22
26.426772729091081
 32
0.0
 13
152.5140401383544
 23
26.426772729091081
 33
0.0
210
0.0
220
0.0
230
1.0
  0
SOLID
  5
647
  8
DRG
  6
CONTINUOUS
 62
     7
 10
160.04745823702251
 20
27.619948938379359
 30
0.0
 11
159.8584776909058
 21
26.426772729091081
 31
0.0
 12
170.86170805864339
 22
25.52055346047694
 32
0.0
 13
170.86170805864339
 23
25.52055346047694
 33
0.0
  0
SOLID
  5
648
  8
DRG
  6
CONTINUOUS
 62
     7
 10
55.513311319972217
 20
27.61994893837937
 30
0.0
 11
44.699059029249632
 21
25.52055346047678
 31
0.0
 12
55.702291866088899
 22
26.426772729091091
 32
0.0
 13
55.702291866088899
 23
26.426772729091091
 33
0.0
210
0.0
220
0.0
230
1.0
  0
SOLID
  5
649
  8
DRG
  6
CONTINUOUS
 62
     7
 10
63.235709964757007
 20
27.61994893837937
 30
0.0
 11
63.046729418640332
 21
26.426772729091091
 31
0.0
 12
74.04995978637794
 22
25.52055346047694
 32
0.0
 13
74.04995978637794
 23
25.52055346047694
 33
0.0
  0
SOLID
  5
64A
  8
DRG
  6
CONTINUOUS
 62
     7
 10
7.4843847060861783
 20
27.75367310563599
 30
0.0
 11
8.4162019599518825
 21
25.41435317419046
 31
0.0
 12
18.3813068076863
 22
27.48475351793256
 32
0.0
 13
18.3813068076863
 23
27.48475351793256
 33
0.0
210
0.0
220
0.0
230
1.0
  0
SOLID
  5
64B
  8
DRG
  6
CONTINUOUS
 62
     7
 10
44.468482394088362
 20
27.861637324670291
 30
0.0
 11
44.699059029249632
 21
25.52055346047678
 31
0.0
 12
55.513311319972217
 22
27.61994893837937
 32
0.0
 13
55.513311319972217
 23
27.61994893837937
 33
0.0
210
0.0
220
0.0
230
1.0
  0
SOLID
  5
64C
  8
DRG
  6
CONTINUOUS
 62
     7
 10
171.0922846938046
 20
27.861637324670479
 30
0.0
 11
160.04745823702251
 21
27.619948938379359
 31
0.0
 12
170.86170805864339
 22
25.52055346047694
 32
0.0
 13
170.86170805864339
 23
25.52055346047694
 33
0.0
210
0.0
220
0.0
230
1.0
  0
SOLID
  5
64D
  8
DRG
  6
CONTINUOUS
 62
     7
 10
74.280536421539182
 20
27.861637324670479
 30
0.0
 11
63.235709964757007
 21
27.61994893837937
 31
0.0
 12
74.04995978637794
 22
25.52055346047694
 32
0.0
 13
74.04995978637794
 23
25.52055346047694
 33
0.0
210
0.0
220
0.0
230
1.0
  0
SOLID
  5
64E
  8
DRG
  6
CONTINUOUS
 62
     7
 10
81.440258950509346
 20
27.861637324670479
 30
0.0
 11
81.701646597276806
 21
25.370657593613689
 31
0.0
 12
92.002287191588479
 22
27.619948938379359
 32
0.0
 13
92.002287191588479
 23
27.619948938379359
 33
0.0
210
0.0
220
0.0
230
1.0
  0
SOLID
  5
64F
  8
DRG
  6
CONTINUOUS
 62
     7
 10
141.28023066635379
 20
27.861637324670479
 30
0.0
 11
141.51080730151509
 21
25.52055346047694
 31
0.0
 12
152.32505959223769
 22
27.619948938379359
 32
0.0
 13
152.32505959223769
 23
27.619948938379359
 33
0.0
  0
SOLID
  5
650
  8
DRG
  6
CONTINUOUS
 62
     7
 10
101.373673147171
 20
28.442194705705901
 30
0.0
 11
100.8465101302062
 21
26.98604628080799
 31
0.0
 12
111.2523129779601
 22
23.54201089202471
 32
0.0
 13
111.2523129779601
 23
23.54201089202471
 33
0.0
210
0.0
220
0.0
230
1.0
  0
SOLID
  5
651
  8
DRG
  6
CONTINUOUS
 62
     7
 10
26.7002564035921
 20
28.66914447916551
 30
0.0
 11
25.68195691611335
 21
27.233676125040169
 31
0.0
 12
27.267121908897021
 22
25.817196576320061
 32
0.0
 13
27.267121908897021
 23
25.817196576320061
 33
0.0
  0
SOLID
  5
652
  8
DRG
  6
CONTINUOUS
 62
     7
 10
26.7002564035921
 20
28.66914447916551
 30
0.0
 11
27.267121908897021
 21
25.817196576320061
 31
0.0
 12
37.639779947293839
 22
13.760967175618781
 32
0.0
 13
37.639779947293839
 23
13.760967175618781
 33
0.0
  0
SOLID
  5
653
  8
DRG
  6
CONTINUOUS
 62
     7
 10
17.581722267866311
 20
28.914040948303899
 30
0.0
 11
7.4843847060861783
 21
27.75367310563599
 31
0.0
 12
18.3813068076863
 22
27.48475351793256
 32
0.0
 13
18.3813068076863
 23
27.48475351793256
 33
0.0
210
0.0
220
0.0
230
1.0
  0
SOLID
  5
654
  8
DRG
  6
CONTINUOUS
 62
     7
 10
160.04745823702251
 20
29.300230626583549
 30
0.0
 11
160.04745823702251
 21
27.619948938379359
 31
0.0
 12
171.0922846938046
 22
27.861637324670479
 32
0.0
 13
171.0922846938046
 23
27.861637324670479
 33
0.0
210
0.0
220
0.0
230
1.0
  0
SOLID
  5
655
  8
DRG
  6
CONTINUOUS
 62
     7
 10
152.32505959223769
 20
29.959298931438969
 30
0.0
 11
141.28023066635379
 21
27.861637324670479
 31
0.0
 12
152.32505959223769
 22
27.619948938379359
 32
0.0
 13
152.32505959223769
 23
27.619948938379359
 33
0.0
210
0.0
220
0.0
230
1.0
  0
SOLID
  5
656
  8
DRG
  6
CONTINUOUS
 62
     7
 10
141.28023066635379
 20
29.95929893143898
 30
0.0
 11
141.28023066635379
 21
27.861637324670479
 31
0.0
 12
152.32505959223769
 22
29.959298931438969
 32
0.0
 13
152.32505959223769
 23
29.959298931438969
 33
0.0
210
0.0
220
0.0
230
1.0
  0
SOLID
  5
657
  8
DRG
  6
CONTINUOUS
 62
     7
 10
171.0922846938046
 20
29.95929893143904
 30
0.0
 11
160.04745823702251
 21
29.300230626583549
 31
0.0
 12
171.0922846938046
 22
27.861637324670479
 32
0.0
 13
171.0922846938046
 23
27.861637324670479
 33
0.0
210
0.0
220
0.0
230
1.0
  0
SOLID
  5
658
  8
DRG
  6
CONTINUOUS
 62
     7
 10
101.5095597489034
 20
29.984856014372749
 30
0.0
 11
101.373673147171
 21
28.442194705705901
 31
0.0
 12
111.2523129779601
 22
23.54201089202471
 32
0.0
 13
111.2523129779601
 23
23.54201089202471
 33
0.0
210
0.0
220
0.0
230
1.0
  0
SOLID
  5
659
  8
DRG
  6
CONTINUOUS
 62
     7
 10
7.0565934473582743
 20
30.23514359210488
 30
0.0
 11
7.4843847060861783
 21
27.75367310563599
 31
0.0
 12
17.581722267866311
 22
28.914040948303899
 32
0.0
 13
17.581722267866311
 23
28.914040948303899
 33
0.0
210
0.0
220
0.0
230
1.0
  0
SOLID
  5
65A
  8
DRG
  6
CONTINUOUS
 62
     7
 10
27.2838918183243
 20
30.329527851933712
 30
0.0
 11
26.7002564035921
 21
28.66914447916551
 31
0.0
 12
37.639779947293839
 22
13.760967175618781
 32
0.0
 13
37.639779947293839
 23
13.760967175618781
 33
0.0
210
0.0
220
0.0
230
1.0
  0
SOLID
  5
65B
  8
DRG
  6
CONTINUOUS
 62
     7
 10
17.256300807526252
 20
30.5191262631974
 30
0.0
 11
7.0565934473582743
 21
30.23514359210488
 31
0.0
 12
17.581722267866311
 22
28.914040948303899
 32
0.0
 13
17.581722267866311
 23
28.914040948303899
 33
0.0
210
0.0
220
0.0
230
1.0
  0
SOLID
  5
65C
  8
DRG
  6
CONTINUOUS
 62
     7
 10
63.235709964757
 20
30.81688778835381
 30
0.0
 11
63.235709964757007
 21
27.61994893837937
 31
0.0
 12
74.280536421539182
 22
27.861637324670479
 32
0.0
 13
74.280536421539182
 23
27.861637324670479
 33
0.0
210
0.0
220
0.0
230
1.0
  0
SOLID
  5
65D
  8
DRG
  6
CONTINUOUS
 62
     7
 10
74.280536421539196
 20
30.816887788353831
 30
0.0
 11
63.235709964757
 21
30.81688778835381
 31
0.0
 12
74.280536421539182
 22
27.861637324670479
 32
0.0
 13
74.280536421539182
 23
27.861637324670479
 33
0.0
210
0.0
220
0.0
230
1.0
  0
SOLID
  5
65E
  8
DRG
  6
CONTINUOUS
 62
     7
 10
159.01581968400799
 20
30.996563617445211
 30
0.0
 11
160.04745823702251
 21
29.300230626583549
 31
0.0
 12
171.0922846938046
 22
29.95929893143904
 32
0.0
 13
171.0922846938046
 23
29.95929893143904
 33
0.0
210
0.0
220
0.0
230
1.0
  0
SOLID
  5
65F
  8
DRG
  6
CONTINUOUS
 62
     7
 10
27.387732575171409
 20
32.086434320449378
 30
0.0
 11
27.2838918183243
 21
30.329527851933712
 31
0.0
 12
37.639779947293839
 22
13.760967175618781
 32
0.0
 13
37.639779947293839
 23
13.760967175618781
 33
0.0
210
0.0
220
0.0
230
1.0
  0
SOLID
  5
660
  8
DRG
  6
CONTINUOUS
 62
     7
 10
157.53297815821909
 20
32.316792661720299
 30
0.0
 11
159.01581968400799
 21
30.996563617445211
 31
0.0
 12
171.0922846938046
 22
29.95929893143904
 32
0.0
 13
171.0922846938046
 23
29.95929893143904
 33
0.0
210
0.0
220
0.0
230
1.0
  0
SOLID
  5
661
  8
DRG
  6
CONTINUOUS
 62
     7
 10
81.440258950509346
 20
32.349374231810209
 30
0.0
 11
81.440258950509346
 21
27.861637324670479
 31
0.0
 12
92.002287191588479
 22
27.619948938379359
 32
0.0
 13
92.002287191588479
 23
27.619948938379359
 33
0.0
210
0.0
220
0.0
230
1.0
  0
SOLID
  5
662
  8
DRG
  6
CONTINUOUS
 62
     7
 10
170.47732661026529
 20
32.356132664391282
 30
0.0
 11
157.53297815821909
 21
32.316792661720299
 31
0.0
 12
171.0922846938046
 22
29.95929893143904
 32
0.0
 13
171.0922846938046
 23
29.95929893143904
 33
0.0
210
0.0
220
0.0
230
1.0
  0
SOLID
  5
663
  8
DRG
  6
CONTINUOUS
 62
     7
 10
92.002287191588479
 20
33.041326503689838
 30
0.0
 11
81.440258950509346
 21
32.349374231810209
 31
0.0
 12
92.002287191588479
 22
27.619948938379359
 32
0.0
 13
92.002287191588479
 23
27.619948938379359
 33
0.0
210
0.0
220
0.0
230
1.0
  0
SOLID
  5
664
  8
DRG
  6
CONTINUOUS
 62
     7
 10
155.72873071743231
 20
33.145354604103439
 30
0.0
 11
157.53297815821909
 21
32.316792661720299
 31
0.0
 12
170.47732661026529
 22
32.356132664391282
 32
0.0
 13
170.47732661026529
 23
32.356132664391282
 33
0.0
210
0.0
220
0.0
230
1.0
  0
SOLID
  5
665
  8
DRG
  6
CONTINUOUS
 62
     7
 10
152.4516822959568
 20
34.180717875305689
 30
0.0
 11
155.72873071743231
 21
33.145354604103439
 31
0.0
 12
170.47732661026529
 22
32.356132664391282
 32
0.0
 13
170.47732661026529
 23
32.356132664391282
 33
0.0
210
0.0
220
0.0
230
1.0
  0
SOLID
  5
666
  8
DRG
  6
CONTINUOUS
 62
     7
 10
92.608158805665866
 20
34.516652178663861
 30
0.0
 11
81.440258950509346
 21
32.349374231810209
 31
0.0
 12
92.002287191588479
 22
33.041326503689838
 32
0.0
 13
92.002287191588479
 23
33.041326503689838
 33
0.0
210
0.0
220
0.0
230
1.0
  0
SOLID
  5
667
  8
DRG
  6
CONTINUOUS
 62
     7
 10
169.3838362766385
 20
34.575876856453249
 30
0.0
 11
152.4516822959568
 21
34.180717875305689
 31
0.0
 12
170.47732661026529
 22
32.356132664391282
 32
0.0
 13
170.47732661026529
 23
32.356132664391282
 33
0.0
210
0.0
220
0.0
230
1.0
  0
SOLID
  5
668
  8
DRG
  6
CONTINUOUS
 62
     7
 10
81.985263960363469
 20
34.77663157388757
 30
0.0
 11
81.440258950509346
 21
32.349374231810209
 31
0.0
 12
92.608158805665866
 22
34.516652178663861
 32
0.0
 13
92.608158805665866
 23
34.516652178663861
 33
0.0
210
0.0
220
0.0
230
1.0
  0
SOLID
  5
669
  8
DRG
  6
CONTINUOUS
 62
     7
 10
55.513311319972232
 20
35.629722934820848
 30
0.0
 11
44.468482394088362
 21
27.861637324670291
 31
0.0
 12
55.513311319972217
 22
27.61994893837937
 32
0.0
 13
55.513311319972217
 23
27.61994893837937
 33
0.0
210
0.0
220
0.0
230
1.0
  0
SOLID
  5
66A
  8
DRG
  6
CONTINUOUS
 62
     7
 10
149.39175196581581
 20
35.745278463692301
 30
0.0
 11
152.4516822959568
 21
34.180717875305689
 31
0.0
 12
169.3838362766385
 22
34.575876856453249
 32
0.0
 13
169.3838362766385
 23
34.575876856453249
 33
0.0
  0
SOLID
  5
66B
  8
DRG
  6
CONTINUOUS
 62
     7
 10
93.593074411603624
 20
35.771087314158173
 30
0.0
 11
81.985263960363469
 21
34.77663157388757
 31
0.0
 12
92.608158805665866
 22
34.516652178663861
 32
0.0
 13
92.608158805665866
 23
34.516652178663861
 33
0.0
210
0.0
220
0.0
230
1.0
  0
SOLID
  5
66C
  8
DRG
  6
CONTINUOUS
 62
     7
 10
44.169020821240288
 20
36.461122307958632
 30
0.0
 11
55.513311319972232
 21
35.629722934820848
 31
0.0
 12
74.280536421539182
 22
35.629722934820848
 32
0.0
 13
74.280536421539182
 23
35.629722934820848
 33
0.0
210
0.0
220
0.0
230
1.0
  0
SOLID
  5
66D
  8
DRG
  6
CONTINUOUS
 62
     7
 10
44.169020821240288
 20
36.461122307958632
 30
0.0
 11
44.468482394088362
 21
27.861637324670291
 31
0.0
 12
55.513311319972232
 22
35.629722934820848
 32
0.0
 13
55.513311319972232
 23
35.629722934820848
 33
0.0
210
0.0
220
0.0
230
1.0
  0
SOLID
  5
66E
  8
DRG
  6
CONTINUOUS
 62
     7
 10
167.85830970219251
 20
36.524146360035118
 30
0.0
 11
149.39175196581581
 21
35.745278463692301
 31
0.0
 12
169.3838362766385
 22
34.575876856453249
 32
0.0
 13
169.3838362766385
 23
34.575876856453249
 33
0.0
  0
SOLID
  5
66F
  8
DRG
  6
CONTINUOUS
 62
     7
 10
94.88251018784689
 20
36.709714843546827
 30
0.0
 11
81.985263960363469
 21
34.77663157388757
 31
0.0
 12
93.593074411603624
 22
35.771087314158173
 32
0.0
 13
93.593074411603624
 23
35.771087314158173
 33
0.0
210
0.0
220
0.0
230
1.0
  0
SOLID
  5
670
  8
DRG
  6
CONTINUOUS
 62
     7
 10
83.019036262207464
 20
37.03935636788588
 30
0.0
 11
81.985263960363469
 21
34.77663157388757
 31
0.0
 12
94.88251018784689
 22
36.709714843546827
 32
0.0
 13
94.88251018784689
 23
36.709714843546827
 33
0.0
210
0.0
220
0.0
230
1.0
  0
SOLID
  5
671
  8
DRG
  6
CONTINUOUS
 62
     7
 10
96.378900737811577
 20
37.261513341151442
 30
0.0
 11
83.019036262207464
 21
37.03935636788588
 31
0.0
 12
94.88251018784689
 22
36.709714843546827
 32
0.0
 13
94.88251018784689
 23
36.709714843546827
 33
0.0
210
0.0
220
0.0
230
1.0
  0
SOLID
  5
672
  8
DRG
  6
CONTINUOUS
 62
     7
 10
97.969021393668683
 20
37.384730871555568
 30
0.0
 11
83.019036262207464
 21
37.03935636788588
 31
0.0
 12
96.378900737811577
 22
37.261513341151442
 32
0.0
 13
96.378900737811577
 23
37.261513341151442
 33
0.0
210
0.0
220
0.0
230
1.0
  0
SOLID
  5
673
  8
DRG
  6
CONTINUOUS
 62
     7
 10
101.5095597489034
 20
37.384730871555568
 30
0.0
 11
101.5095597489034
 21
29.984856014372749
 31
0.0
 12
111.2523129779601
 22
23.54201089202471
 32
0.0
 13
111.2523129779601
 23
23.54201089202471
 33
0.0
210
0.0
220
0.0
230
1.0
  0
SOLID
  5
674
  8
DRG
  6
CONTINUOUS
 62
     7
 10
146.63370620049619
 20
37.795694766898073
 30
0.0
 11
149.39175196581581
 21
35.745278463692301
 31
0.0
 12
167.85830970219251
 22
36.524146360035118
 32
0.0
 13
167.85830970219251
 23
36.524146360035118
 33
0.0
210
0.0
220
0.0
230
1.0
  0
SOLID
  5
675
  8
DRG
  6
CONTINUOUS
 62
     7
 10
165.96561339334559
 20
38.118099329982897
 30
0.0
 11
146.63370620049619
 21
37.795694766898073
 31
0.0
 12
167.85830970219251
 22
36.524146360035118
 32
0.0
 13
167.85830970219251
 23
36.524146360035118
 33
0.0
210
0.0
220
0.0
230
1.0
  0
SOLID
  5
676
  8
DRG
  6
CONTINUOUS
 62
     7
 10
6.7865631049779154
 20
38.202265524009427
 30
0.0
 11
7.0565934473582743
 21
30.23514359210488
 31
0.0
 12
17.256300807526252
 22
30.5191262631974
 32
0.0
 13
17.256300807526252
 23
30.5191262631974
 33
0.0
210
0.0
220
0.0
230
1.0
  0
SOLID
  5
677
  8
DRG
  6
CONTINUOUS
 62
     7
 10
84.497147993365729
 20
39.040304736946602
 30
0.0
 11
83.019036262207464
 21
37.03935636788588
 31
0.0
 12
97.969021393668683
 22
37.384730871555568
 32
0.0
 13
97.969021393668683
 23
37.384730871555568
 33
0.0
  0
SOLID
  5
678
  8
DRG
  6
CONTINUOUS
 62
     7
 10
163.78622618233979
 20
39.289959719462992
 30
0.0
 11
146.63370620049619
 21
37.795694766898073
 31
0.0
 12
165.96561339334559
 22
38.118099329982897
 32
0.0
 13
165.96561339334559
 23
38.118099329982897
 33
0.0
210
0.0
220
0.0
230
1.0
  0
SOLID
  5
679
  8
DRG
  6
CONTINUOUS
 62
     7
 10
161.4128172083947
 20
39.98989916707626
 30
0.0
 11
146.63370620049619
 21
37.795694766898073
 31
0.0
 12
163.78622618233979
 22
39.289959719462992
 32
0.0
 13
163.78622618233979
 23
39.289959719462992
 33
0.0
210
0.0
220
0.0
230
1.0
  0
SOLID
  5
67A
  8
DRG
  6
CONTINUOUS
 62
     7
 10
144.25394863930259
 20
40.275165962534743
 30
0.0
 11
146.63370620049619
 21
37.795694766898073
 31
0.0
 12
161.4128172083947
 22
39.98989916707626
 32
0.0
 13
161.4128172083947
 23
39.98989916707626
 33
0.0
  0
SOLID
  5
67B
  8
DRG
  6
CONTINUOUS
 62
     7
 10
159.18695030849
 20
40.665065806460063
 30
0.0
 11
144.25394863930259
 21
40.275165962534743
 31
0.0
 12
161.4128172083947
 22
39.98989916707626
 32
0.0
 13
161.4128172083947
 23
39.98989916707626
 33
0.0
210
0.0
220
0.0
230
1.0
  0
SOLID
  5
67C
  8
DRG
  6
CONTINUOUS
 62
     7
 10
86.356075160311036
 20
40.693483025404078
 30
0.0
 11
84.497147993365729
 21
39.040304736946602
 31
0.0
 12
97.969021393668683
 22
37.384730871555568
 32
0.0
 13
97.969021393668683
 23
37.384730871555568
 33
0.0
210
0.0
220
0.0
230
1.0
  0
SOLID
  5
67D
  8
DRG
  6
CONTINUOUS
 62
     7
 10
86.356075160311036
 20
40.693483025404078
 30
0.0
 11
97.969021393668683
 21
37.384730871555568
 31
0.0
 12
101.5095597489034
 22
37.384730871555568
 32
0.0
 13
101.5095597489034
 23
37.384730871555568
 33
0.0
210
0.0
220
0.0
230
1.0
  0
SOLID
  5
67E
  8
DRG
  6
CONTINUOUS
 62
     7
 10
127.2345352189994
 20
40.740104065808097
 30
0.0
 11
116.19314081319391
 21
17.28637227261407
 31
0.0
 12
127.2345352189994
 22
17.28637227261407
 32
0.0
 13
127.2345352189994
 23
17.28637227261407
 33
0.0
210
0.0
220
0.0
230
1.0
  0
SOLID
  5
67F
  8
DRG
  6
CONTINUOUS
 62
     7
 10
157.0907498111003
 20
41.67317141688541
 30
0.0
 11
144.25394863930259
 21
40.275165962534743
 31
0.0
 12
159.18695030849
 22
40.665065806460063
 32
0.0
 13
159.18695030849
 23
40.665065806460063
 33
0.0
210
0.0
220
0.0
230
1.0
  0
SOLID
  5
680
  8
DRG
  6
CONTINUOUS
 62
     7
 10
55.51331131997221
 20
41.923431282527638
 30
0.0
 11
44.169020821240288
 21
36.461122307958632
 31
0.0
 12
74.280536421539182
 22
35.629722934820848
 32
0.0
 13
74.280536421539182
 23
35.629722934820848
 33
0.0
210
0.0
220
0.0
230
1.0
  0
SOLID
  5
681
  8
DRG
  6
CONTINUOUS
 62
     7
 10
63.235709964756971
 20
41.923431282527652
 30
0.0
 11
55.51331131997221
 21
41.923431282527638
 31
0.0
 12
74.280536421539182
 22
35.629722934820848
 32
0.0
 13
74.280536421539182
 23
35.629722934820848
 33
0.0
210
0.0
220
0.0
230
1.0
  0
SOLID
  5
682
  8
DRG
  6
CONTINUOUS
 62
     7
 10
88.515927674336666
 20
41.927843500748189
 30
0.0
 11
86.356075160311036
 21
40.693483025404078
 31
0.0
 12
101.5095597489034
 22
37.384730871555568
 32
0.0
 13
101.5095597489034
 23
37.384730871555568
 33
0.0
210
0.0
220
0.0
230
1.0
  0
SOLID
  5
683
  8
DRG
  6
CONTINUOUS
 62
     7
 10
127.4351119215448
 20
42.520271537458619
 30
0.0
 11
116.19314081319391
 21
17.28637227261407
 31
0.0
 12
127.2345352189994
 22
40.740104065808097
 32
0.0
 13
127.2345352189994
 23
40.740104065808097
 33
0.0
210
0.0
220
0.0
230
1.0
  0
SOLID
  5
684
  8
DRG
  6
CONTINUOUS
 62
     7
 10
90.883882743884527
 20
42.690337732881808
 30
0.0
 11
88.515927674336666
 21
41.927843500748189
 31
0.0
 12
101.5095597489034
 22
37.384730871555568
 32
0.0
 13
101.5095597489034
 23
37.384730871555568
 33
0.0
210
0.0
220
0.0
230
1.0
  0
SOLID
  5
685
  8
DRG
  6
CONTINUOUS
 62
     7
 10
93.358174068518778
 20
42.948196427274922
 30
0.0
 11
90.883882743884527
 21
42.690337732881808
 31
0.0
 12
101.5095597489034
 22
37.384730871555568
 32
0.0
 13
101.5095597489034
 23
37.384730871555568
 33
0.0
210
0.0
220
0.0
230
1.0
  0
SOLID
  5
686
  8
DRG
  6
CONTINUOUS
 62
     7
 10
101.5095597489034
 20
37.384730871555568
 30
0.0
 11
100.207486521178
 21
42.948196427274922
 31
0.0
 12
93.358174068518778
 22
42.948196427274922
 32
0.0
 13
93.358174068518778
 23
42.948196427274922
 33
0.0
  0
SOLID
  5
687
  8
DRG
  6
CONTINUOUS
 62
     7
 10
100.207486521178
 20
42.948196427274922
 30
0.0
 11
101.5095597489034
 21
37.384730871555568
 31
0.0
 12
111.2523129779601
 22
23.54201089202471
 32
0.0
 13
111.2523129779601
 23
23.54201089202471
 33
0.0
  0
SOLID
  5
688
  8
DRG
  6
CONTINUOUS
 62
     7
 10
155.17367747190539
 20
42.990428830347881
 30
0.0
 11
144.25394863930259
 21
40.275165962534743
 31
0.0
 12
157.0907498111003
 22
41.67317141688541
 32
0.0
 13
157.0907498111003
 23
41.67317141688541
 33
0.0
210
0.0
220
0.0
230
1.0
  0
SOLID
  5
689
  8
DRG
  6
CONTINUOUS
 62
     7
 10
142.3184035466634
 20
43.11500550983493
 30
0.0
 11
144.25394863930259
 21
40.275165962534743
 31
0.0
 12
155.17367747190539
 22
42.990428830347881
 32
0.0
 13
155.17367747190539
 23
42.990428830347881
 33
0.0
210
0.0
220
0.0
230
1.0
  0
SOLID
  5
68A
  8
DRG
  6
CONTINUOUS
 62
     7
 10
128.02678427577999
 20
44.211173978748569
 30
0.0
 11
116.19314081319391
 21
17.28637227261407
 31
0.0
 12
127.4351119215448
 22
42.520271537458619
 32
0.0
 13
127.4351119215448
 23
42.520271537458619
 33
0.0
210
0.0
220
0.0
230
1.0
  0
SOLID
  5
68B
  8
DRG
  6
CONTINUOUS
 62
     7
 10
153.4809683549079
 20
44.585756161105429
 30
0.0
 11
142.3184035466634
 21
43.11500550983493
 31
0.0
 12
155.17367747190539
 22
42.990428830347881
 32
0.0
 13
155.17367747190539
 23
42.990428830347881
 33
0.0
210
0.0
220
0.0
230
1.0
  0
SOLID
  5
68C
  8
DRG
  6
CONTINUOUS
 62
     7
 10
27.387732575171409
 20
44.745475926535612
 30
0.0
 11
27.387732575171409
 21
32.086434320449378
 31
0.0
 12
37.639779947293839
 22
13.760967175618781
 32
0.0
 13
37.639779947293839
 23
13.760967175618781
 33
0.0
210
0.0
220
0.0
230
1.0
  0
SOLID
  5
68D
  8
DRG
  6
CONTINUOUS
 62
     7
 10
141.68103748780231
 20
44.96578368522475
 30
0.0
 11
142.3184035466634
 21
43.11500550983493
 31
0.0
 12
153.4809683549079
 22
44.585756161105429
 32
0.0
 13
153.4809683549079
 23
44.585756161105429
 33
0.0
210
0.0
220
0.0
230
1.0
  0
SOLID
  5
68E
  8
DRG
  6
CONTINUOUS
 62
     7
 10
111.2523129779601
 20
45.06060729124669
 30
0.0
 11
100.207486521178
 21
42.948196427274922
 31
0.0
 12
111.2523129779601
 22
23.54201089202471
 32
0.0
 13
111.2523129779601
 23
23.54201089202471
 33
0.0
  0
SOLID
  5
68F
  8
DRG
  6
CONTINUOUS
 62
     7
 10
74.280536421539182
 20
45.06060729124669
 30
0.0
 11
63.235709964756971
 21
41.923431282527652
 31
0.0
 12
74.280536421539182
 22
35.629722934820848
 32
0.0
 13
74.280536421539182
 23
35.629722934820848
 33
0.0
  0
SOLID
  5
690
  8
DRG
  6
CONTINUOUS
 62
     7
 10
44.468482394088362
 20
45.06060729124696
 30
0.0
 11
44.169020821240288
 21
36.461122307958632
 31
0.0
 12
55.51331131997221
 22
41.923431282527638
 32
0.0
 13
55.51331131997221
 23
41.923431282527638
 33
0.0
210
0.0
220
0.0
230
1.0
  0
SOLID
  5
691
  8
DRG
  6
CONTINUOUS
 62
     7
 10
152.7676036732239
 20
45.45462446566345
 30
0.0
 11
141.68103748780231
 21
44.96578368522475
 31
0.0
 12
153.4809683549079
 22
44.585756161105429
 32
0.0
 13
153.4809683549079
 23
44.585756161105429
 33
0.0
  0
SOLID
  5
692
  8
DRG
  6
CONTINUOUS
 62
     7
 10
7.0305774038875759
 20
46.17022669896302
 30
0.0
 11
6.7865631049779154
 21
38.202265524009427
 31
0.0
 12
17.256300807526252
 22
30.5191262631974
 32
0.0
 13
17.256300807526252
 23
30.5191262631974
 33
0.0
  0
SOLID
  5
693
  8
DRG
  6
CONTINUOUS
 62
     7
 10
17.256300807526252
 20
46.312783983787632
 30
0.0
 11
7.0305774038875759
 21
46.17022669896302
 31
0.0
 12
17.256300807526252
 22
30.5191262631974
 32
0.0
 13
17.256300807526252
 23
30.5191262631974
 33
0.0
210
0.0
220
0.0
230
1.0
  0
SOLID
  5
694
  8
DRG
  6
CONTINUOUS
 62
     7
 10
160.04745823702251
 20
46.421288526219293
 30
0.0
 11
160.04745823702251
 21
45.21828747592599
 31
0.0
 12
171.0912486890569
 22
45.21828747592599
 32
0.0
 13
171.0912486890569
 23
45.21828747592599
 33
0.0
210
0.0
220
0.0
230
1.0
  0
SOLID
  5
695
  8
DRG
  6
CONTINUOUS
 62
     7
 10
27.28389181832431
 20
46.502382395051256
 30
0.0
 11
27.387732575171409
 21
44.745475926535612
 31
0.0
 12
37.639779947293839
 22
13.760967175618781
 32
0.0
 13
37.639779947293839
 23
13.760967175618781
 33
0.0
210
0.0
220
0.0
230
1.0
  0
SOLID
  5
696
  8
DRG
  6
CONTINUOUS
 62
     7
 10
152.43266305936851
 20
46.527767552548831
 30
0.0
 11
141.68103748780231
 21
44.96578368522475
 31
0.0
 12
152.7676036732239
 22
45.45462446566345
 32
0.0
 13
152.7676036732239
 23
45.45462446566345
 33
0.0
210
0.0
220
0.0
230
1.0
  0
SOLID
  5
697
  8
DRG
  6
CONTINUOUS
 62
     7
 10
63.235709964757007
 20
46.690614073903127
 30
0.0
 11
63.235709964756971
 21
41.923431282527652
 31
0.0
 12
74.280536421539182
 22
45.06060729124669
 32
0.0
 13
74.280536421539182
 23
45.06060729124669
 33
0.0
210
0.0
220
0.0
230
1.0
  0
SOLID
  5
698
  8
DRG
  6
CONTINUOUS
 62
     7
 10
55.513311319972217
 20
46.690614073903141
 30
0.0
 11
44.468482394088362
 21
45.06060729124696
 31
0.0
 12
55.51331131997221
 22
41.923431282527638
 32
0.0
 13
55.51331131997221
 23
41.923431282527638
 33
0.0
210
0.0
220
0.0
230
1.0
  0
SOLID
  5
699
  8
DRG
  6
CONTINUOUS
 62
     7
 10
141.53564323306159
 20
46.917827705777547
 30
0.0
 11
141.68103748780231
 21
44.96578368522475
 31
0.0
 12
152.43266305936851
 22
46.527767552548831
 32
0.0
 13
152.43266305936851
 23
46.527767552548831
 33
0.0
  0
SOLID
  5
69A
  8
DRG
  6
CONTINUOUS
 62
     7
 10
92.485087876393209
 20
47.313129977668268
 30
0.0
 11
81.470405744524527
 21
45.910674481046733
 31
0.0
 12
92.485087876393209
 22
45.910674481046733
 32
0.0
 13
92.485087876393209
 23
45.910674481046733
 33
0.0
210
0.0
220
0.0
230
1.0
  0
SOLID
  5
69B
  8
DRG
  6
CONTINUOUS
 62
     7
 10
100.2074865211779
 20
47.313129977668268
 30
0.0
 11
100.207486521178
 21
42.948196427274922
 31
0.0
 12
111.2523129779601
 22
45.06060729124669
 32
0.0
 13
111.2523129779601
 23
45.06060729124669
 33
0.0
210
0.0
220
0.0
230
1.0
  0
SOLID
  5
69C
  8
DRG
  6
CONTINUOUS
 62
     7
 10
111.0217363427989
 20
47.401691155440233
 30
0.0
 11
100.2074865211779
 21
47.313129977668268
 31
0.0
 12
111.2523129779601
 22
45.06060729124669
 32
0.0
 13
111.2523129779601
 23
45.06060729124669
 33
0.0
210
0.0
220
0.0
230
1.0
  0
SOLID
  5
69D
  8
DRG
  6
CONTINUOUS
 62
     7
 10
74.04995978637794
 20
47.401691155440233
 30
0.0
 11
63.235709964757007
 21
46.690614073903127
 31
0.0
 12
74.280536421539182
 22
45.06060729124669
 32
0.0
 13
74.280536421539182
 23
45.06060729124669
 33
0.0
210
0.0
220
0.0
230
1.0
  0
SOLID
  5
69E
  8
DRG
  6
CONTINUOUS
 62
     7
 10
44.699059029249632
 20
47.401691155440453
 30
0.0
 11
44.468482394088362
 21
45.06060729124696
 31
0.0
 12
55.513311319972217
 22
46.690614073903141
 32
0.0
 13
55.513311319972217
 23
46.690614073903141
 33
0.0
210
0.0
220
0.0
230
1.0
  0
SOLID
  5
69F
  8
DRG
  6
CONTINUOUS
 62
     7
 10
170.83401328102289
 20
47.536856427359872
 30
0.0
 11
160.04745823702251
 21
46.421288526219293
 31
0.0
 12
171.0912486890569
 22
45.21828747592599
 32
0.0
 13
171.0912486890569
 23
45.21828747592599
 33
0.0
210
0.0
220
0.0
230
1.0
  0
SOLID
  5
6A0
  8
DRG
  6
CONTINUOUS
 62
     7
 10
159.85969387221371
 20
47.610715203087587
 30
0.0
 11
160.04745823702251
 21
46.421288526219293
 31
0.0
 12
170.83401328102289
 22
47.536856427359872
 32
0.0
 13
170.83401328102289
 23
47.536856427359872
 33
0.0
  0
SOLID
  5
6A1
  8
DRG
  6
CONTINUOUS
 62
     7
 10
152.52515784094209
 20
47.648154099737518
 30
0.0
 11
141.53564323306159
 21
46.917827705777547
 31
0.0
 12
152.43266305936851
 22
46.527767552548831
 32
0.0
 13
152.43266305936851
 23
46.527767552548831
 33
0.0
210
0.0
220
0.0
230
1.0
  0
SOLID
  5
6A2
  8
DRG
  6
CONTINUOUS
 62
     7
 10
63.046729418640332
 20
47.883790283191409
 30
0.0
 11
63.235709964757007
 21
46.690614073903127
 31
0.0
 12
74.04995978637794
 22
47.401691155440233
 32
0.0
 13
74.04995978637794
 23
47.401691155440233
 33
0.0
  0
SOLID
  5
6A3
  8
DRG
  6
CONTINUOUS
 62
     7
 10
55.702291866088892
 20
47.883790283191423
 30
0.0
 11
44.699059029249632
 21
47.401691155440453
 31
0.0
 12
55.513311319972217
 22
46.690614073903141
 32
0.0
 13
55.513311319972217
 23
46.690614073903141
 33
0.0
210
0.0
220
0.0
230
1.0
  0
SOLID
  5
6A4
  8
DRG
  6
CONTINUOUS
 62
     7
 10
17.581722267866329
 20
47.917869298681147
 30
0.0
 11
7.0305774038875759
 21
46.17022669896302
 31
0.0
 12
17.256300807526252
 22
46.312783983787632
 32
0.0
 13
17.256300807526252
 23
46.312783983787632
 33
0.0
210
0.0
220
0.0
230
1.0
  0
SOLID
  5
6A5
  8
DRG
  6
CONTINUOUS
 62
     7
 10
81.838613850140788
 20
48.126847817541709
 30
0.0
 11
81.470405744524527
 21
45.910674481046733
 31
0.0
 12
92.485087876393209
 22
47.313129977668268
 32
0.0
 13
92.485087876393209
 23
47.313129977668268
 33
0.0
  0
SOLID
  5
6A6
  8
DRG
  6
CONTINUOUS
 62
     7
 10
7.2724805460411552
 20
48.444821990224007
 30
0.0
 11
7.0305774038875759
 21
46.17022669896302
 31
0.0
 12
17.581722267866329
 22
47.917869298681147
 32
0.0
 13
17.581722267866329
 23
47.917869298681147
 33
0.0
  0
SOLID
  5
6A7
  8
DRG
  6
CONTINUOUS
 62
     7
 10
92.674068422509905
 20
48.50630618695655
 30
0.0
 11
81.838613850140788
 21
48.126847817541709
 31
0.0
 12
92.485087876393209
 22
47.313129977668268
 32
0.0
 13
92.485087876393209
 23
47.313129977668268
 33
0.0
  0
SOLID
  5
6A8
  8
DRG
  6
CONTINUOUS
 62
     7
 10
100.0185059750613
 20
48.50630618695655
 30
0.0
 11
100.2074865211779
 21
47.313129977668268
 31
0.0
 12
111.0217363427989
 22
47.401691155440233
 32
0.0
 13
111.0217363427989
 23
47.401691155440233
 33
0.0
210
0.0
220
0.0
230
1.0
  0
SOLID
  5
6A9
  8
DRG
  6
CONTINUOUS
 62
     7
 10
159.3146621798796
 20
48.684461788967788
 30
0.0
 11
159.85969387221371
 21
47.610715203087587
 31
0.0
 12
170.83401328102289
 22
47.536856427359872
 32
0.0
 13
170.83401328102289
 23
47.536856427359872
 33
0.0
210
0.0
220
0.0
230
1.0
  0
SOLID
  5
6AA
  8
DRG
  6
CONTINUOUS
 62
     7
 10
153.08112265405759
 20
48.716280685360893
 30
0.0
 11
141.53564323306159
 21
46.917827705777547
 31
0.0
 12
152.52515784094209
 22
47.648154099737518
 32
0.0
 13
152.52515784094209
 23
47.648154099737518
 33
0.0
210
0.0
220
0.0
230
1.0
  0
SOLID
  5
6AB
  8
DRG
  6
CONTINUOUS
 62
     7
 10
141.8917942032017
 20
48.84260609145101
 30
0.0
 11
141.53564323306159
 21
46.917827705777547
 31
0.0
 12
153.08112265405759
 22
48.716280685360893
 32
0.0
 13
153.08112265405759
 23
48.716280685360893
 33
0.0
210
0.0
220
0.0
230
1.0
  0
SOLID
  5
6AC
  8
DRG
  6
CONTINUOUS
 62
     7
 10
56.250734771880133
 20
48.960170091767068
 30
0.0
 11
44.699059029249632
 21
47.401691155440453
 31
0.0
 12
55.702291866088892
 22
47.883790283191423
 32
0.0
 13
55.702291866088892
 23
47.883790283191423
 33
0.0
210
0.0
220
0.0
230
1.0
  0
SOLID
  5
6AD
  8
DRG
  6
CONTINUOUS
 62
     7
 10
62.498286512849091
 20
48.960170091767068
 30
0.0
 11
63.046729418640332
 21
47.883790283191409
 31
0.0
 12
74.04995978637794
 22
47.401691155440233
 32
0.0
 13
74.04995978637794
 23
47.401691155440233
 33
0.0
210
0.0
220
0.0
230
1.0
  0
SOLID
  5
6AE
  8
DRG
  6
CONTINUOUS
 62
     7
 10
18.38130680768635
 20
49.347156729052493
 30
0.0
 11
7.2724805460411552
 21
48.444821990224007
 31
0.0
 12
17.581722267866329
 22
47.917869298681147
 32
0.0
 13
17.581722267866329
 23
47.917869298681147
 33
0.0
210
0.0
220
0.0
230
1.0
  0
SOLID
  5
6AF
  8
DRG
  6
CONTINUOUS
 62
     7
 10
158.46537131679571
 20
49.538098893491913
 30
0.0
 11
159.3146621798796
 21
48.684461788967788
 31
0.0
 12
170.83401328102289
 22
47.536856427359872
 32
0.0
 13
170.83401328102289
 23
47.536856427359872
 33
0.0
210
0.0
220
0.0
230
1.0
  0
SOLID
  5
6B0
  8
DRG
  6
CONTINUOUS
 62
     7
 10
153.9390837584445
 20
49.561203178668571
 30
0.0
 11
141.8917942032017
 21
48.84260609145101
 31
0.0
 12
153.08112265405759
 22
48.716280685360893
 32
0.0
 13
153.08112265405759
 23
48.716280685360893
 33
0.0
210
0.0
220
0.0
230
1.0
  0
SOLID
  5
6B1
  8
DRG
  6
CONTINUOUS
 62
     7
 10
93.222511328301124
 20
49.582685995532209
 30
0.0
 11
81.838613850140788
 21
48.126847817541709
 31
0.0
 12
92.674068422509905
 22
48.50630618695655
 32
0.0
 13
92.674068422509905
 23
48.50630618695655
 33
0.0
210
0.0
220
0.0
230
1.0
  0
SOLID
  5
6B2
  8
DRG
  6
CONTINUOUS
 62
     7
 10
99.470063069270083
 20
49.582685995532209
 30
0.0
 11
100.0185059750613
 21
48.50630618695655
 31
0.0
 12
111.0217363427989
 22
47.401691155440233
 32
0.0
 13
111.0217363427989
 23
47.401691155440233
 33
0.0
210
0.0
220
0.0
230
1.0
  0
SOLID
  5
6B3
  8
DRG
  6
CONTINUOUS
 62
     7
 10
73.367090811674615
 20
49.652808479627772
 30
0.0
 11
62.498286512849091
 21
48.960170091767068
 31
0.0
 12
74.04995978637794
 22
47.401691155440233
 32
0.0
 13
74.04995978637794
 23
47.401691155440233
 33
0.0
210
0.0
220
0.0
230
1.0
  0
SOLID
  5
6B4
  8
DRG
  6
CONTINUOUS
 62
     7
 10
110.33886736809561
 20
49.652808479627772
 30
0.0
 11
99.470063069270083
 21
49.582685995532209
 31
0.0
 12
111.0217363427989
 22
47.401691155440233
 32
0.0
 13
111.0217363427989
 23
47.401691155440233
 33
0.0
210
0.0
220
0.0
230
1.0
  0
SOLID
  5
6B5
  8
DRG
  6
CONTINUOUS
 62
     7
 10
45.381928003952993
 20
49.65280847962795
 30
0.0
 11
44.699059029249632
 21
47.401691155440453
 31
0.0
 12
56.250734771880133
 22
48.960170091767068
 32
0.0
 13
56.250734771880133
 23
48.960170091767068
 33
0.0
210
0.0
220
0.0
230
1.0
  0
SOLID
  5
6B6
  8
DRG
  6
CONTINUOUS
 62
     7
 10
170.1330439217615
 20
49.761844965549727
 30
0.0
 11
158.46537131679571
 21
49.538098893491913
 31
0.0
 12
170.83401328102289
 22
47.536856427359872
 32
0.0
 13
170.83401328102289
 23
47.536856427359872
 33
0.0
210
0.0
220
0.0
230
1.0
  0
SOLID
  5
6B7
  8
DRG
  6
CONTINUOUS
 62
     7
 10
57.104954624500678
 20
49.814389944387607
 30
0.0
 11
45.381928003952993
 21
49.65280847962795
 31
0.0
 12
56.250734771880133
 22
48.960170091767068
 32
0.0
 13
56.250734771880133
 23
48.960170091767068
 33
0.0
210
0.0
220
0.0
230
1.0
  0
SOLID
  5
6B8
  8
DRG
  6
CONTINUOUS
 62
     7
 10
61.64406666022856
 20
49.814389944387607
 30
0.0
 11
62.498286512849091
 21
48.960170091767068
 31
0.0
 12
73.367090811674615
 22
49.652808479627772
 32
0.0
 13
73.367090811674615
 23
49.652808479627772
 33
0.0
210
0.0
220
0.0
230
1.0
  0
SOLID
  5
6B9
  8
DRG
  6
CONTINUOUS
 62
     7
 10
157.39442077919639
 20
50.088604317946377
 30
0.0
 11
158.46537131679571
 21
49.538098893491913
 31
0.0
 12
170.1330439217615
 22
49.761844965549727
 32
0.0
 13
170.1330439217615
 23
49.761844965549727
 33
0.0
210
0.0
220
0.0
230
1.0
  0
SOLID
  5
6BA
  8
DRG
  6
CONTINUOUS
 62
     7
 10
155.01559841605931
 20
50.100746938041553
 30
0.0
 11
141.8917942032017
 21
48.84260609145101
 31
0.0
 12
153.9390837584445
 22
49.561203178668571
 32
0.0
 13
153.9390837584445
 23
49.561203178668571
 33
0.0
210
0.0
220
0.0
230
1.0
  0
SOLID
  5
6BB
  8
DRG
  6
CONTINUOUS
 62
     7
 10
82.613443621275053
 20
50.235553651032191
 30
0.0
 11
81.838613850140788
 21
48.126847817541709
 31
0.0
 12
93.222511328301124
 22
49.582685995532209
 32
0.0
 13
93.222511328301124
 23
49.582685995532209
 33
0.0
210
0.0
220
0.0
230
1.0
  0
SOLID
  5
6BC
  8
DRG
  6
CONTINUOUS
 62
     7
 10
156.20596802213339
 20
50.282437546695562
 30
0.0
 11
141.8917942032017
 21
48.84260609145101
 31
0.0
 12
155.01559841605931
 22
50.100746938041553
 32
0.0
 13
155.01559841605931
 23
50.100746938041553
 33
0.0
210
0.0
220
0.0
230
1.0
  0
SOLID
  5
6BD
  8
DRG
  6
CONTINUOUS
 62
     7
 10
156.20596802213339
 20
50.282437546695562
 30
0.0
 11
157.39442077919639
 21
50.088604317946377
 31
0.0
 12
170.1330439217615
 22
49.761844965549727
 32
0.0
 13
170.1330439217615
 23
49.761844965549727
 33
0.0
210
0.0
220
0.0
230
1.0
  0
SOLID
  5
6BE
  8
DRG
  6
CONTINUOUS
 62
     7
 10
58.18133443307633
 20
50.362832850178847
 30
0.0
 11
45.381928003952993
 21
49.65280847962795
 31
0.0
 12
57.104954624500678
 22
49.814389944387607
 32
0.0
 13
57.104954624500678
 23
49.814389944387607
 33
0.0
210
0.0
220
0.0
230
1.0
  0
SOLID
  5
6BF
  8
DRG
  6
CONTINUOUS
 62
     7
 10
60.567686851652887
 20
50.362832850178847
 30
0.0
 11
61.64406666022856
 21
49.814389944387607
 31
0.0
 12
73.367090811674615
 22
49.652808479627772
 32
0.0
 13
73.367090811674615
 23
49.652808479627772
 33
0.0
210
0.0
220
0.0
230
1.0
  0
SOLID
  5
6C0
  8
DRG
  6
CONTINUOUS
 62
     7
 10
94.076731180921669
 20
50.436905848152747
 30
0.0
 11
82.613443621275053
 21
50.235553651032191
 31
0.0
 12
93.222511328301124
 22
49.582685995532209
 32
0.0
 13
93.222511328301124
 23
49.582685995532209
 33
0.0
  0
SOLID
  5
6C1
  8
DRG
  6
CONTINUOUS
 62
     7
 10
98.615843216649537
 20
50.436905848152747
 30
0.0
 11
99.470063069270083
 21
49.582685995532209
 31
0.0
 12
110.33886736809561
 22
49.652808479627772
 32
0.0
 13
110.33886736809561
 23
49.652808479627772
 33
0.0
  0
SOLID
  5
6C2
  8
DRG
  6
CONTINUOUS
 62
     7
 10
19.57881763530445
 20
50.464370143165517
 30
0.0
 11
7.2724805460411552
 21
48.444821990224007
 31
0.0
 12
18.38130680768635
 22
49.347156729052493
 32
0.0
 13
18.38130680768635
 23
49.347156729052493
 33
0.0
210
0.0
220
0.0
230
1.0
  0
SOLID
  5
6C3
  8
DRG
  6
CONTINUOUS
 62
     7
 10
59.374510642364612
 20
50.551813396295529
 30
0.0
 11
45.381928003952993
 21
49.65280847962795
 31
0.0
 12
58.18133443307633
 22
50.362832850178847
 32
0.0
 13
58.18133443307633
 23
50.362832850178847
 33
0.0
210
0.0
220
0.0
230
1.0
  0
SOLID
  5
6C4
  8
DRG
  6
CONTINUOUS
 62
     7
 10
59.374510642364612
 20
50.551813396295529
 30
0.0
 11
60.567686851652887
 21
50.362832850178847
 31
0.0
 12
73.367090811674615
 22
49.652808479627772
 32
0.0
 13
73.367090811674615
 23
49.652808479627772
 33
0.0
210
0.0
220
0.0
230
1.0
  0
SOLID
  5
6C5
  8
DRG
  6
CONTINUOUS
 62
     7
 10
7.9378654549163707
 20
50.633329196575339
 30
0.0
 11
7.2724805460411552
 21
48.444821990224007
 31
0.0
 12
19.57881763530445
 22
50.464370143165517
 32
0.0
 13
19.57881763530445
 23
50.464370143165517
 33
0.0
210
0.0
220
0.0
230
1.0
  0
SOLID
  5
6C6
  8
DRG
  6
CONTINUOUS
 62
     7
 10
95.153110989497321
 20
50.985348753943988
 30
0.0
 11
82.613443621275053
 21
50.235553651032191
 31
0.0
 12
94.076731180921669
 22
50.436905848152747
 32
0.0
 13
94.076731180921669
 23
50.436905848152747
 33
0.0
  0
SOLID
  5
6C7
  8
DRG
  6
CONTINUOUS
 62
     7
 10
97.539463408073885
 20
50.985348753943988
 30
0.0
 11
98.615843216649537
 21
50.436905848152747
 31
0.0
 12
110.33886736809561
 22
49.652808479627772
 32
0.0
 13
110.33886736809561
 23
49.652808479627772
 33
0.0
210
0.0
220
0.0
230
1.0
  0
SOLID
  5
6C8
  8
DRG
  6
CONTINUOUS
 62
     7
 10
142.920441326131
 20
51.116576646040869
 30
0.0
 11
141.8917942032017
 21
48.84260609145101
 31
0.0
 12
156.20596802213339
 22
50.282437546695562
 32
0.0
 13
156.20596802213339
 23
50.282437546695562
 33
0.0
210
0.0
220
0.0
230
1.0
  0
SOLID
  5
6C9
  8
DRG
  6
CONTINUOUS
 62
     7
 10
21.06007747620454
 20
51.162988263939191
 30
0.0
 11
7.9378654549163707
 21
50.633329196575339
 31
0.0
 12
19.57881763530445
 22
50.464370143165517
 32
0.0
 13
19.57881763530445
 23
50.464370143165517
 33
0.0
210
0.0
220
0.0
230
1.0
  0
SOLID
  5
6CA
  8
DRG
  6
CONTINUOUS
 62
     7
 10
96.346287198785603
 20
51.174329300060663
 30
0.0
 11
82.613443621275053
 21
50.235553651032191
 31
0.0
 12
95.153110989497321
 22
50.985348753943988
 32
0.0
 13
95.153110989497321
 23
50.985348753943988
 33
0.0
210
0.0
220
0.0
230
1.0
  0
SOLID
  5
6CB
  8
DRG
  6
CONTINUOUS
 62
     7
 10
96.346287198785603
 20
51.174329300060663
 30
0.0
 11
97.539463408073885
 21
50.985348753943988
 31
0.0
 12
110.33886736809561
 22
49.652808479627772
 32
0.0
 13
110.33886736809561
 23
49.652808479627772
 33
0.0
  0
SOLID
  5
6CC
  8
DRG
  6
CONTINUOUS
 62
     7
 10
27.267121908897021
 20
51.255838552818979
 30
0.0
 11
24.30773506784762
 21
50.697787464736152
 31
0.0
 12
25.68195691611341
 22
49.598234121944778
 32
0.0
 13
25.68195691611341
 23
49.598234121944778
 33
0.0
  0
SOLID
  5
6CD
  8
DRG
  6
CONTINUOUS
 62
     7
 10
27.267121908897021
 20
51.255838552818979
 30
0.0
 11
25.68195691611341
 21
49.598234121944778
 31
0.0
 12
26.700256403592132
 22
48.162765767819458
 32
0.0
 13
26.700256403592132
 23
48.162765767819458
 33
0.0
  0
SOLID
  5
6CE
  8
DRG
  6
CONTINUOUS
 62
     7
 10
27.267121908897021
 20
51.255838552818979
 30
0.0
 11
26.700256403592132
 21
48.162765767819458
 31
0.0
 12
27.28389181832431
 22
46.502382395051256
 32
0.0
 13
27.28389181832431
 23
46.502382395051256
 33
0.0
  0
SOLID
  5
6CF
  8
DRG
  6
CONTINUOUS
 62
     7
 10
27.267121908897021
 20
51.255838552818979
 30
0.0
 11
27.28389181832431
 21
46.502382395051256
 31
0.0
 12
37.639779947293839
 22
13.760967175618781
 32
0.0
 13
37.639779947293839
 23
13.760967175618781
 33
0.0
210
0.0
220
0.0
230
1.0
  0
SOLID
  5
6D0
  8
DRG
  6
CONTINUOUS
 62
     7
 10
22.683854862926282
 20
51.376400993896397
 30
0.0
 11
7.9378654549163707
 21
50.633329196575339
 31
0.0
 12
21.06007747620454
 22
51.162988263939191
 32
0.0
 13
21.06007747620454
 23
51.162988263939191
 33
0.0
210
0.0
220
0.0
230
1.0
  0
SOLID
  5
6D1
  8
DRG
  6
CONTINUOUS
 62
     7
 10
22.683854862926282
 20
51.376400993896397
 30
0.0
 11
24.30773506784762
 21
50.697787464736152
 31
0.0
 12
27.267121908897021
 22
51.255838552818979
 32
0.0
 13
27.267121908897021
 23
51.255838552818979
 33
0.0
210
0.0
220
0.0
230
1.0
  0
SOLID
  5
6D2
  8
DRG
  6
CONTINUOUS
 62
     7
 10
109.2299483255907
 20
51.727450087481927
 30
0.0
 11
96.346287198785603
 21
51.174329300060663
 31
0.0
 12
110.33886736809561
 22
49.652808479627772
 32
0.0
 13
110.33886736809561
 23
49.652808479627772
 33
0.0
210
0.0
220
0.0
230
1.0
  0
SOLID
  5
6D3
  8
DRG
  6
CONTINUOUS
 62
     7
 10
72.258171769169721
 20
51.727450087481927
 30
0.0
 11
59.374510642364612
 21
50.551813396295529
 31
0.0
 12
73.367090811674615
 22
49.652808479627772
 32
0.0
 13
73.367090811674615
 23
49.652808479627772
 33
0.0
210
0.0
220
0.0
230
1.0
  0
SOLID
  5
6D4
  8
DRG
  6
CONTINUOUS
 62
     7
 10
46.490847046457908
 20
51.727450087482048
 30
0.0
 11
59.374510642364612
 21
50.551813396295529
 31
0.0
 12
72.258171769169721
 22
51.727450087481927
 32
0.0
 13
72.258171769169721
 23
51.727450087481927
 33
0.0
210
0.0
220
0.0
230
1.0
  0
SOLID
  5
6D5
  8
DRG
  6
CONTINUOUS
 62
     7
 10
46.490847046457908
 20
51.727450087482048
 30
0.0
 11
45.381928003952993
 21
49.65280847962795
 31
0.0
 12
59.374510642364612
 22
50.551813396295529
 32
0.0
 13
59.374510642364612
 23
50.551813396295529
 33
0.0
210
0.0
220
0.0
230
1.0
  0
SOLID
  5
6D6
  8
DRG
  6
CONTINUOUS
 62
     7
 10
169.01483108081149
 20
51.80916811542965
 30
0.0
 11
142.920441326131
 21
51.116576646040869
 31
0.0
 12
156.20596802213339
 22
50.282437546695562
 32
0.0
 13
156.20596802213339
 23
50.282437546695562
 33
0.0
210
0.0
220
0.0
230
1.0
  0
SOLID
  5
6D7
  8
DRG
  6
CONTINUOUS
 62
     7
 10
169.01483108081149
 20
51.80916811542965
 30
0.0
 11
156.20596802213339
 21
50.282437546695562
 31
0.0
 12
170.1330439217615
 22
49.761844965549727
 32
0.0
 13
170.1330439217615
 23
49.761844965549727
 33
0.0
210
0.0
220
0.0
230
1.0
  0
SOLID
  5
6D8
  8
DRG
  6
CONTINUOUS
 62
     7
 10
83.767738342711013
 20
52.162884749338318
 30
0.0
 11
96.346287198785603
 21
51.174329300060663
 31
0.0
 12
109.2299483255907
 22
51.727450087481927
 32
0.0
 13
109.2299483255907
 23
51.727450087481927
 33
0.0
210
0.0
220
0.0
230
1.0
  0
SOLID
  5
6D9
  8
DRG
  6
CONTINUOUS
 62
     7
 10
83.767738342711013
 20
52.162884749338318
 30
0.0
 11
82.613443621275053
 21
50.235553651032191
 31
0.0
 12
96.346287198785603
 22
51.174329300060663
 32
0.0
 13
96.346287198785603
 23
51.174329300060663
 33
0.0
210
0.0
220
0.0
230
1.0
  0
SOLID
  5
6DA
  8
DRG
  6
CONTINUOUS
 62
     7
 10
9.0029836342297038
 20
52.657637506420173
 30
0.0
 11
7.9378654549163707
 21
50.633329196575339
 31
0.0
 12
22.683854862926282
 22
51.376400993896397
 32
0.0
 13
22.683854862926282
 23
51.376400993896397
 33
0.0
210
0.0
220
0.0
230
1.0
  0
SOLID
  5
6DB
  8
DRG
  6
CONTINUOUS
 62
     7
 10
127.2345352189994
 20
53.086533694841222
 30
0.0
 11
135.23453521899941
 21
48.740104065808111
 31
0.0
 12
136.6041529029215
 22
48.740104065808111
 32
0.0
 13
136.6041529029215
 23
48.740104065808111
 33
0.0
210
0.0
220
0.0
230
1.0
  0
SOLID
  5
6DC
  8
DRG
  6
CONTINUOUS
 62
     7
 10
127.2345352189994
 20
53.086533694841222
 30
0.0
 11
133.4543677473489
 21
48.5395273632627
 31
0.0
 12
135.23453521899941
 22
48.740104065808111
 32
0.0
 13
135.23453521899941
 23
48.740104065808111
 33
0.0
210
0.0
220
0.0
230
1.0
  0
SOLID
  5
6DD
  8
DRG
  6
CONTINUOUS
 62
     7
 10
127.2345352189994
 20
53.086533694841222
 30
0.0
 11
131.76346530605889
 21
47.947855009027457
 31
0.0
 12
133.4543677473489
 22
48.5395273632627
 32
0.0
 13
133.4543677473489
 23
48.5395273632627
 33
0.0
210
0.0
220
0.0
230
1.0
  0
SOLID
  5
6DE
  8
DRG
  6
CONTINUOUS
 62
     7
 10
127.2345352189994
 20
53.086533694841222
 30
0.0
 11
130.2466168041295
 21
46.99475592555234
 31
0.0
 12
131.76346530605889
 22
47.947855009027457
 32
0.0
 13
131.76346530605889
 23
47.947855009027457
 33
0.0
210
0.0
220
0.0
230
1.0
  0
SOLID
  5
6DF
  8
DRG
  6
CONTINUOUS
 62
     7
 10
127.2345352189994
 20
53.086533694841222
 30
0.0
 11
128.97988335925521
 21
45.728022480677971
 31
0.0
 12
130.2466168041295
 22
46.99475592555234
 32
0.0
 13
130.2466168041295
 23
46.99475592555234
 33
0.0
210
0.0
220
0.0
230
1.0
  0
SOLID
  5
6E0
  8
DRG
  6
CONTINUOUS
 62
     7
 10
127.2345352189994
 20
53.086533694841222
 30
0.0
 11
128.02678427577999
 21
44.211173978748569
 31
0.0
 12
128.97988335925521
 22
45.728022480677971
 32
0.0
 13
128.97988335925521
 23
45.728022480677971
 33
0.0
210
0.0
220
0.0
230
1.0
  0
SOLID
  5
6E1
  8
DRG
  6
CONTINUOUS
 62
     7
 10
127.2345352189994
 20
53.086533694841222
 30
0.0
 11
116.19314081319391
 21
17.28637227261407
 31
0.0
 12
128.02678427577999
 22
44.211173978748569
 32
0.0
 13
128.02678427577999
 23
44.211173978748569
 33
0.0
  0
SOLID
  5
6E2
  8
DRG
  6
CONTINUOUS
 62
     7
 10
26.5765362782073
 20
53.111824663876313
 30
0.0
 11
9.0029836342297038
 21
52.657637506420173
 31
0.0
 12
22.683854862926282
 22
51.376400993896397
 32
0.0
 13
22.683854862926282
 23
51.376400993896397
 33
0.0
210
0.0
220
0.0
230
1.0
  0
SOLID
  5
6E3
  8
DRG
  6
CONTINUOUS
 62
     7
 10
26.5765362782073
 20
53.111824663876313
 30
0.0
 11
22.683854862926282
 21
51.376400993896397
 31
0.0
 12
27.267121908897021
 22
51.255838552818979
 32
0.0
 13
27.267121908897021
 23
51.255838552818979
 33
0.0
210
0.0
220
0.0
230
1.0
  0
SOLID
  5
6E4
  8
DRG
  6
CONTINUOUS
 62
     7
 10
144.39722538079619
 20
53.12858207409991
 30
0.0
 11
142.920441326131
 21
51.116576646040869
 31
0.0
 12
169.01483108081149
 22
51.80916811542965
 32
0.0
 13
169.01483108081149
 23
51.80916811542965
 33
0.0
210
0.0
220
0.0
230
1.0
  0
SOLID
  5
6E5
  8
DRG
  6
CONTINUOUS
 62
     7
 10
70.76581779577775
 20
53.545888665485258
 30
0.0
 11
46.490847046457908
 21
51.727450087482048
 31
0.0
 12
72.258171769169721
 22
51.727450087481927
 32
0.0
 13
72.258171769169721
 23
51.727450087481927
 33
0.0
  0
SOLID
  5
6E6
  8
DRG
  6
CONTINUOUS
 62
     7
 10
107.7375943521987
 20
53.545888665485258
 30
0.0
 11
83.767738342711013
 21
52.162884749338318
 31
0.0
 12
109.2299483255907
 22
51.727450087481927
 32
0.0
 13
109.2299483255907
 23
51.727450087481927
 33
0.0
210
0.0
220
0.0
230
1.0
  0
SOLID
  5
6E7
  8
DRG
  6
CONTINUOUS
 62
     7
 10
47.983201019849879
 20
53.54588866548535
 30
0.0
 11
46.490847046457908
 21
51.727450087482048
 31
0.0
 12
70.76581779577775
 22
53.545888665485258
 32
0.0
 13
70.76581779577775
 23
53.545888665485258
 33
0.0
210
0.0
220
0.0
230
1.0
  0
SOLID
  5
6E8
  8
DRG
  6
CONTINUOUS
 62
     7
 10
167.52163335736839
 20
53.601455089215918
 30
0.0
 11
144.39722538079619
 21
53.12858207409991
 31
0.0
 12
169.01483108081149
 22
51.80916811542965
 32
0.0
 13
169.01483108081149
 23
51.80916811542965
 33
0.0
210
0.0
220
0.0
230
1.0
  0
SOLID
  5
6E9
  8
DRG
  6
CONTINUOUS
 62
     7
 10
85.261041575894609
 20
53.841290814686097
 30
0.0
 11
83.767738342711013
 21
52.162884749338318
 31
0.0
 12
107.7375943521987
 22
53.545888665485258
 32
0.0
 13
107.7375943521987
 23
53.545888665485258
 33
0.0
  0
SOLID
  5
6EA
  8
DRG
  6
CONTINUOUS
 62
     7
 10
10.429819561258061
 20
54.445496591066302
 30
0.0
 11
9.0029836342297038
 21
52.657637506420173
 31
0.0
 12
26.5765362782073
 22
53.111824663876313
 32
0.0
 13
26.5765362782073
 23
53.111824663876313
 33
0.0
210
0.0
220
0.0
230
1.0
  0
SOLID
  5
6EB
  8
DRG
  6
CONTINUOUS
 62
     7
 10
128.67452611822259
 20
54.668946024108031
 30
0.0
 11
127.2345352189994
 21
53.086533694841222
 31
0.0
 12
136.6041529029215
 22
48.740104065808111
 32
0.0
 13
136.6041529029215
 23
48.740104065808111
 33
0.0
210
0.0
220
0.0
230
1.0
  0
SOLID
  5
6EC
  8
DRG
  6
CONTINUOUS
 62
     7
 10
25.500790394036571
 20
54.774462252300957
 30
0.0
 11
10.429819561258061
 21
54.445496591066302
 31
0.0
 12
26.5765362782073
 22
53.111824663876313
 32
0.0
 13
26.5765362782073
 23
53.111824663876313
 33
0.0
  0
SOLID
  5
6ED
  8
DRG
  6
CONTINUOUS
 62
     7
 10
146.2582646169646
 20
54.791588372372388
 30
0.0
 11
144.39722538079619
 21
53.12858207409991
 31
0.0
 12
167.52163335736839
 22
53.601455089215918
 32
0.0
 13
167.52163335736839
 23
53.601455089215918
 33
0.0
210
0.0
220
0.0
230
1.0
  0
SOLID
  5
6EE
  8
DRG
  6
CONTINUOUS
 62
     7
 10
68.947379217774412
 20
55.038242638877229
 30
0.0
 11
47.983201019849879
 21
53.54588866548535
 31
0.0
 12
70.76581779577775
 22
53.545888665485258
 32
0.0
 13
70.76581779577775
 23
53.545888665485258
 33
0.0
210
0.0
220
0.0
230
1.0
  0
SOLID
  5
6EF
  8
DRG
  6
CONTINUOUS
 62
     7
 10
105.9191557741953
 20
55.038242638877229
 30
0.0
 11
85.261041575894609
 21
53.841290814686097
 31
0.0
 12
107.7375943521987
 22
53.545888665485258
 32
0.0
 13
107.7375943521987
 23
53.545888665485258
 33
0.0
210
0.0
220
0.0
230
1.0
  0
SOLID
  5
6F0
  8
DRG
  6
CONTINUOUS
 62
     7
 10
49.801639597853217
 20
55.038242638877293
 30
0.0
 11
47.983201019849879
 21
53.54588866548535
 31
0.0
 12
68.947379217774412
 22
55.038242638877229
 32
0.0
 13
68.947379217774412
 23
55.038242638877229
 33
0.0
210
0.0
220
0.0
230
1.0
  0
SOLID
  5
6F1
  8
DRG
  6
CONTINUOUS
 62
     7
 10
165.70988047733371
 20
55.070973220912713
 30
0.0
 11
146.2582646169646
 21
54.791588372372388
 31
0.0
 12
167.52163335736839
 22
53.601455089215918
 32
0.0
 13
167.52163335736839
 23
53.601455089215918
 33
0.0
210
0.0
220
0.0
230
1.0
  0
SOLID
  5
6F2
  8
DRG
  6
CONTINUOUS
 62
     7
 10
87.041015101327872
 20
55.211946028512493
 30
0.0
 11
85.261041575894609
 21
53.841290814686097
 31
0.0
 12
105.9191557741953
 22
55.038242638877229
 32
0.0
 13
105.9191557741953
 23
55.038242638877229
 33
0.0
210
0.0
220
0.0
230
1.0
  0
SOLID
  5
6F3
  8
DRG
  6
CONTINUOUS
 62
     7
 10
130.41157415689369
 20
55.918052377070133
 30
0.0
 11
128.67452611822259
 21
54.668946024108031
 31
0.0
 12
136.6041529029215
 22
48.740104065808111
 32
0.0
 13
136.6041529029215
 23
48.740104065808111
 33
0.0
210
0.0
220
0.0
230
1.0
  0
SOLID
  5
6F4
  8
DRG
  6
CONTINUOUS
 62
     7
 10
12.1674475127723
 20
55.93309531764784
 30
0.0
 11
10.429819561258061
 21
54.445496591066302
 31
0.0
 12
25.500790394036571
 22
54.774462252300957
 32
0.0
 13
25.500790394036571
 23
54.774462252300957
 33
0.0
210
0.0
220
0.0
230
1.0
  0
SOLID
  5
6F5
  8
DRG
  6
CONTINUOUS
 62
     7
 10
148.42305542729969
 20
56.033658311683958
 30
0.0
 11
146.2582646169646
 21
54.791588372372388
 31
0.0
 12
165.70988047733371
 22
55.070973220912713
 32
0.0
 13
165.70988047733371
 23
55.070973220912713
 33
0.0
  0
SOLID
  5
6F6
  8
DRG
  6
CONTINUOUS
 62
     7
 10
103.8445141663412
 20
56.147161681382137
 30
0.0
 11
87.041015101327872
 21
55.211946028512493
 31
0.0
 12
105.9191557741953
 22
55.038242638877229
 32
0.0
 13
105.9191557741953
 23
55.038242638877229
 33
0.0
210
0.0
220
0.0
230
1.0
  0
SOLID
  5
6F7
  8
DRG
  6
CONTINUOUS
 62
     7
 10
66.87273760992025
 20
56.147161681382137
 30
0.0
 11
49.801639597853217
 21
55.038242638877293
 31
0.0
 12
68.947379217774412
 22
55.038242638877229
 32
0.0
 13
68.947379217774412
 23
55.038242638877229
 33
0.0
210
0.0
220
0.0
230
1.0
  0
SOLID
  5
6F8
  8
DRG
  6
CONTINUOUS
 62
     7
 10
51.87628120570735
 20
56.147161681382158
 30
0.0
 11
49.801639597853217
 21
55.038242638877293
 31
0.0
 12
66.87273760992025
 22
56.147161681382137
 32
0.0
 13
66.87273760992025
 23
56.147161681382137
 33
0.0
210
0.0
220
0.0
230
1.0
  0
SOLID
  5
6F9
  8
DRG
  6
CONTINUOUS
 62
     7
 10
163.64804074655649
 20
56.162187664680708
 30
0.0
 11
148.42305542729969
 21
56.033658311683958
 31
0.0
 12
165.70988047733371
 22
55.070973220912713
 32
0.0
 13
165.70988047733371
 23
55.070973220912713
 33
0.0
210
0.0
220
0.0
230
1.0
  0
SOLID
  5
6FA
  8
DRG
  6
CONTINUOUS
 62
     7
 10
24.090833070868062
 20
56.165006499923557
 30
0.0
 11
12.1674475127723
 21
55.93309531764784
 31
0.0
 12
25.500790394036571
 22
54.774462252300957
 32
0.0
 13
25.500790394036571
 23
54.774462252300957
 33
0.0
210
0.0
220
0.0
230
1.0
  0
SOLID
  5
6FB
  8
DRG
  6
CONTINUOUS
 62
     7
 10
89.045273301003363
 20
56.226810815302507
 30
0.0
 11
87.041015101327872
 21
55.211946028512493
 31
0.0
 12
103.8445141663412
 22
56.147161681382137
 32
0.0
 13
103.8445141663412
 23
56.147161681382137
 33
0.0
  0
SOLID
  5
6FC
  8
DRG
  6
CONTINUOUS
 62
     7
 10
132.37003801702659
 20
56.779459294975013
 30
0.0
 11
130.41157415689369
 21
55.918052377070133
 31
0.0
 12
136.6041529029215
 22
48.740104065808111
 32
0.0
 13
136.6041529029215
 23
48.740104065808111
 33
0.0
210
0.0
220
0.0
230
1.0
  0
SOLID
  5
6FD
  8
DRG
  6
CONTINUOUS
 62
     7
 10
150.79795471928901
 20
56.801063250136181
 30
0.0
 11
148.42305542729969
 21
56.033658311683958
 31
0.0
 12
163.64804074655649
 22
56.162187664680708
 32
0.0
 13
163.64804074655649
 23
56.162187664680708
 33
0.0
210
0.0
220
0.0
230
1.0
  0
SOLID
  5
6FE
  8
DRG
  6
CONTINUOUS
 62
     7
 10
64.621620285732703
 20
56.830030656085462
 30
0.0
 11
51.87628120570735
 21
56.147161681382158
 31
0.0
 12
66.87273760992025
 22
56.147161681382137
 32
0.0
 13
66.87273760992025
 23
56.147161681382137
 33
0.0
210
0.0
220
0.0
230
1.0
  0
SOLID
  5
6FF
  8
DRG
  6
CONTINUOUS
 62
     7
 10
101.59339684215369
 20
56.830030656085462
 30
0.0
 11
89.045273301003363
 21
56.226810815302507
 31
0.0
 12
103.8445141663412
 22
56.147161681382137
 32
0.0
 13
103.8445141663412
 23
56.147161681382137
 33
0.0
  0
SOLID
  5
700
  8
DRG
  6
CONTINUOUS
 62
     7
 10
54.127398529894862
 20
56.830030656085469
 30
0.0
 11
51.87628120570735
 21
56.147161681382158
 31
0.0
 12
64.621620285732703
 22
56.830030656085462
 32
0.0
 13
64.621620285732703
 23
56.830030656085462
 33
0.0
210
0.0
220
0.0
230
1.0
  0
SOLID
  5
701
  8
DRG
  6
CONTINUOUS
 62
     7
 10
161.41403355175541
 20
56.83386012300921
 30
0.0
 11
150.79795471928901
 21
56.801063250136181
 31
0.0
 12
163.64804074655649
 22
56.162187664680708
 32
0.0
 13
163.64804074655649
 23
56.162187664680708
 33
0.0
210
0.0
220
0.0
230
1.0
  0
SOLID
  5
702
  8
DRG
  6
CONTINUOUS
 62
     7
 10
91.203569688303915
 20
56.850315563478652
 30
0.0
 11
89.045273301003363
 21
56.226810815302507
 31
0.0
 12
101.59339684215369
 22
56.830030656085462
 32
0.0
 13
101.59339684215369
 23
56.830030656085462
 33
0.0
210
0.0
220
0.0
230
1.0
  0
SOLID
  5
703
  8
DRG
  6
CONTINUOUS
 62
     7
 10
54.127398529894862
 20
56.830030656085469
 30
0.0
 11
62.280536421539182
 21
57.06060729124669
 31
0.0
 12
56.468482394088369
 22
57.06060729124669
 32
0.0
 13
56.468482394088369
 23
57.06060729124669
 33
0.0
210
0.0
220
0.0
230
1.0
  0
SOLID
  5
704
  8
DRG
  6
CONTINUOUS
 62
     7
 10
62.280536421539182
 20
57.06060729124669
 30
0.0
 11
54.127398529894862
 21
56.830030656085469
 31
0.0
 12
64.621620285732703
 22
56.830030656085462
 32
0.0
 13
64.621620285732703
 23
56.830030656085462
 33
0.0
210
0.0
220
0.0
230
1.0
  0
SOLID
  5
705
  8
DRG
  6
CONTINUOUS
 62
     7
 10
91.203569688303915
 20
56.850315563478652
 30
0.0
 11
99.252312977960173
 21
57.06060729124669
 31
0.0
 12
93.440258950509346
 22
57.06060729124669
 32
0.0
 13
93.440258950509346
 23
57.06060729124669
 33
0.0
210
0.0
220
0.0
230
1.0
  0
SOLID
  5
706
  8
DRG
  6
CONTINUOUS
 62
     7
 10
99.252312977960173
 20
57.06060729124669
 30
0.0
 11
91.203569688303915
 21
56.850315563478652
 31
0.0
 12
101.59339684215369
 22
56.830030656085462
 32
0.0
 13
101.59339684215369
 23
56.830030656085462
 33
0.0
210
0.0
220
0.0
230
1.0
  0
SOLID
  5
707
  8
DRG
  6
CONTINUOUS
 62
     7
 10
161.41403355175541
 20
56.83386012300921
 30
0.0
 11
159.0922846938046
 21
57.06060729124669
 31
0.0
 12
153.28023066635379
 22
57.06060729124669
 32
0.0
 13
153.28023066635379
 23
57.06060729124669
 33
0.0
210
0.0
220
0.0
230
1.0
  0
SOLID
  5
708
  8
DRG
  6
CONTINUOUS
 62
     7
 10
153.28023066635379
 20
57.06060729124669
 30
0.0
 11
150.79795471928901
 21
56.801063250136181
 31
0.0
 12
161.41403355175541
 22
56.83386012300921
 32
0.0
 13
161.41403355175541
 23
56.83386012300921
 33
0.0
  0
SOLID
  5
709
  8
DRG
  6
CONTINUOUS
 62
     7
 10
27.267121908897021
 20
51.255838552818979
 30
0.0
 11
37.639779947293832
 21
57.06060729124669
 31
0.0
 12
27.267121908897028
 22
57.06060729124669
 32
0.0
 13
27.267121908897028
 23
57.06060729124669
 33
0.0
210
0.0
220
0.0
230
1.0
  0
SOLID
  5
70A
  8
DRG
  6
CONTINUOUS
 62
     7
 10
37.639779947293832
 20
57.06060729124669
 30
0.0
 11
27.267121908897021
 21
51.255838552818979
 31
0.0
 12
37.639779947293839
 22
13.760967175618781
 32
0.0
 13
37.639779947293839
 23
13.760967175618781
 33
0.0
  0
SOLID
  5
70B
  8
DRG
  6
CONTINUOUS
 62
     7
 10
14.15384917366147
 20
57.067339255620332
 30
0.0
 11
12.1674475127723
 21
55.93309531764784
 31
0.0
 12
24.090833070868062
 22
56.165006499923557
 32
0.0
 13
24.090833070868062
 23
56.165006499923557
 33
0.0
210
0.0
220
0.0
230
1.0
  0
SOLID
  5
70C
  8
DRG
  6
CONTINUOUS
 62
     7
 10
127.2345352189994
 20
53.086533694841222
 30
0.0
 11
127.2345352189994
 21
57.207648031108022
 31
0.0
 12
116.19314081319391
 22
57.207648031108022
 32
0.0
 13
116.19314081319391
 23
57.207648031108022
 33
0.0
210
0.0
220
0.0
230
1.0
  0
SOLID
  5
70D
  8
DRG
  6
CONTINUOUS
 62
     7
 10
116.19314081319391
 20
57.207648031108022
 30
0.0
 11
116.19314081319391
 21
17.28637227261407
 31
0.0
 12
127.2345352189994
 22
53.086533694841222
 32
0.0
 13
127.2345352189994
 23
53.086533694841222
 33
0.0
210
0.0
220
0.0
230
1.0
  0
SOLID
  5
70E
  8
DRG
  6
CONTINUOUS
 62
     7
 10
136.6041529029215
 20
57.207648031108022
 30
0.0
 11
132.37003801702659
 21
56.779459294975013
 31
0.0
 12
136.6041529029215
 22
48.740104065808111
 32
0.0
 13
136.6041529029215
 23
48.740104065808111
 33
0.0
  0
SOLID
  5
70F
  8
DRG
  6
CONTINUOUS
 62
     7
 10
134.46463462969641
 20
57.215656039407847
 30
0.0
 11
132.37003801702659
 21
56.779459294975013
 31
0.0
 12
136.6041529029215
 22
57.207648031108022
 32
0.0
 13
136.6041529029215
 23
57.207648031108022
 33
0.0
210
0.0
220
0.0
230
1.0
  0
SOLID
  5
710
  8
DRG
  6
CONTINUOUS
 62
     7
 10
22.41344183966368
 20
57.217599305918121
 30
0.0
 11
14.15384917366147
 21
57.067339255620332
 31
0.0
 12
24.090833070868062
 22
56.165006499923557
 32
0.0
 13
24.090833070868062
 23
56.165006499923557
 33
0.0
210
0.0
220
0.0
230
1.0
  0
SOLID
  5
711
  8
DRG
  6
CONTINUOUS
 62
     7
 10
16.318127155313359
 20
57.807745689511478
 30
0.0
 11
14.15384917366147
 21
57.067339255620332
 31
0.0
 12
22.41344183966368
 22
57.217599305918121
 32
0.0
 13
22.41344183966368
 23
57.217599305918121
 33
0.0
210
0.0
220
0.0
230
1.0
  0
SOLID
  5
712
  8
DRG
  6
CONTINUOUS
 62
     7
 10
20.548060271541839
 20
57.882388417640122
 30
0.0
 11
16.318127155313359
 21
57.807745689511478
 31
0.0
 12
22.41344183966368
 22
57.217599305918121
 32
0.0
 13
22.41344183966368
 23
57.217599305918121
 33
0.0
210
0.0
220
0.0
230
1.0
  0
SOLID
  5
713
  8
DRG
  6
CONTINUOUS
 62
     7
 10
18.58303542025671
 20
58.127888502333931
 30
0.0
 11
16.318127155313359
 21
57.807745689511478
 31
0.0
 12
20.548060271541839
 22
57.882388417640122
 32
0.0
 13
20.548060271541839
 23
57.882388417640122
 33
0.0
210
0.0
220
0.0
230
1.0
  0
SOLID
  5
714
  8
DRG
  6
CONTINUOUS
 62
     7
 10
73.551023738501186
 20
61.097908438012972
 30
0.0
 11
75.331191210151701
 21
60.89733173546756
 31
0.0
 12
80.675802928262684
 22
60.89733173546756
 32
0.0
 13
80.675802928262684
 23
60.89733173546756
 33
0.0
210
0.0
220
0.0
230
1.0
  0
SOLID
  5
715
  8
DRG
  6
CONTINUOUS
 62
     7
 10
106.0029162871861
 20
61.127907507119559
 30
0.0
 11
97.849782736700035
 21
60.89733173546756
 31
0.0
 12
103.66183676415081
 22
60.89733173546756
 32
0.0
 13
103.66183676415081
 23
60.89733173546756
 33
0.0
210
0.0
220
0.0
230
1.0
  0
SOLID
  5
716
  8
DRG
  6
CONTINUOUS
 62
     7
 10
49.991276450151993
 20
61.127907507119559
 30
0.0
 11
41.838142899665847
 21
60.89733173546756
 31
0.0
 12
47.650196927116667
 22
60.89733173546756
 32
0.0
 13
47.650196927116667
 23
60.89733173546756
 33
0.0
210
0.0
220
0.0
230
1.0
  0
SOLID
  5
717
  8
DRG
  6
CONTINUOUS
 62
     7
 10
95.5086988725065
 20
61.127908370628781
 30
0.0
 11
97.849782736700035
 21
60.89733173546756
 31
0.0
 12
106.0029162871861
 22
61.127907507119559
 32
0.0
 13
106.0029162871861
 23
61.127907507119559
 33
0.0
210
0.0
220
0.0
230
1.0
  0
SOLID
  5
718
  8
DRG
  6
CONTINUOUS
 62
     7
 10
39.497059035472361
 20
61.127908370628781
 30
0.0
 11
41.838142899665847
 21
60.89733173546756
 31
0.0
 12
49.991276450151993
 22
61.127907507119559
 32
0.0
 13
49.991276450151993
 23
61.127907507119559
 33
0.0
210
0.0
220
0.0
230
1.0
  0
SOLID
  5
719
  8
DRG
  6
CONTINUOUS
 62
     7
 10
82.673677075028507
 20
61.207576574819242
 30
0.0
 11
73.551023738501186
 21
61.097908438012972
 31
0.0
 12
80.675802928262684
 22
60.89733173546756
 32
0.0
 13
80.675802928262684
 23
60.89733173546756
 33
0.0
210
0.0
220
0.0
230
1.0
  0
SOLID
  5
71A
  8
DRG
  6
CONTINUOUS
 62
     7
 10
71.860121297211236
 20
61.689580792248208
 30
0.0
 11
73.551023738501186
 21
61.097908438012972
 31
0.0
 12
82.673677075028507
 22
61.207576574819242
 32
0.0
 13
82.673677075028507
 23
61.207576574819242
 33
0.0
210
0.0
220
0.0
230
1.0
  0
SOLID
  5
71B
  8
DRG
  6
CONTINUOUS
 62
     7
 10
52.242389936933542
 20
61.810773957663443
 30
0.0
 11
39.497059035472361
 21
61.127908370628781
 31
0.0
 12
49.991276450151993
 22
61.127907507119559
 32
0.0
 13
49.991276450151993
 23
61.127907507119559
 33
0.0
210
0.0
220
0.0
230
1.0
  0
SOLID
  5
71C
  8
DRG
  6
CONTINUOUS
 62
     7
 10
108.2540297739677
 20
61.810773957663443
 30
0.0
 11
95.5086988725065
 21
61.127908370628781
 31
0.0
 12
106.0029162871861
 22
61.127907507119559
 32
0.0
 13
106.0029162871861
 23
61.127907507119559
 33
0.0
210
0.0
220
0.0
230
1.0
  0
SOLID
  5
71D
  8
DRG
  6
CONTINUOUS
 62
     7
 10
37.24594171128485
 20
61.810777345332077
 30
0.0
 11
39.497059035472361
 21
61.127908370628781
 31
0.0
 12
52.242389936933542
 22
61.810773957663443
 32
0.0
 13
52.242389936933542
 23
61.810773957663443
 33
0.0
  0
SOLID
  5
71E
  8
DRG
  6
CONTINUOUS
 62
     7
 10
93.257581548318967
 20
61.810777345332113
 30
0.0
 11
95.5086988725065
 21
61.127908370628781
 31
0.0
 12
108.2540297739677
 22
61.810773957663443
 32
0.0
 13
108.2540297739677
 23
61.810773957663443
 33
0.0
210
0.0
220
0.0
230
1.0
  0
SOLID
  5
71F
  8
DRG
  6
CONTINUOUS
 62
     7
 10
84.501142256151084
 20
62.072518178885289
 30
0.0
 11
71.860121297211236
 21
61.689580792248208
 31
0.0
 12
82.673677075028507
 22
61.207576574819242
 32
0.0
 13
82.673677075028507
 23
61.207576574819242
 33
0.0
210
0.0
220
0.0
230
1.0
  0
SOLID
  5
720
  8
DRG
  6
CONTINUOUS
 62
     7
 10
70.343272795281834
 20
62.642679875723317
 30
0.0
 11
71.860121297211236
 21
61.689580792248208
 31
0.0
 12
84.501142256151084
 22
62.072518178885289
 32
0.0
 13
84.501142256151084
 23
62.072518178885289
 33
0.0
210
0.0
220
0.0
230
1.0
  0
SOLID
  5
721
  8
DRG
  6
CONTINUOUS
 62
     7
 10
110.3286685196136
 20
62.919689010637612
 30
0.0
 11
93.257581548318967
 21
61.810777345332113
 31
0.0
 12
108.2540297739677
 22
61.810773957663443
 32
0.0
 13
108.2540297739677
 23
61.810773957663443
 33
0.0
210
0.0
220
0.0
230
1.0
  0
SOLID
  5
722
  8
DRG
  6
CONTINUOUS
 62
     7
 10
54.317028682579519
 20
62.919689010637612
 30
0.0
 11
37.24594171128485
 21
61.810777345332077
 31
0.0
 12
52.242389936933542
 22
61.810773957663443
 32
0.0
 13
52.242389936933542
 23
61.810773957663443
 33
0.0
210
0.0
220
0.0
230
1.0
  0
SOLID
  5
723
  8
DRG
  6
CONTINUOUS
 62
     7
 10
35.171300103430731
 20
62.919696387836943
 30
0.0
 11
37.24594171128485
 21
61.810777345332077
 31
0.0
 12
54.317028682579519
 22
62.919689010637612
 32
0.0
 13
54.317028682579519
 23
62.919689010637612
 33
0.0
210
0.0
220
0.0
230
1.0
  0
SOLID
  5
724
  8
DRG
  6
CONTINUOUS
 62
     7
 10
91.182939940464834
 20
62.919696387837
 30
0.0
 11
93.257581548318967
 21
61.810777345332113
 31
0.0
 12
110.3286685196136
 22
62.919689010637612
 32
0.0
 13
110.3286685196136
 23
62.919689010637612
 33
0.0
210
0.0
220
0.0
230
1.0
  0
SOLID
  5
725
  8
DRG
  6
CONTINUOUS
 62
     7
 10
69.076539350407444
 20
63.909413320597693
 30
0.0
 11
70.343272795281834
 21
62.642679875723317
 31
0.0
 12
84.501142256151084
 22
62.072518178885289
 32
0.0
 13
84.501142256151084
 23
62.072518178885289
 33
0.0
210
0.0
220
0.0
230
1.0
  0
SOLID
  5
726
  8
DRG
  6
CONTINUOUS
 62
     7
 10
56.135465782143832
 20
64.412037842036057
 30
0.0
 11
35.171300103430731
 21
62.919696387836943
 31
0.0
 12
54.317028682579519
 22
62.919689010637612
 32
0.0
 13
54.317028682579519
 23
62.919689010637612
 33
0.0
210
0.0
220
0.0
230
1.0
  0
SOLID
  5
727
  8
DRG
  6
CONTINUOUS
 62
     7
 10
112.14710561917801
 20
64.412037842036057
 30
0.0
 11
91.182939940464834
 21
62.919696387837
 31
0.0
 12
110.3286685196136
 22
62.919689010637612
 32
0.0
 13
110.3286685196136
 23
62.919689010637612
 33
0.0
210
0.0
220
0.0
230
1.0
  0
SOLID
  5
728
  8
DRG
  6
CONTINUOUS
 62
     7
 10
33.352861525427407
 20
64.412050361228864
 30
0.0
 11
35.171300103430731
 21
62.919696387836943
 31
0.0
 12
56.135465782143832
 22
64.412037842036057
 32
0.0
 13
56.135465782143832
 23
64.412037842036057
 33
0.0
210
0.0
220
0.0
230
1.0
  0
SOLID
  5
729
  8
DRG
  6
CONTINUOUS
 62
     7
 10
89.364501362461496
 20
64.412050361228964
 30
0.0
 11
91.182939940464834
 21
62.919696387837
 31
0.0
 12
112.14710561917801
 22
64.412037842036057
 32
0.0
 13
112.14710561917801
 23
64.412037842036057
 33
0.0
210
0.0
220
0.0
230
1.0
  0
SOLID
  5
72A
  8
DRG
  6
CONTINUOUS
 62
     7
 10
68.123440266932349
 20
65.426261822527096
 30
0.0
 11
69.076539350407444
 21
63.909413320597693
 31
0.0
 12
84.501142256151084
 22
62.072518178885289
 32
0.0
 13
84.501142256151084
 23
62.072518178885289
 33
0.0
210
0.0
220
0.0
230
1.0
  0
SOLID
  5
72B
  8
DRG
  6
CONTINUOUS
 62
     7
 10
113.63945981642181
 20
66.230470537963186
 30
0.0
 11
89.364501362461496
 21
64.412050361228964
 31
0.0
 12
112.14710561917801
 22
64.412037842036057
 32
0.0
 13
112.14710561917801
 23
64.412037842036057
 33
0.0
210
0.0
220
0.0
230
1.0
  0
SOLID
  5
72C
  8
DRG
  6
CONTINUOUS
 62
     7
 10
57.627819979387709
 20
66.230470537963186
 30
0.0
 11
33.352861525427407
 21
64.412050361228864
 31
0.0
 12
56.135465782143832
 22
64.412037842036057
 32
0.0
 13
56.135465782143832
 23
64.412037842036057
 33
0.0
210
0.0
220
0.0
230
1.0
  0
SOLID
  5
72D
  8
DRG
  6
CONTINUOUS
 62
     7
 10
31.860507552035429
 20
66.230488939232146
 30
0.0
 11
33.352861525427407
 21
64.412050361228864
 31
0.0
 12
57.627819979387709
 22
66.230470537963186
 32
0.0
 13
57.627819979387709
 23
66.230470537963186
 33
0.0
210
0.0
220
0.0
230
1.0
  0
SOLID
  5
72E
  8
DRG
  6
CONTINUOUS
 62
     7
 10
87.872147389069525
 20
66.230488939232288
 30
0.0
 11
89.364501362461496
 21
64.412050361228964
 31
0.0
 12
113.63945981642181
 22
66.230470537963186
 32
0.0
 13
113.63945981642181
 23
66.230470537963186
 33
0.0
  0
SOLID
  5
72F
  8
DRG
  6
CONTINUOUS
 62
     7
 10
67.531767912697106
 20
67.117164263817045
 30
0.0
 11
68.123440266932349
 21
65.426261822527096
 31
0.0
 12
84.501142256151084
 22
62.072518178885289
 32
0.0
 13
84.501142256151084
 23
62.072518178885289
 33
0.0
210
0.0
220
0.0
230
1.0
  0
SOLID
  5
730
  8
DRG
  6
CONTINUOUS
 62
     7
 10
114.74838099124401
 20
68.305106011408881
 30
0.0
 11
87.872147389069525
 21
66.230488939232288
 31
0.0
 12
113.63945981642181
 22
66.230470537963186
 32
0.0
 13
113.63945981642181
 23
66.230470537963186
 33
0.0
210
0.0
220
0.0
230
1.0
  0
SOLID
  5
731
  8
DRG
  6
CONTINUOUS
 62
     7
 10
58.736741154209867
 20
68.305106011408881
 30
0.0
 11
31.860507552035429
 21
66.230488939232146
 31
0.0
 12
57.627819979387709
 22
66.230470537963186
 32
0.0
 13
57.627819979387709
 23
66.230470537963186
 33
0.0
210
0.0
220
0.0
230
1.0
  0
SOLID
  5
732
  8
DRG
  6
CONTINUOUS
 62
     7
 10
30.751588509530521
 20
68.305130547086236
 30
0.0
 11
31.860507552035429
 21
66.230488939232146
 31
0.0
 12
58.736741154209867
 22
68.305106011408881
 32
0.0
 13
58.736741154209867
 23
68.305106011408881
 33
0.0
210
0.0
220
0.0
230
1.0
  0
SOLID
  5
733
  8
DRG
  6
CONTINUOUS
 62
     7
 10
86.763228346564617
 20
68.305130547086421
 30
0.0
 11
87.872147389069525
 21
66.230488939232288
 31
0.0
 12
114.74838099124401
 22
68.305106011408881
 32
0.0
 13
114.74838099124401
 23
68.305106011408881
 33
0.0
210
0.0
220
0.0
230
1.0
  0
SOLID
  5
734
  8
DRG
  6
CONTINUOUS
 62
     7
 10
44.744171147941039
 20
68.794444026784149
 30
0.0
 11
30.751588509530521
 21
68.305130547086236
 31
0.0
 12
58.736741154209867
 22
68.305106011408881
 32
0.0
 13
58.736741154209867
 23
68.305106011408881
 33
0.0
210
0.0
220
0.0
230
1.0
  0
SOLID
  5
735
  8
DRG
  6
CONTINUOUS
 62
     7
 10
100.7558109849752
 20
68.794444026784163
 30
0.0
 11
86.763228346564617
 21
68.305130547086421
 31
0.0
 12
114.74838099124401
 22
68.305106011408881
 32
0.0
 13
114.74838099124401
 23
68.305106011408881
 33
0.0
210
0.0
220
0.0
230
1.0
  0
SOLID
  5
736
  8
DRG
  6
CONTINUOUS
 62
     7
 10
67.331191210151701
 20
68.89733173546756
 30
0.0
 11
67.531767912697106
 21
67.117164263817045
 31
0.0
 12
84.501142256151084
 22
62.072518178885289
 32
0.0
 13
84.501142256151084
 23
62.072518178885289
 33
0.0
210
0.0
220
0.0
230
1.0
  0
SOLID
  5
737
  8
DRG
  6
CONTINUOUS
 62
     7
 10
45.937347357229378
 20
68.983424572900503
 30
0.0
 11
44.744171147941039
 21
68.794444026784149
 31
0.0
 12
58.736741154209867
 22
68.305106011408881
 32
0.0
 13
58.736741154209867
 23
68.305106011408881
 33
0.0
210
0.0
220
0.0
230
1.0
  0
SOLID
  5
738
  8
DRG
  6
CONTINUOUS
 62
     7
 10
101.94898719426349
 20
68.983424572900518
 30
0.0
 11
100.7558109849752
 21
68.794444026784163
 31
0.0
 12
114.74838099124401
 22
68.305106011408881
 32
0.0
 13
114.74838099124401
 23
68.305106011408881
 33
0.0
210
0.0
220
0.0
230
1.0
  0
SOLID
  5
739
  8
DRG
  6
CONTINUOUS
 62
     7
 10
43.550994938652813
 20
68.983424572901143
 30
0.0
 11
30.751588509530521
 21
68.305130547086236
 31
0.0
 12
44.744171147941039
 22
68.794444026784149
 32
0.0
 13
44.744171147941039
 23
68.794444026784149
 33
0.0
210
0.0
220
0.0
230
1.0
  0
SOLID
  5
73A
  8
DRG
  6
CONTINUOUS
 62
     7
 10
99.562634775687002
 20
68.983424572901157
 30
0.0
 11
86.763228346564617
 21
68.305130547086421
 31
0.0
 12
100.7558109849752
 22
68.794444026784163
 32
0.0
 13
100.7558109849752
 23
68.794444026784163
 33
0.0
210
0.0
220
0.0
230
1.0
  0
SOLID
  5
73B
  8
DRG
  6
CONTINUOUS
 62
     7
 10
47.013727165805179
 20
69.531867478691453
 30
0.0
 11
45.937347357229378
 21
68.983424572900503
 31
0.0
 12
58.736741154209867
 22
68.305106011408881
 32
0.0
 13
58.736741154209867
 23
68.305106011408881
 33
0.0
210
0.0
220
0.0
230
1.0
  0
SOLID
  5
73C
  8
DRG
  6
CONTINUOUS
 62
     7
 10
103.0253670028393
 20
69.531867478691467
 30
0.0
 11
101.94898719426349
 21
68.983424572900518
 31
0.0
 12
114.74838099124401
 22
68.305106011408881
 32
0.0
 13
114.74838099124401
 23
68.305106011408881
 33
0.0
210
0.0
220
0.0
230
1.0
  0
SOLID
  5
73D
  8
DRG
  6
CONTINUOUS
 62
     7
 10
42.474615130077296
 20
69.531867478692675
 30
0.0
 11
30.751588509530521
 21
68.305130547086236
 31
0.0
 12
43.550994938652813
 22
68.983424572901143
 32
0.0
 13
43.550994938652813
 23
68.983424572901143
 33
0.0
210
0.0
220
0.0
230
1.0
  0
SOLID
  5
73E
  8
DRG
  6
CONTINUOUS
 62
     7
 10
98.486254967111506
 20
69.531867478692689
 30
0.0
 11
86.763228346564617
 21
68.305130547086421
 31
0.0
 12
99.562634775687002
 22
68.983424572901157
 32
0.0
 13
99.562634775687002
 23
68.983424572901157
 33
0.0
210
0.0
220
0.0
230
1.0
  0
SOLID
  5
73F
  8
DRG
  6
CONTINUOUS
 62
     7
 10
80.482556033578916
 20
69.876055965300111
 30
0.0
 11
67.331191210151701
 21
68.89733173546756
 31
0.0
 12
84.501142256151084
 22
62.072518178885289
 32
0.0
 13
84.501142256151084
 23
62.072518178885289
 33
0.0
210
0.0
220
0.0
230
1.0
  0
SOLID
  5
740
  8
DRG
  6
CONTINUOUS
 62
     7
 10
84.501142256151084
 20
62.072518178885289
 30
0.0
 11
83.501142256151255
 21
69.876055965300111
 31
0.0
 12
80.482556033578916
 22
69.876055965300111
 32
0.0
 13
80.482556033578916
 23
69.876055965300111
 33
0.0
210
0.0
220
0.0
230
1.0
  0
SOLID
  5
741
  8
DRG
  6
CONTINUOUS
 62
     7
 10
84.015250681967487
 20
70.00375669518948
 30
0.0
 11
83.501142256151255
 21
69.876055965300111
 31
0.0
 12
84.501142256151084
 22
62.072518178885289
 32
0.0
 13
84.501142256151084
 23
62.072518178885289
 33
0.0
  0
SOLID
  5
742
  8
DRG
  6
CONTINUOUS
 62
     7
 10
79.334505736483663
 20
70.104417367766246
 30
0.0
 11
67.331191210151701
 21
68.89733173546756
 31
0.0
 12
80.482556033578916
 22
69.876055965300111
 32
0.0
 13
80.482556033578916
 23
69.876055965300111
 33
0.0
210
0.0
220
0.0
230
1.0
  0
SOLID
  5
743
  8
DRG
  6
CONTINUOUS
 62
     7
 10
84.501142256151084
 20
70.214764581409185
 30
0.0
 11
84.015250681967487
 21
70.00375669518948
 31
0.0
 12
84.501142256151084
 22
62.072518178885289
 32
0.0
 13
84.501142256151084
 23
62.072518178885289
 33
0.0
210
0.0
220
0.0
230
1.0
  0
SOLID
  5
744
  8
DRG
  6
CONTINUOUS
 62
     7
 10
47.867947018425959
 20
70.386087331311757
 30
0.0
 11
47.013727165805179
 21
69.531867478691453
 31
0.0
 12
58.736741154209867
 22
68.305106011408881
 32
0.0
 13
58.736741154209867
 23
68.305106011408881
 33
0.0
210
0.0
220
0.0
230
1.0
  0
SOLID
  5
745
  8
DRG
  6
CONTINUOUS
 62
     7
 10
103.8795868554601
 20
70.386087331311771
 30
0.0
 11
103.0253670028393
 21
69.531867478691467
 31
0.0
 12
114.74838099124401
 22
68.305106011408881
 32
0.0
 13
114.74838099124401
 23
68.305106011408881
 33
0.0
210
0.0
220
0.0
230
1.0
  0
SOLID
  5
746
  8
DRG
  6
CONTINUOUS
 62
     7
 10
41.620395277457
 20
70.386087331313433
 30
0.0
 11
30.751588509530521
 21
68.305130547086236
 31
0.0
 12
42.474615130077296
 22
69.531867478692675
 32
0.0
 13
42.474615130077296
 23
69.531867478692675
 33
0.0
  0
SOLID
  5
747
  8
DRG
  6
CONTINUOUS
 62
     7
 10
97.632035114491202
 20
70.386087331313462
 30
0.0
 11
86.763228346564617
 21
68.305130547086421
 31
0.0
 12
98.486254967111506
 22
69.531867478692689
 32
0.0
 13
98.486254967111506
 23
69.531867478692689
 33
0.0
210
0.0
220
0.0
230
1.0
  0
SOLID
  5
748
  8
DRG
  6
CONTINUOUS
 62
     7
 10
115.4312540843801
 20
70.556217483175402
 30
0.0
 11
103.8795868554601
 21
70.386087331311771
 31
0.0
 12
114.74838099124401
 22
68.305106011408881
 32
0.0
 13
114.74838099124401
 23
68.305106011408881
 33
0.0
210
0.0
220
0.0
230
1.0
  0
SOLID
  5
749
  8
DRG
  6
CONTINUOUS
 62
     7
 10
59.419614247346018
 20
70.556217483175402
 30
0.0
 11
47.867947018425959
 21
70.386087331311757
 31
0.0
 12
58.736741154209867
 22
68.305106011408881
 32
0.0
 13
58.736741154209867
 23
68.305106011408881
 33
0.0
210
0.0
220
0.0
230
1.0
  0
SOLID
  5
74A
  8
DRG
  6
CONTINUOUS
 62
     7
 10
30.068719534827149
 20
70.556247871273712
 30
0.0
 11
30.751588509530521
 21
68.305130547086236
 31
0.0
 12
41.620395277457
 22
70.386087331313433
 32
0.0
 13
41.620395277457
 23
70.386087331313433
 33
0.0
210
0.0
220
0.0
230
1.0
  0
SOLID
  5
74B
  8
DRG
  6
CONTINUOUS
 62
     7
 10
86.080359371861277
 20
70.556247871273953
 30
0.0
 11
86.763228346564617
 21
68.305130547086421
 31
0.0
 12
97.632035114491202
 22
70.386087331313462
 32
0.0
 13
97.632035114491202
 23
70.386087331313462
 33
0.0
  0
SOLID
  5
74C
  8
DRG
  6
CONTINUOUS
 62
     7
 10
78.361235690019285
 20
70.754735621740465
 30
0.0
 11
67.331191210151701
 21
68.89733173546756
 31
0.0
 12
79.334505736483663
 22
70.104417367766246
 32
0.0
 13
79.334505736483663
 23
70.104417367766246
 33
0.0
210
0.0
220
0.0
230
1.0
  0
SOLID
  5
74D
  8
DRG
  6
CONTINUOUS
 62
     7
 10
48.416389924217491
 20
71.462467139887266
 30
0.0
 11
47.867947018425959
 21
70.386087331311757
 31
0.0
 12
59.419614247346018
 22
70.556217483175402
 32
0.0
 13
59.419614247346018
 23
70.556217483175402
 33
0.0
  0
SOLID
  5
74E
  8
DRG
  6
CONTINUOUS
 62
     7
 10
104.42802976125159
 20
71.462467139887281
 30
0.0
 11
103.8795868554601
 21
70.386087331311771
 31
0.0
 12
115.4312540843801
 22
70.556217483175402
 32
0.0
 13
115.4312540843801
 23
70.556217483175402
 33
0.0
210
0.0
220
0.0
230
1.0
  0
SOLID
  5
74F
  8
DRG
  6
CONTINUOUS
 62
     7
 10
41.07195237166605
 20
71.462467139889256
 30
0.0
 11
30.068719534827149
 21
70.556247871273712
 31
0.0
 12
41.620395277457
 22
70.386087331313433
 32
0.0
 13
41.620395277457
 23
70.386087331313433
 33
0.0
210
0.0
220
0.0
230
1.0
  0
SOLID
  5
750
  8
DRG
  6
CONTINUOUS
 62
     7
 10
97.083592208700239
 20
71.46246713988927
 30
0.0
 11
86.080359371861277
 21
70.556247871273953
 31
0.0
 12
97.632035114491202
 22
70.386087331313462
 32
0.0
 13
97.632035114491202
 23
70.386087331313462
 33
0.0
210
0.0
220
0.0
230
1.0
  0
SOLID
  5
751
  8
DRG
  6
CONTINUOUS
 62
     7
 10
77.710917436045065
 20
71.728005668204844
 30
0.0
 11
67.331191210151701
 21
68.89733173546756
 31
0.0
 12
78.361235690019285
 22
70.754735621740465
 32
0.0
 13
78.361235690019285
 23
70.754735621740465
 33
0.0
  0
SOLID
  5
752
  8
DRG
  6
CONTINUOUS
 62
     7
 10
48.605370470334492
 20
72.655643349175492
 30
0.0
 11
48.416389924217491
 21
71.462467139887266
 31
0.0
 12
59.419614247346018
 22
70.556217483175402
 32
0.0
 13
59.419614247346018
 23
70.556217483175402
 33
0.0
210
0.0
220
0.0
230
1.0
  0
SOLID
  5
753
  8
DRG
  6
CONTINUOUS
 62
     7
 10
104.6170103073686
 20
72.655643349175506
 30
0.0
 11
104.42802976125159
 21
71.462467139887281
 31
0.0
 12
115.4312540843801
 22
70.556217483175402
 32
0.0
 13
115.4312540843801
 23
70.556217483175402
 33
0.0
210
0.0
220
0.0
230
1.0
  0
SOLID
  5
754
  8
DRG
  6
CONTINUOUS
 62
     7
 10
40.882971825549703
 20
72.655643349177566
 30
0.0
 11
30.068719534827149
 21
70.556247871273712
 31
0.0
 12
41.07195237166605
 22
71.462467139889256
 32
0.0
 13
41.07195237166605
 23
71.462467139889256
 33
0.0
210
0.0
220
0.0
230
1.0
  0
SOLID
  5
755
  8
DRG
  6
CONTINUOUS
 62
     7
 10
96.894611662583884
 20
72.655643349177595
 30
0.0
 11
86.080359371861277
 21
70.556247871273953
 31
0.0
 12
97.083592208700239
 22
71.46246713988927
 32
0.0
 13
97.083592208700239
 23
71.46246713988927
 33
0.0
  0
SOLID
  5
756
  8
DRG
  6
CONTINUOUS
 62
     7
 10
77.482556033578931
 20
72.876055965300111
 30
0.0
 11
67.331191210151701
 21
68.89733173546756
 31
0.0
 12
77.710917436045065
 22
71.728005668204844
 32
0.0
 13
77.710917436045065
 23
71.728005668204844
 33
0.0
210
0.0
220
0.0
230
1.0
  0
SOLID
  5
757
  8
DRG
  6
CONTINUOUS
 62
     7
 10
115.6618367640986
 20
72.897296325816527
 30
0.0
 11
104.6170103073686
 21
72.655643349175506
 31
0.0
 12
115.4312540843801
 22
70.556217483175402
 32
0.0
 13
115.4312540843801
 23
70.556217483175402
 33
0.0
210
0.0
220
0.0
230
1.0
  0
SOLID
  5
758
  8
DRG
  6
CONTINUOUS
 62
     7
 10
59.650196927064421
 20
72.897296325816555
 30
0.0
 11
48.605370470334492
 21
72.655643349175492
 31
0.0
 12
59.419614247346018
 22
70.556217483175402
 32
0.0
 13
59.419614247346018
 23
70.556217483175402
 33
0.0
  0
SOLID
  5
759
  8
DRG
  6
CONTINUOUS
 62
     7
 10
29.838142899665851
 20
72.897331735467191
 30
0.0
 11
30.068719534827149
 21
70.556247871273712
 31
0.0
 12
40.882971825549703
 22
72.655643349177566
 32
0.0
 13
40.882971825549703
 23
72.655643349177566
 33
0.0
210
0.0
220
0.0
230
1.0
  0
SOLID
  5
75A
  8
DRG
  6
CONTINUOUS
 62
     7
 10
85.849782736700035
 20
72.897331735467475
 30
0.0
 11
86.080359371861277
 21
70.556247871273953
 31
0.0
 12
96.894611662583884
 22
72.655643349177595
 32
0.0
 13
96.894611662583884
 23
72.655643349177595
 33
0.0
  0
SOLID
  5
75B
  8
DRG
  6
CONTINUOUS
 62
     7
 10
165.4162645291251
 20
78.311404477182364
 30
0.0
 11
161.3332883364622
 21
62.115696081838678
 31
0.0
 12
171.78072804963571
 22
62.115696081838678
 32
0.0
 13
171.78072804963571
 23
62.115696081838678
 33
0.0
210
0.0
220
0.0
230
1.0
  0
SOLID
  5
75C
  8
DRG
  6
CONTINUOUS
 62
     7
 10
48.825355035771203
 20
81.496816718755184
 30
0.0
 11
48.605370470334492
 21
72.655643349175492
 31
0.0
 12
59.650196927064421
 22
72.897296325816555
 32
0.0
 13
59.650196927064421
 23
72.897296325816555
 33
0.0
210
0.0
220
0.0
230
1.0
  0
SOLID
  5
75D
  8
DRG
  6
CONTINUOUS
 62
     7
 10
104.83699487280531
 20
81.496816718755184
 30
0.0
 11
104.6170103073686
 21
72.655643349175506
 31
0.0
 12
115.6618367640986
 22
72.897296325816527
 32
0.0
 13
115.6618367640986
 23
72.897296325816527
 33
0.0
210
0.0
220
0.0
230
1.0
  0
SOLID
  5
75E
  8
DRG
  6
CONTINUOUS
 62
     7
 10
115.9613008061006
 20
81.496816718755412
 30
0.0
 11
104.83699487280531
 21
81.496816718755184
 31
0.0
 12
115.6618367640986
 22
72.897296325816527
 32
0.0
 13
115.6618367640986
 23
72.897296325816527
 33
0.0
210
0.0
220
0.0
230
1.0
  0
SOLID
  5
75F
  8
DRG
  6
CONTINUOUS
 62
     7
 10
59.9496609690664
 20
81.49681671875544
 30
0.0
 11
48.825355035771203
 21
81.496816718755184
 31
0.0
 12
59.650196927064421
 22
72.897296325816555
 32
0.0
 13
59.650196927064421
 23
72.897296325816555
 33
0.0
210
0.0
220
0.0
230
1.0
  0
SOLID
  5
760
  8
DRG
  6
CONTINUOUS
 62
     7
 10
29.538681326817759
 20
81.496816718755596
 30
0.0
 11
29.838142899665851
 21
72.897331735467191
 31
0.0
 12
40.882971825549703
 22
72.655643349177566
 32
0.0
 13
40.882971825549703
 23
72.655643349177566
 33
0.0
  0
SOLID
  5
761
  8
DRG
  6
CONTINUOUS
 62
     7
 10
85.550321163851976
 20
81.496816718755767
 30
0.0
 11
85.849782736700035
 21
72.897331735467475
 31
0.0
 12
96.894611662583884
 22
72.655643349177595
 32
0.0
 13
96.894611662583884
 23
72.655643349177595
 33
0.0
210
0.0
220
0.0
230
1.0
  0
SOLID
  5
762
  8
DRG
  6
CONTINUOUS
 62
     7
 10
40.662987260112992
 20
81.496816718755866
 30
0.0
 11
29.538681326817759
 21
81.496816718755596
 31
0.0
 12
40.882971825549703
 22
72.655643349177566
 32
0.0
 13
40.882971825549703
 23
72.655643349177566
 33
0.0
210
0.0
220
0.0
230
1.0
  0
SOLID
  5
763
  8
DRG
  6
CONTINUOUS
 62
     7
 10
96.674627097147194
 20
81.496816718756293
 30
0.0
 11
85.550321163851976
 21
81.496816718755767
 31
0.0
 12
96.894611662583884
 22
72.655643349177595
 32
0.0
 13
96.894611662583884
 23
72.655643349177595
 33
0.0
210
0.0
220
0.0
230
1.0
  0
SOLID
  5
764
  8
DRG
  6
CONTINUOUS
 62
     7
 10
153.2899770207527
 20
82.583583780839575
 30
0.0
 11
161.3332883364622
 21
62.115696081838678
 31
0.0
 12
165.4162645291251
 22
78.311404477182364
 32
0.0
 13
165.4162645291251
 23
78.311404477182364
 33
0.0
210
0.0
220
0.0
230
1.0
  0
SOLID
  5
765
  8
DRG
  6
CONTINUOUS
 62
     7
 10
18.821661727211438
 20
85.569427875032716
 30
0.0
 11
7.7802673214059723
 21
62.115696081838671
 31
0.0
 12
18.821661727211438
 22
62.115696081838678
 32
0.0
 13
18.821661727211438
 23
62.115696081838678
 33
0.0
  0
SOLID
  5
766
  8
DRG
  6
CONTINUOUS
 62
     7
 10
130.05101171535759
 20
85.569427875032716
 30
0.0
 11
119.0096173095521
 21
62.115696081838678
 31
0.0
 12
130.05101171535759
 22
62.115696081838671
 32
0.0
 13
130.05101171535759
 23
62.115696081838671
 33
0.0
210
0.0
220
0.0
230
1.0
  0
SOLID
  5
767
  8
DRG
  6
CONTINUOUS
 62
     7
 10
176.9709164189357
 20
86.855763084496857
 30
0.0
 11
153.2899770207527
 21
82.583583780839575
 31
0.0
 12
165.4162645291251
 22
78.311404477182364
 32
0.0
 13
165.4162645291251
 23
78.311404477182364
 33
0.0
210
0.0
220
0.0
230
1.0
  0
SOLID
  5
768
  8
DRG
  6
CONTINUOUS
 62
     7
 10
176.9709164189357
 20
86.855763084496857
 30
0.0
 11
165.4162645291251
 21
78.311404477182364
 31
0.0
 12
176.9709164189357
 22
78.31140447718235
 32
0.0
 13
176.9709164189357
 23
78.31140447718235
 33
0.0
210
0.0
220
0.0
230
1.0
  0
SOLID
  5
769
  8
DRG
  6
CONTINUOUS
 62
     7
 10
165.4162645291251
 20
86.855763084496886
 30
0.0
 11
153.2899770207527
 21
82.583583780839575
 31
0.0
 12
176.9709164189357
 22
86.855763084496857
 32
0.0
 13
176.9709164189357
 23
86.855763084496857
 33
0.0
210
0.0
220
0.0
230
1.0
  0
SOLID
  5
76A
  8
DRG
  6
CONTINUOUS
 62
     7
 10
19.022238429756861
 20
87.34959534668323
 30
0.0
 11
7.7802673214059723
 21
62.115696081838671
 31
0.0
 12
18.821661727211438
 22
85.569427875032716
 32
0.0
 13
18.821661727211438
 23
85.569427875032716
 33
0.0
  0
SOLID
  5
76B
  8
DRG
  6
CONTINUOUS
 62
     7
 10
130.25158841790301
 20
87.349595346683245
 30
0.0
 11
119.0096173095521
 21
62.115696081838678
 31
0.0
 12
130.05101171535759
 22
85.569427875032716
 32
0.0
 13
130.05101171535759
 23
85.569427875032716
 33
0.0
210
0.0
220
0.0
230
1.0
  0
SOLID
  5
76C
  8
DRG
  6
CONTINUOUS
 62
     7
 10
19.61391078399209
 20
89.04049778797318
 30
0.0
 11
7.7802673214059723
 21
62.115696081838671
 31
0.0
 12
19.022238429756861
 22
87.34959534668323
 32
0.0
 13
19.022238429756861
 23
87.34959534668323
 33
0.0
  0
SOLID
  5
76D
  8
DRG
  6
CONTINUOUS
 62
     7
 10
130.84326077213819
 20
89.040497787973194
 30
0.0
 11
119.0096173095521
 21
62.115696081838678
 31
0.0
 12
130.25158841790301
 22
87.349595346683245
 32
0.0
 13
130.25158841790301
 23
87.349595346683245
 33
0.0
210
0.0
220
0.0
230
1.0
  0
SOLID
  5
76E
  8
DRG
  6
CONTINUOUS
 62
     7
 10
29.83814289966584
 20
90.096301702044016
 30
0.0
 11
29.538681326817759
 21
81.496816718755596
 31
0.0
 12
40.662987260112992
 22
81.496816718755866
 32
0.0
 13
40.662987260112992
 23
81.496816718755866
 33
0.0
210
0.0
220
0.0
230
1.0
  0
SOLID
  5
76F
  8
DRG
  6
CONTINUOUS
 62
     7
 10
85.849782736700035
 20
90.096301702044045
 30
0.0
 11
85.550321163851976
 21
81.496816718755767
 31
0.0
 12
96.674627097147194
 22
81.496816718756293
 32
0.0
 13
96.674627097147194
 23
81.496816718756293
 33
0.0
210
0.0
220
0.0
230
1.0
  0
SOLID
  5
770
  8
DRG
  6
CONTINUOUS
 62
     7
 10
115.6618367640986
 20
90.096337111694325
 30
0.0
 11
104.83699487280531
 21
81.496816718755184
 31
0.0
 12
115.9613008061006
 22
81.496816718755412
 32
0.0
 13
115.9613008061006
 23
81.496816718755412
 33
0.0
210
0.0
220
0.0
230
1.0
  0
SOLID
  5
771
  8
DRG
  6
CONTINUOUS
 62
     7
 10
59.650196927064421
 20
90.096337111694368
 30
0.0
 11
48.825355035771203
 21
81.496816718755184
 31
0.0
 12
59.9496609690664
 22
81.49681671875544
 32
0.0
 13
59.9496609690664
 23
81.49681671875544
 33
0.0
210
0.0
220
0.0
230
1.0
  0
SOLID
  5
772
  8
DRG
  6
CONTINUOUS
 62
     7
 10
40.882971825549703
 20
90.337990088334166
 30
0.0
 11
29.83814289966584
 21
90.096301702044016
 31
0.0
 12
40.662987260112992
 22
81.496816718755866
 32
0.0
 13
40.662987260112992
 23
81.496816718755866
 33
0.0
  0
SOLID
  5
773
  8
DRG
  6
CONTINUOUS
 62
     7
 10
48.605370470334456
 20
90.337990088334735
 30
0.0
 11
48.825355035771203
 21
81.496816718755184
 31
0.0
 12
59.650196927064421
 22
90.096337111694368
 32
0.0
 13
59.650196927064421
 23
90.096337111694368
 33
0.0
210
0.0
220
0.0
230
1.0
  0
SOLID
  5
774
  8
DRG
  6
CONTINUOUS
 62
     7
 10
104.6170103073686
 20
90.337990088334735
 30
0.0
 11
104.83699487280531
 21
81.496816718755184
 31
0.0
 12
115.6618367640986
 22
90.096337111694325
 32
0.0
 13
115.6618367640986
 23
90.096337111694325
 33
0.0
210
0.0
220
0.0
230
1.0
  0
SOLID
  5
775
  8
DRG
  6
CONTINUOUS
 62
     7
 10
96.894611662583884
 20
90.337990088335033
 30
0.0
 11
85.849782736700035
 21
90.096301702044045
 31
0.0
 12
96.674627097147194
 22
81.496816718756293
 32
0.0
 13
96.674627097147194
 23
81.496816718756293
 33
0.0
210
0.0
220
0.0
230
1.0
  0
SOLID
  5
776
  8
DRG
  6
CONTINUOUS
 62
     7
 10
41.071952371666292
 20
91.531166297622477
 30
0.0
 11
29.83814289966584
 21
90.096301702044016
 31
0.0
 12
40.882971825549703
 22
90.337990088334166
 32
0.0
 13
40.882971825549703
 23
90.337990088334166
 33
0.0
210
0.0
220
0.0
230
1.0
  0
SOLID
  5
777
  8
DRG
  6
CONTINUOUS
 62
     7
 10
48.416389924217718
 20
91.531166297623017
 30
0.0
 11
48.605370470334456
 21
90.337990088334735
 31
0.0
 12
59.650196927064421
 22
90.096337111694368
 32
0.0
 13
59.650196927064421
 23
90.096337111694368
 33
0.0
210
0.0
220
0.0
230
1.0
  0
SOLID
  5
778
  8
DRG
  6
CONTINUOUS
 62
     7
 10
104.42802976125201
 20
91.531166297623059
 30
0.0
 11
104.6170103073686
 21
90.337990088334735
 31
0.0
 12
115.6618367640986
 22
90.096337111694325
 32
0.0
 13
115.6618367640986
 23
90.096337111694325
 33
0.0
210
0.0
220
0.0
230
1.0
  0
SOLID
  5
779
  8
DRG
  6
CONTINUOUS
 62
     7
 10
97.083592208700608
 20
91.531166297623315
 30
0.0
 11
85.849782736700035
 21
90.096301702044045
 31
0.0
 12
96.894611662583884
 22
90.337990088335033
 32
0.0
 13
96.894611662583884
 23
90.337990088335033
 33
0.0
210
0.0
220
0.0
230
1.0
  0
SOLID
  5
77A
  8
DRG
  6
CONTINUOUS
 62
     7
 10
30.068719534827121
 20
92.437385566237509
 30
0.0
 11
29.83814289966584
 21
90.096301702044016
 31
0.0
 12
41.071952371666292
 22
91.531166297622477
 32
0.0
 13
41.071952371666292
 23
91.531166297622477
 33
0.0
  0
SOLID
  5
77B
  8
DRG
  6
CONTINUOUS
 62
     7
 10
86.080359371861306
 20
92.437385566237509
 30
0.0
 11
85.849782736700035
 21
90.096301702044045
 31
0.0
 12
97.083592208700608
 22
91.531166297623315
 32
0.0
 13
97.083592208700608
 23
91.531166297623315
 33
0.0
210
0.0
220
0.0
230
1.0
  0
SOLID
  5
77C
  8
DRG
  6
CONTINUOUS
 62
     7
 10
115.4312540843802
 20
92.437415954335535
 30
0.0
 11
104.42802976125201
 21
91.531166297623059
 31
0.0
 12
115.6618367640986
 22
90.096337111694325
 32
0.0
 13
115.6618367640986
 23
90.096337111694325
 33
0.0
210
0.0
220
0.0
230
1.0
  0
SOLID
  5
77D
  8
DRG
  6
CONTINUOUS
 62
     7
 10
59.419614247346082
 20
92.437415954335606
 30
0.0
 11
48.416389924217718
 21
91.531166297623017
 31
0.0
 12
59.650196927064421
 22
90.096337111694368
 32
0.0
 13
59.650196927064421
 23
90.096337111694368
 33
0.0
210
0.0
220
0.0
230
1.0
  0
SOLID
  5
77E
  8
DRG
  6
CONTINUOUS
 62
     7
 10
41.620395277457447
 20
92.607546106198185
 30
0.0
 11
30.068719534827121
 21
92.437385566237509
 31
0.0
 12
41.071952371666292
 22
91.531166297622477
 32
0.0
 13
41.071952371666292
 23
91.531166297622477
 33
0.0
210
0.0
220
0.0
230
1.0
  0
SOLID
  5
77F
  8
DRG
  6
CONTINUOUS
 62
     7
 10
47.867947018426399
 20
92.60754610619864
 30
0.0
 11
48.416389924217718
 21
91.531166297623017
 31
0.0
 12
59.419614247346082
 22
92.437415954335606
 32
0.0
 13
59.419614247346082
 23
92.437415954335606
 33
0.0
  0
SOLID
  5
780
  8
DRG
  6
CONTINUOUS
 62
     7
 10
103.8795868554608
 20
92.607546106198754
 30
0.0
 11
104.42802976125201
 21
91.531166297623059
 31
0.0
 12
115.4312540843802
 22
92.437415954335535
 32
0.0
 13
115.4312540843802
 23
92.437415954335535
 33
0.0
210
0.0
220
0.0
230
1.0
  0
SOLID
  5
781
  8
DRG
  6
CONTINUOUS
 62
     7
 10
97.632035114491885
 20
92.607546106198967
 30
0.0
 11
86.080359371861306
 21
92.437385566237509
 31
0.0
 12
97.083592208700608
 22
91.531166297623315
 32
0.0
 13
97.083592208700608
 23
91.531166297623315
 33
0.0
210
0.0
220
0.0
230
1.0
  0
SOLID
  5
782
  8
DRG
  6
CONTINUOUS
 62
     7
 10
42.474615130077929
 20
93.461765958818759
 30
0.0
 11
30.068719534827121
 21
92.437385566237509
 31
0.0
 12
41.620395277457447
 22
92.607546106198185
 32
0.0
 13
41.620395277457447
 23
92.607546106198185
 33
0.0
210
0.0
220
0.0
230
1.0
  0
SOLID
  5
783
  8
DRG
  6
CONTINUOUS
 62
     7
 10
47.013727165805797
 20
93.461765958819115
 30
0.0
 11
47.867947018426399
 21
92.60754610619864
 31
0.0
 12
59.419614247346082
 22
92.437415954335606
 32
0.0
 13
59.419614247346082
 23
92.437415954335606
 33
0.0
210
0.0
220
0.0
230
1.0
  0
SOLID
  5
784
  8
DRG
  6
CONTINUOUS
 62
     7
 10
103.0253670028403
 20
93.461765958819299
 30
0.0
 11
103.8795868554608
 21
92.607546106198754
 31
0.0
 12
115.4312540843802
 22
92.437415954335535
 32
0.0
 13
115.4312540843802
 23
92.437415954335535
 33
0.0
  0
SOLID
  5
785
  8
DRG
  6
CONTINUOUS
 62
     7
 10
98.486254967112458
 20
93.461765958819484
 30
0.0
 11
86.080359371861306
 21
92.437385566237509
 31
0.0
 12
97.632035114491885
 22
92.607546106198967
 32
0.0
 13
97.632035114491885
 23
92.607546106198967
 33
0.0
210
0.0
220
0.0
230
1.0
  0
SOLID
  5
786
  8
DRG
  6
CONTINUOUS
 62
     7
 10
43.550994938653538
 20
94.010208864610107
 30
0.0
 11
30.068719534827121
 21
92.437385566237509
 31
0.0
 12
42.474615130077929
 22
93.461765958818759
 32
0.0
 13
42.474615130077929
 23
93.461765958818759
 33
0.0
210
0.0
220
0.0
230
1.0
  0
SOLID
  5
787
  8
DRG
  6
CONTINUOUS
 62
     7
 10
45.937347357230102
 20
94.010208864610263
 30
0.0
 11
47.013727165805797
 21
93.461765958819115
 31
0.0
 12
59.419614247346082
 22
92.437415954335606
 32
0.0
 13
59.419614247346082
 23
92.437415954335606
 33
0.0
210
0.0
220
0.0
230
1.0
  0
SOLID
  5
788
  8
DRG
  6
CONTINUOUS
 62
     7
 10
101.9489871942646
 20
94.010208864610576
 30
0.0
 11
103.0253670028403
 21
93.461765958819299
 31
0.0
 12
115.4312540843802
 22
92.437415954335535
 32
0.0
 13
115.4312540843802
 23
92.437415954335535
 33
0.0
  0
SOLID
  5
789
  8
DRG
  6
CONTINUOUS
 62
     7
 10
99.562634775688124
 20
94.010208864610675
 30
0.0
 11
86.080359371861306
 21
92.437385566237509
 31
0.0
 12
98.486254967112458
 22
93.461765958819484
 32
0.0
 13
98.486254967112458
 23
93.461765958819484
 33
0.0
210
0.0
220
0.0
230
1.0
  0
SOLID
  5
78A
  8
DRG
  6
CONTINUOUS
 62
     7
 10
44.744171147941813
 20
94.199189410726845
 30
0.0
 11
30.068719534827121
 21
92.437385566237509
 31
0.0
 12
43.550994938653538
 22
94.010208864610107
 32
0.0
 13
43.550994938653538
 23
94.010208864610107
 33
0.0
210
0.0
220
0.0
230
1.0
  0
SOLID
  5
78B
  8
DRG
  6
CONTINUOUS
 62
     7
 10
44.744171147941813
 20
94.199189410726845
 30
0.0
 11
45.937347357230102
 21
94.010208864610263
 31
0.0
 12
59.419614247346082
 22
92.437415954335606
 32
0.0
 13
59.419614247346082
 23
92.437415954335606
 33
0.0
210
0.0
220
0.0
230
1.0
  0
SOLID
  5
78C
  8
DRG
  6
CONTINUOUS
 62
     7
 10
100.75581098497641
 20
94.199189410727286
 30
0.0
 11
86.080359371861306
 21
92.437385566237509
 31
0.0
 12
99.562634775688124
 22
94.010208864610675
 32
0.0
 13
99.562634775688124
 23
94.010208864610675
 33
0.0
  0
SOLID
  5
78D
  8
DRG
  6
CONTINUOUS
 62
     7
 10
100.75581098497641
 20
94.199189410727286
 30
0.0
 11
101.9489871942646
 21
94.010208864610576
 31
0.0
 12
115.4312540843802
 22
92.437415954335535
 32
0.0
 13
115.4312540843802
 23
92.437415954335535
 33
0.0
  0
SOLID
  5
78E
  8
DRG
  6
CONTINUOUS
 62
     7
 10
77.482556033578931
 20
94.593352860836134
 30
0.0
 11
67.331191210151701
 21
68.89733173546756
 31
0.0
 12
77.482556033578931
 22
72.876055965300111
 32
0.0
 13
77.482556033578931
 23
72.876055965300111
 33
0.0
210
0.0
220
0.0
230
1.0
  0
SOLID
  5
78F
  8
DRG
  6
CONTINUOUS
 62
     7
 10
67.331191210151687
 20
94.593352860836134
 30
0.0
 11
77.482556033578931
 21
94.593352860836134
 31
0.0
 12
84.553623006881026
 22
94.593352860836134
 32
0.0
 13
84.553623006881026
 23
94.593352860836134
 33
0.0
210
0.0
220
0.0
230
1.0
  0
SOLID
  5
790
  8
DRG
  6
CONTINUOUS
 62
     7
 10
67.331191210151687
 20
94.593352860836134
 30
0.0
 11
67.331191210151701
 21
68.89733173546756
 31
0.0
 12
77.482556033578931
 22
94.593352860836134
 32
0.0
 13
77.482556033578931
 23
94.593352860836134
 33
0.0
210
0.0
220
0.0
230
1.0
  0
SOLID
  5
791
  8
DRG
  6
CONTINUOUS
 62
     7
 10
30.751588509530482
 20
94.688502890425028
 30
0.0
 11
30.068719534827121
 21
92.437385566237509
 31
0.0
 12
44.744171147941813
 22
94.199189410726845
 32
0.0
 13
44.744171147941813
 23
94.199189410726845
 33
0.0
210
0.0
220
0.0
230
1.0
  0
SOLID
  5
792
  8
DRG
  6
CONTINUOUS
 62
     7
 10
86.763228346564645
 20
94.688502890425028
 30
0.0
 11
86.080359371861306
 21
92.437385566237509
 31
0.0
 12
100.75581098497641
 22
94.199189410727286
 32
0.0
 13
100.75581098497641
 23
94.199189410727286
 33
0.0
210
0.0
220
0.0
230
1.0
  0
SOLID
  5
793
  8
DRG
  6
CONTINUOUS
 62
     7
 10
114.7483809912442
 20
94.688527426102155
 30
0.0
 11
86.763228346564645
 21
94.688502890425028
 31
0.0
 12
100.75581098497641
 22
94.199189410727286
 32
0.0
 13
100.75581098497641
 23
94.199189410727286
 33
0.0
210
0.0
220
0.0
230
1.0
  0
SOLID
  5
794
  8
DRG
  6
CONTINUOUS
 62
     7
 10
114.7483809912442
 20
94.688527426102155
 30
0.0
 11
100.75581098497641
 21
94.199189410727286
 31
0.0
 12
115.4312540843802
 22
92.437415954335535
 32
0.0
 13
115.4312540843802
 23
92.437415954335535
 33
0.0
210
0.0
220
0.0
230
1.0
  0
SOLID
  5
795
  8
DRG
  6
CONTINUOUS
 62
     7
 10
58.73674115420998
 20
94.688527426102183
 30
0.0
 11
30.751588509530482
 21
94.688502890425028
 31
0.0
 12
44.744171147941813
 22
94.199189410726845
 32
0.0
 13
44.744171147941813
 23
94.199189410726845
 33
0.0
210
0.0
220
0.0
230
1.0
  0
SOLID
  5
796
  8
DRG
  6
CONTINUOUS
 62
     7
 10
58.73674115420998
 20
94.688527426102183
 30
0.0
 11
44.744171147941813
 21
94.199189410726845
 31
0.0
 12
59.419614247346082
 22
92.437415954335606
 32
0.0
 13
59.419614247346082
 23
92.437415954335606
 33
0.0
210
0.0
220
0.0
230
1.0
  0
SOLID
  5
797
  8
DRG
  6
CONTINUOUS
 62
     7
 10
87.872147389069568
 20
96.763144498279132
 30
0.0
 11
86.763228346564645
 21
94.688502890425028
 31
0.0
 12
114.7483809912442
 22
94.688527426102155
 32
0.0
 13
114.7483809912442
 23
94.688527426102155
 33
0.0
210
0.0
220
0.0
230
1.0
  0
SOLID
  5
798
  8
DRG
  6
CONTINUOUS
 62
     7
 10
31.86050755203539
 20
96.763144498279132
 30
0.0
 11
30.751588509530482
 21
94.688502890425028
 31
0.0
 12
58.73674115420998
 22
94.688527426102183
 32
0.0
 13
58.73674115420998
 23
94.688527426102183
 33
0.0
210
0.0
220
0.0
230
1.0
  0
SOLID
  5
799
  8
DRG
  6
CONTINUOUS
 62
     7
 10
113.639459816422
 20
96.763162899547922
 30
0.0
 11
87.872147389069568
 21
96.763144498279132
 31
0.0
 12
114.7483809912442
 22
94.688527426102155
 32
0.0
 13
114.7483809912442
 23
94.688527426102155
 33
0.0
210
0.0
220
0.0
230
1.0
  0
SOLID
  5
79A
  8
DRG
  6
CONTINUOUS
 62
     7
 10
57.627819979387837
 20
96.763162899547964
 30
0.0
 11
31.86050755203539
 21
96.763144498279132
 31
0.0
 12
58.73674115420998
 22
94.688527426102183
 32
0.0
 13
58.73674115420998
 23
94.688527426102183
 33
0.0
210
0.0
220
0.0
230
1.0
  0
SOLID
  5
79B
  8
DRG
  6
CONTINUOUS
 62
     7
 10
130.05101171535759
 20
97.915857504065855
 30
0.0
 11
138.05101171535759
 21
93.569427875032716
 31
0.0
 12
139.4206293992797
 22
93.56942787503273
 32
0.0
 13
139.4206293992797
 23
93.56942787503273
 33
0.0
210
0.0
220
0.0
230
1.0
  0
SOLID
  5
79C
  8
DRG
  6
CONTINUOUS
 62
     7
 10
130.05101171535759
 20
97.915857504065855
 30
0.0
 11
136.2708442437071
 21
93.368851172487297
 31
0.0
 12
138.05101171535759
 22
93.569427875032716
 32
0.0
 13
138.05101171535759
 23
93.569427875032716
 33
0.0
210
0.0
220
0.0
230
1.0
  0
SOLID
  5
79D
  8
DRG
  6
CONTINUOUS
 62
     7
 10
130.05101171535759
 20
97.915857504065855
 30
0.0
 11
134.5799418024171
 21
92.777178818252068
 31
0.0
 12
136.2708442437071
 22
93.368851172487297
 32
0.0
 13
136.2708442437071
 23
93.368851172487297
 33
0.0
210
0.0
220
0.0
230
1.0
  0
SOLID
  5
79E
  8
DRG
  6
CONTINUOUS
 62
     7
 10
130.05101171535759
 20
97.915857504065855
 30
0.0
 11
133.06309330048771
 21
91.824079734776959
 31
0.0
 12
134.5799418024171
 22
92.777178818252068
 32
0.0
 13
134.5799418024171
 23
92.777178818252068
 33
0.0
210
0.0
220
0.0
230
1.0
  0
SOLID
  5
79F
  8
DRG
  6
CONTINUOUS
 62
     7
 10
130.05101171535759
 20
97.915857504065855
 30
0.0
 11
131.7963598556133
 21
90.557346289902583
 31
0.0
 12
133.06309330048771
 22
91.824079734776959
 32
0.0
 13
133.06309330048771
 23
91.824079734776959
 33
0.0
210
0.0
220
0.0
230
1.0
  0
SOLID
  5
7A0
  8
DRG
  6
CONTINUOUS
 62
     7
 10
130.05101171535759
 20
97.915857504065855
 30
0.0
 11
130.84326077213819
 21
89.040497787973194
 31
0.0
 12
131.7963598556133
 22
90.557346289902583
 32
0.0
 13
131.7963598556133
 23
90.557346289902583
 33
0.0
210
0.0
220
0.0
230
1.0
  0
SOLID
  5
7A1
  8
DRG
  6
CONTINUOUS
 62
     7
 10
130.05101171535759
 20
97.915857504065855
 30
0.0
 11
119.0096173095521
 21
62.115696081838678
 31
0.0
 12
130.84326077213819
 22
89.040497787973194
 32
0.0
 13
130.84326077213819
 23
89.040497787973194
 33
0.0
  0
SOLID
  5
7A2
  8
DRG
  6
CONTINUOUS
 62
     7
 10
18.821661727211438
 20
97.915857504065912
 30
0.0
 11
26.821661727211438
 21
93.569427875032716
 31
0.0
 12
28.191279411133561
 22
93.56942787503273
 32
0.0
 13
28.191279411133561
 23
93.56942787503273
 33
0.0
  0
SOLID
  5
7A3
  8
DRG
  6
CONTINUOUS
 62
     7
 10
18.821661727211438
 20
97.915857504065912
 30
0.0
 11
25.041494255560931
 21
93.368851172487297
 31
0.0
 12
26.821661727211438
 22
93.569427875032716
 32
0.0
 13
26.821661727211438
 23
93.569427875032716
 33
0.0
210
0.0
220
0.0
230
1.0
  0
SOLID
  5
7A4
  8
DRG
  6
CONTINUOUS
 62
     7
 10
18.821661727211438
 20
97.915857504065912
 30
0.0
 11
23.350591814270981
 21
92.777178818252068
 31
0.0
 12
25.041494255560931
 22
93.368851172487297
 32
0.0
 13
25.041494255560931
 23
93.368851172487297
 33
0.0
210
0.0
220
0.0
230
1.0
  0
SOLID
  5
7A5
  8
DRG
  6
CONTINUOUS
 62
     7
 10
18.821661727211438
 20
97.915857504065912
 30
0.0
 11
21.833743312341579
 21
91.824079734776959
 31
0.0
 12
23.350591814270981
 22
92.777178818252068
 32
0.0
 13
23.350591814270981
 23
92.777178818252068
 33
0.0
210
0.0
220
0.0
230
1.0
  0
SOLID
  5
7A6
  8
DRG
  6
CONTINUOUS
 62
     7
 10
18.821661727211438
 20
97.915857504065912
 30
0.0
 11
20.567009867467199
 21
90.557346289902583
 31
0.0
 12
21.833743312341579
 22
91.824079734776959
 32
0.0
 13
21.833743312341579
 23
91.824079734776959
 33
0.0
210
0.0
220
0.0
230
1.0
  0
SOLID
  5
7A7
  8
DRG
  6
CONTINUOUS
 62
     7
 10
18.821661727211438
 20
97.915857504065912
 30
0.0
 11
19.61391078399209
 21
89.04049778797318
 31
0.0
 12
20.567009867467199
 22
90.557346289902583
 32
0.0
 13
20.567009867467199
 23
90.557346289902583
 33
0.0
210
0.0
220
0.0
230
1.0
  0
SOLID
  5
7A8
  8
DRG
  6
CONTINUOUS
 62
     7
 10
18.821661727211438
 20
97.915857504065912
 30
0.0
 11
7.7802673214059723
 21
62.115696081838671
 31
0.0
 12
19.61391078399209
 22
89.04049778797318
 32
0.0
 13
19.61391078399209
 23
89.04049778797318
 33
0.0
  0
SOLID
  5
7A9
  8
DRG
  6
CONTINUOUS
 62
     7
 10
89.364501362461553
 20
98.581583076282442
 30
0.0
 11
87.872147389069568
 21
96.763144498279132
 31
0.0
 12
113.639459816422
 22
96.763162899547922
 32
0.0
 13
113.639459816422
 23
96.763162899547922
 33
0.0
210
0.0
220
0.0
230
1.0
  0
SOLID
  5
7AA
  8
DRG
  6
CONTINUOUS
 62
     7
 10
33.352861525427372
 20
98.581583076282442
 30
0.0
 11
31.86050755203539
 21
96.763144498279132
 31
0.0
 12
57.627819979387837
 22
96.763162899547964
 32
0.0
 13
57.627819979387837
 23
96.763162899547964
 33
0.0
210
0.0
220
0.0
230
1.0
  0
SOLID
  5
7AB
  8
DRG
  6
CONTINUOUS
 62
     7
 10
112.14710561917811
 20
98.581595595475122
 30
0.0
 11
89.364501362461553
 21
98.581583076282442
 31
0.0
 12
113.639459816422
 22
96.763162899547922
 32
0.0
 13
113.639459816422
 23
96.763162899547922
 33
0.0
210
0.0
220
0.0
230
1.0
  0
SOLID
  5
7AC
  8
DRG
  6
CONTINUOUS
 62
     7
 10
56.13546578214396
 20
98.581595595475136
 30
0.0
 11
33.352861525427372
 21
98.581583076282442
 31
0.0
 12
57.627819979387837
 22
96.763162899547964
 32
0.0
 13
57.627819979387837
 23
96.763162899547964
 33
0.0
210
0.0
220
0.0
230
1.0
  0
SOLID
  5
7AD
  8
DRG
  6
CONTINUOUS
 62
     7
 10
131.49100261458079
 20
99.498269833332628
 30
0.0
 11
130.05101171535759
 21
97.915857504065855
 31
0.0
 12
139.4206293992797
 22
93.56942787503273
 32
0.0
 13
139.4206293992797
 23
93.56942787503273
 33
0.0
  0
SOLID
  5
7AE
  8
DRG
  6
CONTINUOUS
 62
     7
 10
20.261652626434682
 20
99.498269833332685
 30
0.0
 11
18.821661727211438
 21
97.915857504065912
 31
0.0
 12
28.191279411133561
 22
93.56942787503273
 32
0.0
 13
28.191279411133561
 23
93.56942787503273
 33
0.0
210
0.0
220
0.0
230
1.0
  0
SOLID
  5
7AF
  8
DRG
  6
CONTINUOUS
 62
     7
 10
91.182939940464877
 20
100.0739370496743
 30
0.0
 11
89.364501362461553
 21
98.581583076282442
 31
0.0
 12
112.14710561917811
 22
98.581595595475122
 32
0.0
 13
112.14710561917811
 23
98.581595595475122
 33
0.0
210
0.0
220
0.0
230
1.0
  0
SOLID
  5
7B0
  8
DRG
  6
CONTINUOUS
 62
     7
 10
35.171300103430703
 20
100.0739370496743
 30
0.0
 11
33.352861525427372
 21
98.581583076282442
 31
0.0
 12
56.13546578214396
 22
98.581595595475136
 32
0.0
 13
56.13546578214396
 23
98.581595595475136
 33
0.0
210
0.0
220
0.0
230
1.0
  0
SOLID
  5
7B1
  8
DRG
  6
CONTINUOUS
 62
     7
 10
110.3286685196138
 20
100.0739444268736
 30
0.0
 11
91.182939940464877
 21
100.0739370496743
 31
0.0
 12
112.14710561917811
 22
98.581595595475122
 32
0.0
 13
112.14710561917811
 23
98.581595595475122
 33
0.0
210
0.0
220
0.0
230
1.0
  0
SOLID
  5
7B2
  8
DRG
  6
CONTINUOUS
 62
     7
 10
54.31702868257964
 20
100.0739444268736
 30
0.0
 11
35.171300103430703
 21
100.0739370496743
 31
0.0
 12
56.13546578214396
 22
98.581595595475136
 32
0.0
 13
56.13546578214396
 23
98.581595595475136
 33
0.0
210
0.0
220
0.0
230
1.0
  0
SOLID
  5
7B3
  8
DRG
  6
CONTINUOUS
 62
     7
 10
133.2280506532519
 20
100.7473761862947
 30
0.0
 11
131.49100261458079
 21
99.498269833332628
 31
0.0
 12
139.4206293992797
 22
93.56942787503273
 32
0.0
 13
139.4206293992797
 23
93.56942787503273
 33
0.0
210
0.0
220
0.0
230
1.0
  0
SOLID
  5
7B4
  8
DRG
  6
CONTINUOUS
 62
     7
 10
21.998700665105741
 20
100.7473761862947
 30
0.0
 11
20.261652626434682
 21
99.498269833332685
 31
0.0
 12
28.191279411133561
 22
93.56942787503273
 32
0.0
 13
28.191279411133561
 23
93.56942787503273
 33
0.0
210
0.0
220
0.0
230
1.0
  0
SOLID
  5
7B5
  8
DRG
  6
CONTINUOUS
 62
     7
 10
37.245941711284829
 20
101.18285609217919
 30
0.0
 11
35.171300103430703
 21
100.0739370496743
 31
0.0
 12
54.31702868257964
 22
100.0739444268736
 32
0.0
 13
54.31702868257964
 23
100.0739444268736
 33
0.0
210
0.0
220
0.0
230
1.0
  0
SOLID
  5
7B6
  8
DRG
  6
CONTINUOUS
 62
     7
 10
93.257581548318996
 20
101.18285609217919
 30
0.0
 11
91.182939940464877
 21
100.0739370496743
 31
0.0
 12
110.3286685196138
 22
100.0739444268736
 32
0.0
 13
110.3286685196138
 23
100.0739444268736
 33
0.0
  0
SOLID
  5
7B7
  8
DRG
  6
CONTINUOUS
 62
     7
 10
52.242389936933627
 20
101.18285947984781
 30
0.0
 11
37.245941711284829
 21
101.18285609217919
 31
0.0
 12
54.31702868257964
 22
100.0739444268736
 32
0.0
 13
54.31702868257964
 23
100.0739444268736
 33
0.0
210
0.0
220
0.0
230
1.0
  0
SOLID
  5
7B8
  8
DRG
  6
CONTINUOUS
 62
     7
 10
108.2540297739678
 20
101.18285947984781
 30
0.0
 11
93.257581548318996
 21
101.18285609217919
 31
0.0
 12
110.3286685196138
 22
100.0739444268736
 32
0.0
 13
110.3286685196138
 23
100.0739444268736
 33
0.0
210
0.0
220
0.0
230
1.0
  0
SOLID
  5
7B9
  8
DRG
  6
CONTINUOUS
 62
     7
 10
135.18651451338479
 20
101.6087831041995
 30
0.0
 11
133.2280506532519
 21
100.7473761862947
 31
0.0
 12
139.4206293992797
 22
93.56942787503273
 32
0.0
 13
139.4206293992797
 23
93.56942787503273
 33
0.0
210
0.0
220
0.0
230
1.0
  0
SOLID
  5
7BA
  8
DRG
  6
CONTINUOUS
 62
     7
 10
23.957164525238699
 20
101.6087831041996
 30
0.0
 11
21.998700665105741
 21
100.7473761862947
 31
0.0
 12
28.191279411133561
 22
93.56942787503273
 32
0.0
 13
28.191279411133561
 23
93.56942787503273
 33
0.0
210
0.0
220
0.0
230
1.0
  0
SOLID
  5
7BB
  8
DRG
  6
CONTINUOUS
 62
     7
 10
39.497059035472347
 20
101.8657250668825
 30
0.0
 11
37.245941711284829
 21
101.18285609217919
 31
0.0
 12
52.242389936933627
 22
101.18285947984781
 32
0.0
 13
52.242389936933627
 23
101.18285947984781
 33
0.0
210
0.0
220
0.0
230
1.0
  0
SOLID
  5
7BC
  8
DRG
  6
CONTINUOUS
 62
     7
 10
95.508698872506528
 20
101.8657250668825
 30
0.0
 11
93.257581548318996
 21
101.18285609217919
 31
0.0
 12
108.2540297739678
 22
101.18285947984781
 32
0.0
 13
108.2540297739678
 23
101.18285947984781
 33
0.0
210
0.0
220
0.0
230
1.0
  0
SOLID
  5
7BD
  8
DRG
  6
CONTINUOUS
 62
     7
 10
49.991276450152029
 20
101.8657259303917
 30
0.0
 11
39.497059035472347
 21
101.8657250668825
 31
0.0
 12
52.242389936933627
 22
101.18285947984781
 32
0.0
 13
52.242389936933627
 23
101.18285947984781
 33
0.0
210
0.0
220
0.0
230
1.0
  0
SOLID
  5
7BE
  8
DRG
  6
CONTINUOUS
 62
     7
 10
106.0029162871862
 20
101.8657259303917
 30
0.0
 11
95.508698872506528
 21
101.8657250668825
 31
0.0
 12
108.2540297739678
 22
101.18285947984781
 32
0.0
 13
108.2540297739678
 23
101.18285947984781
 33
0.0
210
0.0
220
0.0
230
1.0
  0
SOLID
  5
7BF
  8
DRG
  6
CONTINUOUS
 62
     7
 10
77.482556033578931
 20
101.9948050433795
 30
0.0
 11
62.478989637268569
 21
94.593352860836134
 31
0.0
 12
67.331191210151687
 22
94.593352860836134
 32
0.0
 13
67.331191210151687
 23
94.593352860836134
 33
0.0
210
0.0
220
0.0
230
1.0
  0
SOLID
  5
7C0
  8
DRG
  6
CONTINUOUS
 62
     7
 10
77.482556033578931
 20
101.9948050433795
 30
0.0
 11
67.331191210151687
 21
94.593352860836134
 31
0.0
 12
84.553623006881026
 22
94.593352860836134
 32
0.0
 13
84.553623006881026
 23
94.593352860836134
 33
0.0
210
0.0
220
0.0
230
1.0
  0
SOLID
  5
7C1
  8
DRG
  6
CONTINUOUS
 62
     7
 10
62.478989637268562
 20
101.9948050433795
 30
0.0
 11
62.478989637268569
 21
94.593352860836134
 31
0.0
 12
77.482556033578931
 22
101.9948050433795
 32
0.0
 13
77.482556033578931
 23
101.9948050433795
 33
0.0
  0
SOLID
  5
7C2
  8
DRG
  6
CONTINUOUS
 62
     7
 10
84.553623006881026
 20
101.9948050433795
 30
0.0
 11
77.482556033578931
 21
101.9948050433795
 31
0.0
 12
84.553623006881026
 22
94.593352860836134
 32
0.0
 13
84.553623006881026
 23
94.593352860836134
 33
0.0
210
0.0
220
0.0
230
1.0
  0
SOLID
  5
7C3
  8
DRG
  6
CONTINUOUS
 62
     7
 10
67.331191210151701
 20
101.9948050433795
 30
0.0
 11
62.478989637268562
 21
101.9948050433795
 31
0.0
 12
77.482556033578931
 22
101.9948050433795
 32
0.0
 13
77.482556033578931
 23
101.9948050433795
 33
0.0
210
0.0
220
0.0
230
1.0
  0
SOLID
  5
7C4
  8
DRG
  6
CONTINUOUS
 62
     7
 10
139.4206293992797
 20
102.0369718403325
 30
0.0
 11
135.18651451338479
 21
101.6087831041995
 31
0.0
 12
139.4206293992797
 22
93.56942787503273
 32
0.0
 13
139.4206293992797
 23
93.56942787503273
 33
0.0
  0
SOLID
  5
7C5
  8
DRG
  6
CONTINUOUS
 62
     7
 10
7.7802673214059723
 20
102.0369718403326
 30
0.0
 11
7.7802673214059723
 21
62.115696081838671
 31
0.0
 12
18.821661727211438
 22
97.915857504065912
 32
0.0
 13
18.821661727211438
 23
97.915857504065912
 33
0.0
210
0.0
220
0.0
230
1.0
  0
SOLID
  5
7C6
  8
DRG
  6
CONTINUOUS
 62
     7
 10
18.821661727211438
 20
102.0369718403326
 30
0.0
 11
7.7802673214059723
 21
102.0369718403326
 31
0.0
 12
18.821661727211438
 22
97.915857504065912
 32
0.0
 13
18.821661727211438
 23
97.915857504065912
 33
0.0
  0
SOLID
  5
7C7
  8
DRG
  6
CONTINUOUS
 62
     7
 10
142.11987082690661
 20
62.115696081838678
 30
0.0
 11
153.2899770207527
 21
102.0369718403326
 31
0.0
 12
142.11987082690661
 22
102.0369718403326
 32
0.0
 13
142.11987082690661
 23
102.0369718403326
 33
0.0
  0
SOLID
  5
7C8
  8
DRG
  6
CONTINUOUS
 62
     7
 10
153.2899770207527
 20
102.0369718403326
 30
0.0
 11
142.11987082690661
 21
62.115696081838678
 31
0.0
 12
153.2899770207527
 22
62.115696081838678
 32
0.0
 13
153.2899770207527
 23
62.115696081838678
 33
0.0
210
0.0
220
0.0
230
1.0
  0
SOLID
  5
7C9
  8
DRG
  6
CONTINUOUS
 62
     7
 10
130.05101171535759
 20
102.0369718403326
 30
0.0
 11
119.0096173095521
 21
62.115696081838678
 31
0.0
 12
130.05101171535759
 22
97.915857504065855
 32
0.0
 13
130.05101171535759
 23
97.915857504065855
 33
0.0
210
0.0
220
0.0
230
1.0
  0
SOLID
  5
7CA
  8
DRG
  6
CONTINUOUS
 62
     7
 10
165.4162645291251
 20
86.855763084496886
 30
0.0
 11
171.38205787173379
 21
102.0369718403326
 31
0.0
 12
160.9346181585602
 22
102.0369718403326
 32
0.0
 13
160.9346181585602
 23
102.0369718403326
 33
0.0
210
0.0
220
0.0
230
1.0
  0
SOLID
  5
7CB
  8
DRG
  6
CONTINUOUS
 62
     7
 10
160.9346181585602
 20
102.0369718403326
 30
0.0
 11
153.2899770207527
 21
82.583583780839575
 31
0.0
 12
165.4162645291251
 22
86.855763084496886
 32
0.0
 13
165.4162645291251
 23
86.855763084496886
 33
0.0
  0
SOLID
  5
7CC
  8
DRG
  6
CONTINUOUS
 62
     7
 10
119.0096173095521
 20
102.0369718403326
 30
0.0
 11
119.0096173095521
 21
62.115696081838678
 31
0.0
 12
130.05101171535759
 22
102.0369718403326
 32
0.0
 13
130.05101171535759
 23
102.0369718403326
 33
0.0
210
0.0
220
0.0
230
1.0
  0
SOLID
  5
7CD
  8
DRG
  6
CONTINUOUS
 62
     7
 10
28.191279411133561
 20
102.0369718403326
 30
0.0
 11
23.957164525238699
 21
101.6087831041996
 31
0.0
 12
28.191279411133561
 22
93.56942787503273
 32
0.0
 13
28.191279411133561
 23
93.56942787503273
 33
0.0
210
0.0
220
0.0
230
1.0
  0
SOLID
  5
7CE
  8
DRG
  6
CONTINUOUS
 62
     7
 10
137.2811111260545
 20
102.04497984863229
 30
0.0
 11
135.18651451338479
 21
101.6087831041995
 31
0.0
 12
139.4206293992797
 22
102.0369718403325
 32
0.0
 13
139.4206293992797
 23
102.0369718403325
 33
0.0
210
0.0
220
0.0
230
1.0
  0
SOLID
  5
7CF
  8
DRG
  6
CONTINUOUS
 62
     7
 10
26.051761137908411
 20
102.04497984863239
 30
0.0
 11
23.957164525238699
 21
101.6087831041996
 31
0.0
 12
28.191279411133561
 22
102.0369718403326
 32
0.0
 13
28.191279411133561
 23
102.0369718403326
 33
0.0
  0
SOLID
  5
7D0
  8
DRG
  6
CONTINUOUS
 62
     7
 10
49.991276450152029
 20
101.8657259303917
 30
0.0
 11
47.650196927116667
 21
102.0963017020437
 31
0.0
 12
41.838142899665847
 22
102.0963017020437
 32
0.0
 13
41.838142899665847
 23
102.0963017020437
 33
0.0
210
0.0
220
0.0
230
1.0
  0
SOLID
  5
7D1
  8
DRG
  6
CONTINUOUS
 62
     7
 10
41.838142899665847
 20
102.0963017020437
 30
0.0
 11
39.497059035472347
 21
101.8657250668825
 31
0.0
 12
49.991276450152029
 22
101.8657259303917
 32
0.0
 13
49.991276450152029
 23
101.8657259303917
 33
0.0
  0
SOLID
  5
7D2
  8
DRG
  6
CONTINUOUS
 62
     7
 10
106.0029162871862
 20
101.8657259303917
 30
0.0
 11
103.66183676415081
 21
102.0963017020437
 31
0.0
 12
97.849782736700035
 22
102.0963017020437
 32
0.0
 13
97.849782736700035
 23
102.0963017020437
 33
0.0
  0
SOLID
  5
7D3
  8
DRG
  6
CONTINUOUS
 62
     7
 10
97.849782736700035
 20
102.0963017020437
 30
0.0
 11
95.508698872506528
 21
101.8657250668825
 31
0.0
 12
106.0029162871862
 22
101.8657259303917
 32
0.0
 13
106.0029162871862
 23
101.8657259303917
 33
0.0
  0
SOLID
  5
7D4
  8
DRG
  6
CONTINUOUS
 62
     7
 10
77.482556033578931
 20
107.1280725498991
 30
0.0
 11
67.331191210151701
 21
101.9948050433795
 31
0.0
 12
77.482556033578931
 22
101.9948050433795
 32
0.0
 13
77.482556033578931
 23
101.9948050433795
 33
0.0
  0
SOLID
  5
7D5
  8
DRG
  6
CONTINUOUS
 62
     7
 10
67.331191210151701
 20
107.1280725498991
 30
0.0
 11
67.331191210151701
 21
101.9948050433795
 31
0.0
 12
77.482556033578931
 22
107.1280725498991
 32
0.0
 13
77.482556033578931
 23
107.1280725498991
 33
0.0
210
0.0
220
0.0
230
1.0
  0
ENDBLK
  5
7D7
  8
0
  0
ENDSEC
  0
SECTION
  2
ENTITIES
  0
LINE
  5
31
  8
DIM
 10
398.15958604219469
 20
641.06318636937272
 30
0.0
 11
499.30958604219501
 21
641.06318636937272
 31
0.0
  0
SOLID
  5
32
  8
DIM
 10
400.15938604219468
 20
642.39648636937261
 30
0.0
 11
400.15938604219468
 21
639.72988636937271
 31
0.0
 12
392.15958604219469
 22
641.06318636937272
 32
0.0
 13
392.15958604219469
 23
641.06318636937272
 33
0.0
  0
TEXT
  5
33
  8
DIM
 10
442.58133243214212
 20
645.29478575124745
 30
0.0
 40
7.0
  1
113
 72
     4
 11
450.2479990988088
 21
648.79478575124745
 31
0.0
  0
SOLID
  5
35
  8
DIM
 10
497.30978604219501
 20
642.39648636937261
 30
0.0
 11
497.30978604219501
 21
639.72988636937271
 31
0.0
 12
505.30958604219501
 22
641.06318636937272
 32
0.0
 13
505.30958604219501
 23
641.06318636937272
 33
0.0
  0
LINE
  5
36
  8
DRG
 10
376.40958604219321
 20
1067.7813682143701
 30
0.0
 11
376.409586042196
 21
947.78136821437079
 31
0.0
  0
LINE
  5
37
  8
DRG
 10
241.4095860421946
 20
1067.7813682143701
 30
0.0
 11
241.4095860421946
 21
947.78136821437056
 31
0.0
  0
LINE
  5
38
  8
DRG
 10
241.4095860421946
 20
1067.7813682143701
 30
0.0
 11
256.40958604219458
 21
1067.7813682143701
 31
0.0
  0
LINE
  5
39
  8
DRG
 10
241.4095860421946
 20
947.78136821437056
 30
0.0
 11
256.40958604219458
 21
947.78136821437056
 31
0.0
  0
LINE
  5
3A
  8
DRG
 10
361.40958604219321
 20
1067.7813682143701
 30
0.0
 11
376.40958604219321
 21
1067.7813682143701
 31
0.0
  0
LINE
  5
3B
  8
DRG
 10
361.409586042196
 20
947.78136821437079
 30
0.0
 11
376.409586042196
 21
947.78136821437079
 31
0.0
  0
LINE
  5
3C
  8
DRG
 10
382.40958604219372
 20
1047.7813682143701
 30
0.0
 11
382.40958604219549
 21
967.78136821437067
 31
0.0
  0
LINE
  5
3D
  8
DRG
 10
235.4095860421946
 20
1047.7813682143701
 30
0.0
 11
235.4095860421946
 21
967.78136821437045
 31
0.0
  0
LINE
  5
3E
  8
DRG
 10
235.4095860421946
 20
1047.7813682143701
 30
0.0
 11
241.4095860421946
 21
1047.7813682143701
 31
0.0
  0
LINE
  5
3F
  8
DRG
 10
235.4095860421946
 20
967.78136821437045
 30
0.0
 11
241.4095860421946
 21
967.78136821437045
 31
0.0
  0
LINE
  5
40
  8
DRG
 10
376.40958604219372
 20
1047.7813682143701
 30
0.0
 11
382.40958604219372
 21
1047.7813682143701
 31
0.0
  0
LINE
  5
41
  8
DRG
 10
376.40958604219549
 20
967.78136821437045
 30
0.0
 11
382.40958604219549
 21
967.78136821437067
 31
0.0
  0
LINE
  5
42
  8
CRS
 10
246.4621885308367
 20
958.28389353131183
 30
0.0
 11
221.84141630801079
 21
958.28389353131183
 31
0.0
  0
LINE
  5
43
  8
CRS
 10
246.4621885308367
 20
1057.2788428974279
 30
0.0
 11
221.84141630801079
 21
1057.2788428974279
 31
0.0
  0
LINE
  5
44
  8
DRG2
 10
241.4095860421946
 20
949.15389353131195
 30
0.0
 11
230.4095860421946
 21
949.15389353131172
 31
0.0
  0
LINE
  5
45
  8
DRG2
 10
241.4095860421946
 20
967.41389353131206
 30
0.0
 11
230.4095860421946
 21
967.41389353131206
 31
0.0
  0
LINE
  5
46
  8
DRG2
 10
229.4095860421946
 20
950.15389353131172
 30
0.0
 11
229.4095860421946
 21
966.41389353131183
 31
0.0
  0
LINE
  5
47
  8
DRG2
 10
230.4095860421946
 20
949.15389353131172
 30
0.0
 11
229.4095860421946
 21
950.15389353131172
 31
0.0
  0
LINE
  5
48
  8
DRG2
 10
229.4095860421946
 20
966.41389353131183
 30
0.0
 11
230.4095860421946
 21
967.41389353131206
 31
0.0
  0
LINE
  5
49
  8
DRG2
 10
230.4095860421946
 20
949.15389353131172
 30
0.0
 11
230.4095860421946
 21
967.41389353131206
 31
0.0
  0
LINE
  5
4A
  8
DRG2
 10
230.4095860421946
 20
1048.148842897428
 30
0.0
 11
230.4095860421946
 21
1066.408842897428
 31
0.0
  0
LINE
  5
4B
  8
DRG2
 10
229.4095860421946
 20
1049.148842897428
 30
0.0
 11
229.4095860421946
 21
1065.408842897428
 31
0.0
  0
LINE
  5
4C
  8
DRG2
 10
241.4095860421946
 20
1066.408842897428
 30
0.0
 11
230.4095860421946
 21
1066.408842897428
 31
0.0
  0
LINE
  5
4D
  8
DRG2
 10
229.4095860421946
 20
1065.408842897428
 30
0.0
 11
230.4095860421946
 21
1066.408842897428
 31
0.0
  0
LINE
  5
4E
  8
DRG2
 10
241.4095860421946
 20
1048.1488428974289
 30
0.0
 11
230.4095860421946
 21
1048.148842897428
 31
0.0
  0
LINE
  5
4F
  8
DRG2
 10
230.4095860421946
 20
1048.148842897428
 30
0.0
 11
229.4095860421946
 21
1049.148842897428
 31
0.0
  0
LINE
  5
50
  8
DRG2
 10
387.40958604219372
 20
1066.408842897428
 30
0.0
 11
387.40958604219372
 21
1048.148842897428
 31
0.0
  0
LINE
  5
51
  8
DRG2
 10
388.40958604219372
 20
1065.408842897428
 30
0.0
 11
388.40958604219372
 21
1049.148842897428
 31
0.0
  0
LINE
  5
52
  8
DRG2
 10
376.40958604219372
 20
1048.148842897428
 30
0.0
 11
387.40958604219372
 21
1048.148842897428
 31
0.0
  0
LINE
  5
53
  8
CRS
 10
371.35698355355157
 20
1057.2788428974279
 30
0.0
 11
395.97775577637748
 21
1057.2788428974279
 31
0.0
  0
LINE
  5
54
  8
DRG2
 10
388.40958604219372
 20
1049.148842897428
 30
0.0
 11
387.40958604219372
 21
1048.148842897428
 31
0.0
  0
LINE
  5
55
  8
DIM
 10
376.40958604219372
 20
1066.408842897428
 30
0.0
 11
387.40958604219372
 21
1066.408842897428
 31
0.0
  0
LINE
  5
56
  8
DRG2
 10
387.40958604219372
 20
1066.408842897428
 30
0.0
 11
388.40958604219372
 21
1065.408842897428
 31
0.0
  0
LINE
  5
57
  8
DRG2
 10
376.40958604219372
 20
967.41389353131126
 30
0.0
 11
387.40958604219372
 21
967.41389353131149
 31
0.0
  0
LINE
  5
58
  8
DRG2
 10
376.40958604219372
 20
949.15389353131116
 30
0.0
 11
387.40958604219372
 21
949.15389353131116
 31
0.0
  0
LINE
  5
59
  8
CRS
 10
371.35698355355157
 20
958.28389353131138
 30
0.0
 11
395.97775577637748
 21
958.28389353131138
 31
0.0
  0
LINE
  5
5A
  8
DRG2
 10
387.40958604219372
 20
967.41389353131149
 30
0.0
 11
388.40958604219372
 21
966.41389353131149
 31
0.0
  0
LINE
  5
5B
  8
DRG2
 10
388.40958604219372
 20
950.15389353131116
 30
0.0
 11
387.40958604219372
 21
949.15389353131116
 31
0.0
  0
LINE
  5
5C
  8
DRG2
 10
388.40958604219372
 20
966.41389353131149
 30
0.0
 11
388.40958604219372
 21
950.15389353131116
 31
0.0
  0
LINE
  5
5D
  8
DRG2
 10
387.40958604219372
 20
967.41389353131149
 30
0.0
 11
387.40958604219372
 21
949.15389353131116
 31
0.0
  0
LINE
  5
5E
  8
BORT
 39
2.52
 10
1047.6401259855461
 20
75.099041282801124
 30
0.0
 11
216.04012598554681
 21
75.099041282801124
 31
0.0
  0
LINE
  5
5F
  8
BORT
 39
2.52
 10
1047.6401259855461
 20
33.099041282801117
 30
0.0
 11
-2.3598740144532249
 21
33.099041282801117
 31
0.0
  0
LINE
  5
61
  8
BORT
 39
2.52
 10
216.04012598554681
 20
170.29904128280111
 30
0.0
 11
-2.3598740144532249
 21
170.29904128280111
 31
0.0
  0
LINE
  5
62
  8
BORT
 39
2.52
 10
216.04012598554681
 20
189.89904128280099
 30
0.0
 11
-2.3598740144532249
 21
189.89904128280099
 31
0.0
  0
LINE
  5
63
  8
BORT
 39
2.52
 10
216.04012598554681
 20
150.69904128280101
 30
0.0
 11
-2.3598740144532249
 21
150.69904128280101
 31
0.0
  0
LINE
  5
64
  8
BORT
 39
2.52
 10
216.04012598554681
 20
150.69904128280101
 30
0.0
 11
-2.3598740144532249
 21
150.69904128280101
 31
0.0
  0
TEXT
  5
65
  8
BORT
 10
3.4067926522133472
 20
156.9990412828011
 30
0.0
 40
7.0
  1
ISSUE
 72
     4
 11
17.24012598554668
 21
160.49904128280099
 31
0.0
  0
LINE
  5
6B
  8
BORT
 39
2.52
 10
-2.3598740144532249
 20
33.099041282801117
 30
0.0
 11
-2.3598740144532249
 21
284.7759630291917
 31
0.0
  0
TEXT
  5
6C
  8
BORT
 10
14.57345931888001
 20
176.5990412828011
 30
0.0
 40
7.0
  1
A
 72
     4
 11
17.24012598554668
 21
180.0990412828011
 31
0.0
  0
LINE
  5
6D
  8
BORT
 39
2.52
 10
36.84012598554682
 20
150.69904128280101
 30
0.0
 11
36.84012598554682
 21
189.89904128280111
 31
0.0
  0
TEXT
  5
6E
  8
BORT
 10
85.940125985546729
 20
176.5990412828011
 30
0.0
 40
7.0
  1
ORIGINAL ISSUE
 72
     4
 11
126.4401259855467
 21
180.0990412828011
 31
0.0
  0
TEXT
  5
6F
  8
BORT
 10
92.606792652213386
 20
156.9990412828011
 30
0.0
 40
7.0
  1
ALTERATIONS
 72
     4
 11
126.4401259855467
 21
160.49904128280099
 31
0.0
  0
LINE
  5
70
  8
BORT
 39
2.52
 10
216.04012598554681
 20
150.69904128280101
 30
0.0
 11
216.04012598554681
 21
33.099041282801117
 31
0.0
  0
LINE
  5
71
  8
BORT
 39
2.52
 10
216.04012598554681
 20
189.89904128280099
 30
0.0
 11
216.04012598554681
 21
150.69904128280101
 31
0.0
  0
TEXT
  5
72
  8
BORT
 10
509.63298443637609
 20
57.161450804871151
 30
0.0
 40
14.0
  1
OUTLINE DETAILS OF IS12
 72
     4
 11
645.63298443637609
 21
64.161450804871151
 31
0.0
  0
TEXT
  5
73
  8
BORT
 10
260.6189642000142
 20
50.274869775045083
 30
0.0
 40
8.3999999999999986
  1
EXEECO LTD   C   1996
  0
CIRCLE
  5
74
  8
BORT
 10
364.65670454061382
 20
54.366842439262122
 30
0.0
 40
7.9167196450598274
  0
LINE
  5
75
  8
BORT
 39
2.52
 10
487.64012598554677
 20
75.099041282801124
 30
0.0
 11
487.64012598554677
 21
33.099041282801117
 31
0.0
  0
LINE
  5
76
  8
BORT
 39
2.52
 10
1047.6401259855461
 20
97.499041282801116
 30
0.0
 11
739.64012598554666
 21
97.499041282801116
 31
0.0
  0
LINE
  5
77
  8
BORT
 39
2.52
 10
739.64012598554666
 20
119.89904128280109
 30
0.0
 11
1047.6401259855461
 21
119.89904128280109
 31
0.0
  0
TEXT
  5
78
  8
BORT
 10
835.30679265221329
 20
45.699041282801119
 30
0.0
 40
19.599999999999991
  1
PUB\IS12CD
 72
     4
 11
921.64012598554655
 21
54.099041282801117
 31
0.0
  0
TEXT
  5
79
  8
BORT
 10
744.07449253254822
 20
82.553224128831516
 30
0.0
 40
7.0
  1
CHECKED:-
  0
TEXT
  5
7A
  8
BORT
 10
744.47906809475762
 20
104.4990412828011
 30
0.0
 40
7.0
  1
DRAWN:-
  0
TEXT
  5
7B
  8
BORT
 10
526.63298443637598
 20
39.35872835098376
 30
0.0
 40
14.0
  1
ISO & USA STANDARD
 72
     4
 11
645.63298443637609
 21
46.358728350983768
 31
0.0
  0
LINE
  5
7C
  8
BORT
 39
2.52
 10
739.64012598554666
 20
119.89904128280109
 30
0.0
 11
739.64012598554666
 21
75.099041282801124
 31
0.0
  0
LINE
  5
7D
  8
BORT
 39
2.52
 10
795.64012598554677
 20
75.099041282801124
 30
0.0
 11
795.64012598554677
 21
33.099041282801117
 31
0.0
  0
TEXT
  5
7E
  8
BORT
 10
823.39203424986522
 20
105.1990412828011
 30
0.0
 40
7.0
  1
S.W.   10.9.96
 72
     4
 11
861.7253675831987
 21
108.6990412828011
 31
0.0
  0
LINE
  5
7F
  8
BORT
 39
2.52
 10
1047.6401259855461
 20
119.89904128280109
 30
0.0
 11
1047.6401259855461
 21
33.099041282801117
 31
0.0
  0
LINE
  5
80
  8
BORT
 39
2.52
 10
986.04012598554664
 20
119.89904128280109
 30
0.0
 11
986.04012598554664
 21
75.099041282801124
 31
0.0
  0
TEXT
  5
81
  8
BORT
 10
1007.028709663108
 20
82.099041282801124
 30
0.0
 40
7.0
  1
1:1.4
  0
TEXT
  5
82
  8
BORT
 10
999.74090999940415
 20
104.4990412828011
 30
0.0
 40
7.0
  1
SCALE
  0
SOLID
  5
83
  8
DIM
 10
99.409586042194405
 20
1134.953431840959
 30
0.0
 11
99.409586042194405
 21
1132.2867651742929
 31
0.0
 12
91.409586042194405
 22
1133.6200985076259
 32
0.0
 13
91.409586042194405
 23
1133.6200985076259
 33
0.0
  0
LINE
  5
84
  8
DIM
 10
78.409586042194405
 20
1133.6200985076259
 30
0.0
 11
41.228800372457727
 21
1133.6200985076259
 31
0.0
  0
TEXT
  5
85
  8
DIM
 10
56.696328540825483
 20
1138.1200985076259
 30
0.0
 40
7.0
  1
5
 72
     4
 11
59.029661874158819
 21
1141.6200985076259
 31
0.0
  0
SOLID
  5
86
  8
DIM
 10
78.409586042194405
 20
1134.953431840959
 30
0.0
 11
78.409586042194405
 21
1132.2867651742929
 31
0.0
 12
86.409586042194405
 22
1133.6200985076259
 32
0.0
 13
86.409586042194405
 23
1133.6200985076259
 33
0.0
  0
LINE
  5
87
  8
DIM
 10
99.409586042194405
 20
1133.6200985076259
 30
0.0
 11
107.40958604219441
 21
1133.6200985076259
 31
0.0
  0
LINE
  5
88
  8
DIM
 10
94.409586042194633
 20
1168.3662106748391
 30
0.0
 11
248.40958604219421
 21
1168.3662106748391
 31
0.0
  0
SOLID
  5
89
  8
DIM
 10
94.409586042194633
 20
1169.6995440081721
 30
0.0
 11
94.409586042194633
 21
1167.032877341506
 31
0.0
 12
86.409586042194633
 22
1168.3662106748391
 32
0.0
 13
86.409586042194633
 23
1168.3662106748391
 33
0.0
  0
SOLID
  5
8A
  8
DIM
 10
248.40958604219421
 20
1169.6995440081721
 30
0.0
 11
248.40958604219421
 21
1167.032877341506
 31
0.0
 12
256.40958604219429
 22
1168.3662106748391
 32
0.0
 13
256.40958604219429
 23
1168.3662106748391
 33
0.0
  0
TEXT
  5
8B
  8
DIM
 10
163.07625270886101
 20
1172.8662106748391
 30
0.0
 40
7.0
  1
170
 72
     4
 11
171.40958604219441
 21
1176.3662106748391
 31
0.0
  0
LINE
  5
8C
  8
DIM
 10
264.40958604219429
 20
1168.3662106748391
 30
0.0
 11
523.60958604219456
 21
1168.3662106748391
 31
0.0
  0
SOLID
  5
8D
  8
DIM
 10
264.40958604219429
 20
1169.6995440081721
 30
0.0
 11
264.40958604219429
 21
1167.032877341506
 31
0.0
 12
256.40958604219429
 22
1168.3662106748391
 32
0.0
 13
256.40958604219429
 23
1168.3662106748391
 33
0.0
  0
SOLID
  5
8E
  8
DIM
 10
515.60958604219456
 20
1169.6995440081721
 30
0.0
 11
515.60958604219456
 21
1167.032877341506
 31
0.0
 12
523.60958604219456
 22
1168.3662106748391
 32
0.0
 13
523.60958604219456
 23
1168.3662106748391
 33
0.0
  0
TEXT
  5
8F
  8
DIM
 10
385.15319814593079
 20
1172.8662106748391
 30
0.0
 40
7.0
  1
267
 72
     4
 11
394.1531981459309
 21
1176.3662106748391
 31
0.0
  0
LINE
  5
90
  8
DIM
 10
241.40958604219441
 20
1070.5757001908121
 30
0.0
 11
241.40958604219441
 21
1135.6200985076259
 31
0.0
  0
LINE
  5
91
  8
DIM
 10
233.40958604219429
 20
1133.6200985076259
 30
0.0
 11
195.2029147599512
 21
1133.6200985076259
 31
0.0
  0
LINE
  5
92
  8
DIM
 10
264.40958604219458
 20
1133.6200985076259
 30
0.0
 11
272.40958604219458
 21
1133.6200985076259
 31
0.0
  0
SOLID
  5
93
  8
DIM
 10
233.40958604219429
 20
1134.953431840959
 30
0.0
 11
233.40958604219429
 21
1132.2867651742929
 31
0.0
 12
241.40958604219441
 22
1133.6200985076259
 32
0.0
 13
241.40958604219441
 23
1133.6200985076259
 33
0.0
  0
SOLID
  5
94
  8
DIM
 10
264.40958604219458
 20
1134.953431840959
 30
0.0
 11
264.40958604219458
 21
1132.2867651742929
 31
0.0
 12
256.40958604219458
 22
1133.6200985076259
 32
0.0
 13
256.40958604219458
 23
1133.6200985076259
 33
0.0
  0
TEXT
  5
95
  8
DIM
 10
207.9088302277049
 20
1138.1200985076259
 30
0.0
 40
7.0
  1
15
 72
     4
 11
212.9088302277049
 21
1141.6200985076259
 31
0.0
  0
LINE
  5
96
  8
DIM
 10
376.40958604219281
 20
1070.5757001908121
 30
0.0
 11
376.40958604219281
 21
1135.6200985076259
 31
0.0
  0
SOLID
  5
97
  8
DIM
 10
515.60958604219456
 20
1134.953431840959
 30
0.0
 11
515.60958604219456
 21
1132.286765174292
 31
0.0
 12
523.60958604219456
 22
1133.620098507625
 32
0.0
 13
523.60958604219456
 23
1133.620098507625
 33
0.0
  0
LINE
  5
98
  8
DIM
 10
376.40958604219281
 20
1133.6200985076259
 30
0.0
 11
523.60958604219468
 21
1133.620098507625
 31
0.0
  0
TEXT
  5
99
  8
DIM
 10
441.60928078111499
 20
1138.1200985076259
 30
0.0
 40
7.0
  1
147
 72
     4
 11
449.9426141144483
 21
1141.620098507625
 31
0.0
  0
SOLID
  5
9A
  8
DIM
 10
384.40958604219281
 20
1134.953431840959
 30
0.0
 11
384.40958604219281
 21
1132.286765174292
 31
0.0
 12
376.40958604219281
 22
1133.6200985076259
 32
0.0
 13
376.40958604219281
 23
1133.6200985076259
 33
0.0
  0
LINE
  5
9B
  8
DIM
 10
388.40958604219298
 20
1068.2031748738691
 30
0.0
 11
388.40958604219298
 21
1099.792833181652
 31
0.0
  0
LINE
  5
9C
  8
DIM
 10
368.40958604219281
 20
1097.792833181652
 30
0.0
 11
360.40958604219281
 21
1097.792833181652
 31
0.0
  0
SOLID
  5
9D
  8
DIM
 10
368.40958604219281
 20
1099.126166514985
 30
0.0
 11
368.40958604219281
 21
1096.459499848318
 31
0.0
 12
376.40958604219281
 22
1097.792833181652
 32
0.0
 13
376.40958604219281
 23
1097.792833181652
 33
0.0
  0
SOLID
  5
9E
  8
DIM
 10
396.40958604219298
 20
1099.126166514985
 30
0.0
 11
396.40958604219298
 21
1096.459499848318
 31
0.0
 12
388.40958604219298
 22
1097.792833181652
 32
0.0
 13
388.40958604219298
 23
1097.792833181652
 33
0.0
  0
TEXT
  5
9F
  8
DIM
 10
412.55912329145309
 20
1102.292833181652
 30
0.0
 40
7.0
  1
12
 72
     4
 11
417.55912329145309
 21
1105.792833181652
 31
0.0
  0
LINE
  5
A0
  8
DIM
 10
461.40958604219458
 20
860.35175708231498
 30
0.0
 11
461.40958604219458
 21
935.8775964176773
 31
0.0
  0
LINE
  5
A1
  8
DIM
 10
523.60958604219468
 20
933.87759641767741
 30
0.0
 11
461.40958604219452
 21
933.87759641767741
 31
0.0
  0
SOLID
  5
A2
  8
DIM
 10
469.40958604219458
 20
935.21092975101055
 30
0.0
 11
469.40958604219458
 21
932.54426308434381
 31
0.0
 12
461.40958604219458
 22
933.87759641767741
 32
0.0
 13
461.40958604219458
 23
933.87759641767741
 33
0.0
  0
SOLID
  5
A3
  8
DIM
 10
515.60958604219456
 20
935.21092975101055
 30
0.0
 11
515.60958604219456
 21
932.54426308434381
 31
0.0
 12
523.60958604219456
 22
933.87759641767741
 32
0.0
 13
523.60958604219456
 23
933.87759641767741
 33
0.0
  0
TEXT
  5
A4
  8
DIM
 10
487.22520473400442
 20
938.3775964176773
 30
0.0
 40
7.0
  1
62
 72
     4
 11
492.89187140067099
 21
941.87759641767718
 31
0.0
  0
LINE
  5
A5
  8
DIM
 10
591.12252259578327
 20
681.78136821437101
 30
0.0
 11
591.12252259578327
 21
519.98136821437106
 31
0.0
  0
SOLID
  5
A6
  8
DIM
 10
589.78918926245001
 20
681.78136821437101
 30
0.0
 11
592.45585592911675
 21
681.78136821437101
 31
0.0
 12
591.12252259578327
 22
689.78136821437101
 32
0.0
 13
591.12252259578327
 23
689.78136821437101
 33
0.0
  0
SOLID
  5
A7
  8
DIM
 10
589.78918926245001
 20
519.98136821437106
 30
0.0
 11
592.45585592911675
 21
519.98136821437106
 31
0.0
 12
591.12252259578327
 22
511.981368214371
 32
0.0
 13
591.12252259578327
 23
511.981368214371
 33
0.0
  0
TEXT
  5
A8
  8
DIM
 10
586.62252259578327
 20
562.88136821437104
 30
0.0
 40
7.0
  1
SEE TABLE FOR
 50
90.0
 72
     4
 11
583.12252259578327
 21
604.04803488103755
 31
0.0
  0
TEXT
  5
A9
  8
DIM
 10
602.16091445180564
 20
575.29585739343099
 30
0.0
 40
7.0
  1
SPIGOT DIA.
 50
90.0
 72
     4
 11
598.66091445180564
 21
605.62919072676425
 31
0.0
  0
LINE
  5
AA
  8
DIM
 10
392.1595860421948
 20
309.51983967024751
 30
0.0
 11
523.60958604219456
 21
309.51983967024751
 31
0.0
  0
SOLID
  5
AB
  8
DIM
 10
400.1595860421948
 20
310.85317300358088
 30
0.0
 11
400.1595860421948
 21
308.18650633691419
 31
0.0
 12
392.1595860421948
 22
309.51983967024751
 32
0.0
 13
392.1595860421948
 23
309.51983967024751
 33
0.0
  0
TEXT
  5
AC
  8
DIM
 10
450.72103894338773
 20
314.01983967024751
 30
0.0
 40
7.0
  1
131
 72
     4
 11
457.5543722767211
 21
317.51983967024751
 31
0.0
  0
LINE
  5
AD
  8
DIM
 10
241.4095860421946
 20
273.73807530978871
 30
0.0
 11
523.60958604219491
 21
273.73807530978871
 31
0.0
  0
SOLID
  5
AE
  8
DIM
 10
249.4095860421946
 20
275.07140864312191
 30
0.0
 11
249.4095860421946
 21
272.40474197645528
 31
0.0
 12
241.4095860421946
 22
273.73807530978871
 32
0.0
 13
241.4095860421946
 23
273.73807530978871
 33
0.0
  0
SOLID
  5
AF
  8
DIM
 10
515.60958604219491
 20
275.07140864312191
 30
0.0
 11
515.60958604219491
 21
272.40474197645528
 31
0.0
 12
523.60958604219491
 22
273.73807530978871
 32
0.0
 13
523.60958604219491
 23
273.73807530978871
 33
0.0
  0
TEXT
  5
B0
  8
DIM
 10
373.39713059796532
 20
278.23807530978871
 30
0.0
 40
7.0
  1
282
 72
     4
 11
382.39713059796532
 21
281.73807530978871
 31
0.0
  0
LINE
  5
B1
  8
DIM
 10
536.60958604219491
 20
309.51983967024751
 30
0.0
 11
577.00332224495435
 21
309.51983967024751
 31
0.0
  0
SOLID
  5
B2
  8
DIM
 10
536.60958604219491
 20
310.85317300358088
 30
0.0
 11
536.60958604219491
 21
308.18650633691419
 31
0.0
 12
528.60958604219491
 22
309.51983967024751
 32
0.0
 13
528.60958604219491
 23
309.51983967024751
 33
0.0
  0
TEXT
  5
B3
  8
DIM
 10
555.26347883520032
 20
314.01983967024751
 30
0.0
 40
7.0
  1
5
 72
     4
 11
557.59681216853357
 21
317.51983967024751
 31
0.0
  0
LINE
  5
B4
  8
DIM
 10
208.2730639581516
 20
663.50136821437081
 30
0.0
 11
208.2730639581516
 21
487.04830938721642
 31
0.0
  0
SOLID
  5
B5
  8
DIM
 10
206.93973062481811
 20
655.50136821437081
 30
0.0
 11
209.6063972914848
 21
655.50136821437081
 31
0.0
 12
208.2730639581516
 22
663.50136821437081
 32
0.0
 13
208.2730639581516
 23
663.50136821437081
 33
0.0
  0
SOLID
  5
B6
  8
DIM
 10
206.93973062481811
 20
546.26136821437069
 30
0.0
 11
209.6063972914848
 21
546.26136821437069
 31
0.0
 12
208.2730639581516
 22
538.26136821437069
 32
0.0
 13
208.2730639581516
 23
538.26136821437069
 33
0.0
  0
LINE
  5
B7
  8
DIM
 10
236.14797802421751
 20
698.50136821437081
 30
0.0
 11
141.88357842260621
 21
698.50136821437081
 31
0.0
  0
LINE
  5
B8
  8
DIM
 10
236.14797802421731
 20
503.26136821437092
 30
0.0
 11
212.91659861061399
 21
503.26136821437092
 31
0.0
  0
LINE
  5
B9
  8
DIM
 10
143.88357842260621
 20
698.50136821437081
 30
0.0
 11
143.88357842260621
 21
503.26136821437092
 31
0.0
  0
SOLID
  5
BA
  8
DIM
 10
142.55024508927289
 20
690.50136821437115
 30
0.0
 11
145.21691175593941
 21
690.50136821437115
 31
0.0
 12
143.88357842260621
 22
698.50136821437115
 32
0.0
 13
143.88357842260621
 23
698.50136821437115
 33
0.0
  0
SOLID
  5
BB
  8
DIM
 10
142.55024508927269
 20
511.26136821437098
 30
0.0
 11
145.21691175593941
 21
511.26136821437098
 31
0.0
 12
143.88357842260621
 22
503.26136821437092
 32
0.0
 13
143.88357842260621
 23
503.26136821437092
 33
0.0
  0
TEXT
  5
BC
  8
DIM
 10
139.38357842260621
 20
589.38136821437115
 30
0.0
 40
7.0
  1
%%C195
 50
90.0
 72
     4
 11
135.88357842260621
 21
600.88136821437115
 31
0.0
  0
TEXT
  5
BD
  8
DIM
 10
199.9312782277286
 20
320.92613303822162
 30
0.0
 40
7.0
  1
%%C125 (%%c4.92") ROOT OF SPLINE
 50
90.0
  0
TEXT
  5
BE
  8
DIM
 10
211.9312782277286
 20
320.92613303822162
 30
0.0
 40
7.0
  1
MAX. PERMISSIBLE O/D OF
 50
90.0
  0
TEXT
  5
BF
  8
DIM
 10
223.9312782277286
 20
320.92613303822162
 30
0.0
 40
7.0
  1
VALVE SPINDLE LOCKNUT
 50
90.0
  0
LINE
  5
C0
  8
DIM
 10
200.41455817915099
 20
503.26136821437092
 30
0.0
 11
141.88357842260621
 21
503.26136821437092
 31
0.0
  0
TEXT
  5
C1
  8
DIM
 10
661.64635972537042
 20
1124.885329962706
 30
0.0
 40
7.0
  1
4 OFF M12 SCREWS (EACH SIDE)
  0
TEXT
  5
C2
  8
DIM
 10
661.64635972537042
 20
1112.885329962706
 30
0.0
 40
7.0
  1
ON %%C140 (%%c5.51") P.C.
  0
LINE
  5
C3
  8
DIM
 10
843.9613770616462
 20
1122.2218494213239
 30
0.0
 11
858.72190694577364
 21
1122.2218494213239
 31
0.0
  0
SOLID
  5
C4
  8
DIM
 10
896.71167831542584
 20
1070.8305178160019
 30
0.0
 11
894.53470079925864
 21
1069.2904269079011
 31
0.0
 12
900.24346228164256
 22
1063.529539813449
 32
0.0
 13
900.24346228164256
 23
1063.529539813449
 33
0.0
  0
LINE
  5
C5
  8
DIM
 10
895.62318955734224
 20
1070.060472361951
 30
0.0
 11
858.72190694577341
 21
1122.2218494213239
 31
0.0
  0
TEXT
  5
C6
  8
DIM
 10
570.45349657979796
 20
874.98612773741627
 30
0.0
 40
7.0
  1
8 OFF M10 BASEPLATE SECURING
  0
TEXT
  5
C7
  8
DIM
 10
570.45349657979796
 20
862.98612773741638
 30
0.0
 40
7.0
  1
SCREWS EQUALLY SPACED, 
  0
TEXT
  5
C8
  8
DIM
 10
570.45349657979796
 20
850.98612773741627
 30
0.0
 40
7.0
  1
EXCEPT ONE, ON CENTRES ON 
  0
LINE
  5
C9
  8
DIM
 10
749.33050726462818
 20
860.38027357920055
 30
0.0
 11
771.99680126010185
 21
860.38027357920055
 31
0.0
  0
SOLID
  5
CA
  8
DIM
 10
780.13824032693412
 20
793.88721158037674
 30
0.0
 11
777.48541439819553
 21
793.61587101407065
 31
0.0
 12
779.62584906148277
 22
785.79306351100797
 32
0.0
 13
779.62584906148277
 23
785.79306351100797
 33
0.0
  0
LINE
  5
CB
  8
DIM
 10
778.81182736256483
 20
793.75154129722364
 30
0.0
 11
771.99680126010185
 21
860.38027357920055
 31
0.0
  0
TEXT
  5
CC
  8
DIM
 10
610.77690115000757
 20
894.79007168413557
 30
0.0
 40
7.0
  1

  0
TEXT
  5
CD
  8
DIM
 10
694.15672605227519
 20
960.60174104406167
 30
0.0
 40
7.0
  1
SEE TABLE FOR
  0
TEXT
  5
CE
  8
DIM
 10
694.15672605227519
 20
948.60174104406178
 30
0.0
 40
7.0
  1
HOLE DETAILS
  0
LINE
  5
CF
  8
DIM
 10
1006.204423157743
 20
590.61179991285712
 30
0.0
 11
675.73742499317268
 21
658.75688782614748
 31
0.0
  0
SOLID
  5
D0
  8
DIM
 10
792.57448153182133
 20
633.30271316427411
 30
0.0
 11
793.11303967158722
 21
635.91443027016498
 31
0.0
 12
785.00860928403165
 22
636.22424613651765
 32
0.0
 13
785.00860928403165
 23
636.22424613651765
 33
0.0
  0
SOLID
  5
D1
  8
DIM
 10
998.63855090995412
 20
593.53333288510055
 30
0.0
 11
998.09999277018824
 21
590.92161577920979
 31
0.0
 12
1006.204423157743
 22
590.61179991285712
 32
0.0
 13
1006.204423157743
 23
590.61179991285712
 33
0.0
  0
SOLID
  5
D2
  8
DIM
 10
990.80339959228058
 20
595.14900730439899
 30
0.0
 11
990.26484145251447
 21
592.53729019850778
 31
0.0
 12
998.36927184007027
 22
592.22747433215523
 32
0.0
 13
998.36927184007027
 23
592.22747433215523
 33
0.0
  0
SOLID
  5
D3
  8
DIM
 10
891.58651028751729
 20
754.5414834802998
 30
0.0
 11
894.06469695421958
 21
755.52621793998378
 31
0.0
 12
895.77980699992133
 22
747.59929071003455
 32
0.0
 13
895.77980699992133
 23
747.59929071003455
 33
0.0
  0
LINE
  5
D4
  8
DIM
 10
892.82560362086826
 20
755.03385071014156
 30
0.0
 11
812.0662953397117
 21
958.27304786247805
 31
0.0
  0
LINE
  5
D5
  8
DIM
 10
782.75104432386536
 20
958.27304786247805
 30
0.0
 11
812.0662953397117
 21
958.27304786247805
 31
0.0
  0
LINE
  5
D6
  8
DIM
 10
704.40254435811971
 20
309.51983967024762
 30
0.0
 11
1017.182175041543
 21
309.51983967024762
 31
0.0
  0
SOLID
  5
D7
  8
DIM
 10
704.40254435811971
 20
310.85317300358088
 30
0.0
 11
704.40254435811971
 21
308.18650633691431
 31
0.0
 12
696.40254435811983
 22
309.51983967024762
 32
0.0
 13
696.40254435811983
 23
309.51983967024762
 33
0.0
  0
SOLID
  5
D8
  8
DIM
 10
1017.182175041543
 20
310.85317300358088
 30
0.0
 11
1017.182175041543
 21
308.18650633691431
 31
0.0
 12
1025.1821750415429
 22
309.51983967024762
 32
0.0
 13
1025.1821750415429
 23
309.51983967024762
 33
0.0
  0
TEXT
  5
D9
  8
DIM
 10
857.02069645609333
 20
314.01983967024762
 30
0.0
 40
7.0
  1
%%C520
 72
     4
 11
869.18736312275985
 21
317.51983967024768
 31
0.0
  0
LINE
  5
DA
  8
DIM
 10
696.40254435811983
 20
558.06058086444409
 30
0.0
 11
696.40254435811983
 21
307.51983967024762
 31
0.0
  0
SOLID
  5
DB
  8
DIM
 10
1009.182175041543
 20
310.85317300358088
 30
0.0
 11
1009.182175041543
 21
308.18650633691431
 31
0.0
 12
1017.182175041543
 22
309.51983967024762
 32
0.0
 13
1017.182175041543
 23
309.51983967024762
 33
0.0
  0
LINE
  5
DC
  8
DIM
 10
971.35636547151137
 20
1007.781368214371
 30
0.0
 11
1035.084134230588
 21
1007.781368214371
 31
0.0
  0
LINE
  5
DD
  8
DIM
 10
1033.084134230588
 20
999.78136821437113
 30
0.0
 11
1033.084134230588
 21
608.88136821437092
 31
0.0
  0
SOLID
  5
DE
  8
DIM
 10
1031.7508008972541
 20
999.78136821437113
 30
0.0
 11
1034.417467563921
 21
999.78136821437113
 31
0.0
 12
1033.084134230588
 22
1007.781368214371
 32
0.0
 13
1033.084134230588
 23
1007.781368214371
 33
0.0
  0
SOLID
  5
DF
  8
DIM
 10
1031.7508008972541
 20
608.88136821437092
 30
0.0
 11
1034.417467563921
 21
608.88136821437092
 31
0.0
 12
1033.084134230588
 22
600.88136821437092
 32
0.0
 13
1033.084134230588
 23
600.88136821437092
 33
0.0
  0
TEXT
  5
E0
  8
DIM
 10
1028.584134230588
 20
795.10284990418825
 30
0.0
 40
7.0
  1
407
 50
90.0
 72
     4
 11
1025.084134230588
 21
804.10284990418836
 31
0.0
  0
LINE
  5
E1
  8
DIM
 10
958.40254435811971
 20
1077.781368214371
 30
0.0
 11
1035.084134230588
 21
1077.781368214371
 31
0.0
  0
LINE
  5
E2
  8
DIM
 10
1033.084134230588
 20
1015.781368214371
 30
0.0
 11
1033.084134230588
 21
1069.781368214371
 31
0.0
  0
SOLID
  5
E3
  8
DIM
 10
1031.7508008972541
 20
1015.781368214371
 30
0.0
 11
1034.417467563921
 21
1015.781368214371
 31
0.0
 12
1033.084134230588
 22
1007.781368214371
 32
0.0
 13
1033.084134230588
 23
1007.781368214371
 33
0.0
  0
SOLID
  5
E4
  8
DIM
 10
1031.7508008972541
 20
1069.781368214371
 30
0.0
 11
1034.417467563921
 21
1069.781368214371
 31
0.0
 12
1033.084134230588
 22
1077.781368214371
 32
0.0
 13
1033.084134230588
 23
1077.781368214371
 33
0.0
  0
TEXT
  5
E5
  8
DIM
 10
1028.584134230588
 20
1037.0771552230481
 30
0.0
 40
7.0
  1
70
 50
90.0
 72
     4
 11
1025.084134230588
 21
1042.743821889715
 31
0.0
  0
LINE
  5
E6
  8
DIM
 10
535.14355207380038
 20
689.78136821437101
 30
0.0
 11
593.12252259578338
 21
689.78136821437101
 31
0.0
  0
LINE
  5
E7
  8
DIM
 10
535.78216607609477
 20
511.981368214371
 30
0.0
 11
593.12252259578338
 21
511.981368214371
 31
0.0
  0
LINE
  5
E8
  8
DIM
 10
528.60958604219491
 20
508.58402716510523
 30
0.0
 11
528.60958604219491
 21
307.51983967024751
 31
0.0
  0
SOLID
  5
E9
  8
DIM
 10
515.60958604219456
 20
310.85317300358088
 30
0.0
 11
515.60958604219456
 21
308.18650633691419
 31
0.0
 12
523.60958604219456
 22
309.51983967024751
 32
0.0
 13
523.60958604219456
 23
309.51983967024751
 33
0.0
  0
LINE
  5
EA
  8
HID
 10
392.1595860421948
 20
664.80136821437065
 30
0.0
 11
392.1595860421948
 21
536.96136821437085
 31
0.0
  0
LINE
  5
EB
  8
HID
 10
469.30958604219489
 20
685.7613682143708
 30
0.0
 11
469.30958604219489
 21
665.59136821437085
 31
0.0
  0
LINE
  5
EC
  8
HID
 10
415.60958604219491
 20
665.59136821437085
 30
0.0
 11
469.30958604219489
 21
665.59136821437085
 31
0.0
  0
LINE
  5
ED
  8
HID
 10
415.60958604219491
 20
536.17136821437077
 30
0.0
 11
469.30958604219489
 21
536.17136821437077
 31
0.0
  0
LINE
  5
EE
  8
HID
 10
469.30958604219489
 20
536.17136821437077
 30
0.0
 11
469.30958604219489
 21
516.0013682143707
 31
0.0
  0
LINE
  5
EF
  8
HID
 10
469.30958604219489
 20
685.7613682143708
 30
0.0
 11
490.259586042195
 21
685.7613682143708
 31
0.0
  0
LINE
  5
F0
  8
HID
 10
469.30958604219489
 20
516.0013682143707
 30
0.0
 11
490.259586042195
 21
516.0013682143707
 31
0.0
  0
LINE
  5
F1
  8
HID
 10
490.259586042195
 20
685.7613682143708
 30
0.0
 11
490.259586042195
 21
665.73136821437083
 31
0.0
  0
LINE
  5
F2
  8
HID
 10
490.259586042195
 20
536.03136821437079
 30
0.0
 11
490.259586042195
 21
516.0013682143707
 31
0.0
  0
LINE
  5
F3
  8
HID
 10
490.259586042195
 20
665.73136821437083
 30
0.0
 11
505.40958604219492
 21
665.73136821437083
 31
0.0
  0
LINE
  5
F4
  8
HID
 10
490.259586042195
 20
536.03136821437079
 30
0.0
 11
505.40958604219492
 21
536.03136821437079
 31
0.0
  0
LINE
  5
F5
  8
DIM
 10
387.1844407147027
 20
663.50136821437081
 30
0.0
 11
206.6063972914848
 21
663.50136821437081
 31
0.0
  0
LINE
  5
F6
  8
DIM
 10
387.30417885327739
 20
538.26136821437069
 30
0.0
 11
206.6063972914848
 21
538.26136821437069
 31
0.0
  0
LINE
  5
F7
  8
CRS
 10
956.40254435811994
 20
1064.1901455056729
 30
0.0
 11
956.40254435811994
 21
338.25310614104279
 31
0.0
  0
LINE
  5
F8
  8
CRS
 10
983.22444968370007
 20
600.88136821437092
 30
0.0
 11
686.33797467564648
 21
600.88136821437092
 31
0.0
  0
LINE
  5
F9
  8
HID
 10
505.40958604219492
 20
665.73136821437083
 30
0.0
 11
505.40958604219492
 21
536.03136821437079
 31
0.0
  0
LINE
  5
FA
  8
HID
 10
415.60958604219491
 20
665.59136821437085
 30
0.0
 11
415.60958604219491
 21
663.32136821437075
 31
0.0
  0
LINE
  5
FB
  8
HID
 10
415.60958604219491
 20
538.44136821437075
 30
0.0
 11
415.60958604219491
 21
536.17136821437077
 31
0.0
  0
LINE
  5
FC
  8
HID
 10
411.60958604219491
 20
664.80136821437065
 30
0.0
 11
411.60958604219491
 21
663.32136821437075
 31
0.0
  0
LINE
  5
FD
  8
HID
 10
411.60958604219491
 20
538.44136821437075
 30
0.0
 11
411.60958604219491
 21
536.96136821437085
 31
0.0
  0
LINE
  5
FE
  8
HID
 10
415.60958604219491
 20
663.32136821437075
 30
0.0
 11
411.60958604219491
 21
663.32136821437075
 31
0.0
  0
LINE
  5
FF
  8
HID
 10
415.60958604219491
 20
538.44136821437075
 30
0.0
 11
411.60958604219491
 21
538.44136821437075
 31
0.0
  0
LINE
  5
100
  8
HID
 10
411.60958604219491
 20
664.801368214371
 30
0.0
 11
392.1595860421948
 21
664.80136821437065
 31
0.0
  0
LINE
  5
101
  8
HID
 10
411.60958604219491
 20
536.96136821437085
 30
0.0
 11
392.1595860421948
 21
536.96136821437085
 31
0.0
  0
LINE
  5
102
  8
HID
 10
411.60958604219491
 20
663.50136821437081
 30
0.0
 11
392.1595860421948
 21
663.50136821437081
 31
0.0
  0
LINE
  5
103
  8
HID
 10
411.60958604219491
 20
538.26136821437069
 30
0.0
 11
392.1595860421948
 21
538.26136821437069
 31
0.0
  0
LINE
  5
104
  8
DIM
 10
392.1595860421948
 20
529.36604856127155
 30
0.0
 11
392.1595860421948
 21
307.51983967024751
 31
0.0
  0
LINE
  5
105
  8
DIM
 10
993.07350412213157
 20
600.88136821437092
 30
0.0
 11
1035.084134230588
 21
600.88136821437092
 31
0.0
  0
LINE
  5
106
  8
DIM
 10
241.4095860421946
 20
445.82758231239558
 30
0.0
 11
241.4095860421946
 21
271.73807530978871
 31
0.0
  0
LINE
  5
107
  8
DIM
 10
523.60958604219456
 20
772.34582896890129
 30
0.0
 11
523.60958604219456
 21
1170.3662106748391
 31
0.0
  0
LINE
  5
108
  8
CRS
 10
78.626148874710907
 20
1007.78136821437
 30
0.0
 11
391.09219809176102
 21
1007.78136821437
 31
0.0
  0
LINE
  5
109
  8
DRG
 10
247.4095860421948
 20
452.88136821437092
 30
0.0
 11
322.4095860421948
 21
452.88136821437092
 31
0.0
  0
LINE
  5
10A
  8
DRG
 10
287.4095860421948
 20
1077.7813682143701
 30
0.0
 11
330.4095860421948
 21
1077.7813682143701
 31
0.0
  0
LINE
  5
10B
  8
CRS
 10
228.31284858517211
 20
600.88136821437092
 30
0.0
 11
537.20223232017133
 21
600.88136821437092
 31
0.0
  0
LINE
  5
10C
  8
DRG
 10
241.4095860421948
 20
698.3813682143707
 30
0.0
 11
241.4095860421948
 21
503.38136821437081
 31
0.0
  0
LINE
  5
10D
  8
DRG
 10
241.4095860421948
 20
503.38136821437081
 30
0.0
 11
241.4095860421948
 21
458.88136821437092
 31
0.0
  0
ARC
  5
10E
  8
DRG
 10
247.4095860421948
 20
458.88136821437092
 30
0.0
 40
6.0
 50
180.0
 51
270.0
  0
LINE
  5
10F
  8
DRG
 10
256.4095860421948
 20
1060.2813682143701
 30
0.0
 11
256.4095860421948
 21
955.28136821437067
 31
0.0
  0
LINE
  5
110
  8
DRG
 10
273.40958604219458
 20
845.17136821437077
 30
0.0
 11
273.4095860421948
 21
754.88136821437092
 31
0.0
  0
LINE
  5
111
  8
DRG
 10
256.4095860421948
 20
851.25528843127131
 30
0.0
 11
256.40958604219458
 21
754.88136821437092
 31
0.0
  0
ARC
  5
112
  8
DRG
 10
267.4095860421948
 20
754.88136821437092
 30
0.0
 40
6.0
 50
270.0
 51
0.0000000000000127
  0
ARC
  5
113
  8
DRG
 10
250.4095860421946
 20
754.88136821437092
 30
0.0
 40
6.0
 50
270.0
 51
0.0
  0
ARC
  5
114
  8
DRG
 10
247.4095860421948
 20
742.88136821437092
 30
0.0
 40
6.0
 50
90.0
 51
180.0
  0
LINE
  5
115
  8
DRG
 10
241.4095860421948
 20
742.88136821437092
 30
0.0
 11
241.4095860421948
 21
698.3813682143707
 31
0.0
  0
LINE
  5
116
  8
DRG
 10
247.4095860421948
 20
748.88136821437092
 30
0.0
 11
267.4095860421948
 21
748.88136821437092
 31
0.0
  0
LINE
  5
117
  8
DRG
 10
256.4095860421948
 20
947.28136821437045
 30
0.0
 11
256.4095860421948
 21
897.10744799747044
 31
0.0
  0
LINE
  5
118
  8
DRG
 10
273.4095860421948
 20
941.28136821437079
 30
0.0
 11
273.4095860421948
 21
903.19136821437075
 31
0.0
  0
LINE
  5
119
  8
DRG
 10
251.4095860421948
 20
889.19136821437087
 30
0.0
 11
251.4095860421948
 21
859.17136821437089
 31
0.0
  0
ARC
  5
11A
  8
DRG
 10
267.40958604219458
 20
845.17136821437077
 30
0.0
 40
6.0
 50
0.0
 51
90.000000000000298
  0
LINE
  5
11B
  8
CRS
 10
241.30181838602491
 20
874.18136821437088
 30
0.0
 11
285.33348943120058
 21
874.18136821437088
 31
0.0
  0
ARC
  5
11C
  8
DRG
 10
257.4095860421948
 20
857.17136821437089
 30
0.0
 40
6.0
 50
180.0
 51
270.0
  0
LINE
  5
11D
  8
DRG
 10
251.4095860421948
 20
859.17136821437089
 30
0.0
 11
251.4095860421948
 21
857.17136821437089
 31
0.0
  0
LINE
  5
11E
  8
DRG
 10
257.4095860421948
 20
851.17136821437077
 30
0.0
 11
267.40958604219458
 21
851.17136821437077
 31
0.0
  0
ARC
  5
11F
  8
DRG
 10
267.4095860421948
 20
903.19136821437075
 30
0.0
 40
6.0
 50
269.99999999999972
 51
0.0
  0
ARC
  5
120
  8
DRG
 10
257.4095860421948
 20
891.19136821437075
 30
0.0
 40
6.0
 50
89.999999999999474
 51
180.0
  0
LINE
  5
121
  8
DRG
 10
251.4095860421948
 20
891.19136821437075
 30
0.0
 11
251.4095860421948
 21
889.1913682143711
 31
0.0
  0
LINE
  5
122
  8
DRG
 10
257.4095860421948
 20
897.19136821437087
 30
0.0
 11
267.4095860421948
 21
897.19136821437087
 31
0.0
  0
ARC
  5
123
  8
DRG
 10
267.4095860421948
 20
941.28136821437079
 30
0.0
 40
6.0
 50
0.0
 51
90.000000000000483
  0
LINE
  5
124
  8
DRG
 10
256.4095860421948
 20
955.28136821437067
 30
0.0
 11
256.4095860421948
 21
947.28136821437045
 31
0.0
  0
LINE
  5
125
  8
DRG
 10
256.4095860421948
 20
947.28136821437045
 30
0.0
 11
267.4095860421948
 21
947.28136821437067
 31
0.0
  0
LINE
  5
126
  8
DRG
 10
256.4095860421948
 20
1072.7813682143701
 30
0.0
 11
256.4095860421948
 21
1060.2813682143701
 31
0.0
  0
LINE
  5
127
  8
DRG
 10
256.4095860421948
 20
1072.7813682143701
 30
0.0
 11
277.66279169738931
 21
1072.7813682143701
 31
0.0
  0
ARC
  5
128
  8
DRG
 10
277.66279169738931
 20
1078.7813682143701
 30
0.0
 40
6.0
 50
270.0
 51
324.31466528733893
  0
ARC
  5
129
  8
DRG
 10
287.4095860421948
 20
1071.7813682143701
 30
0.0
 40
6.0
 50
89.999999999999886
 51
144.31466528733841
  0
LINE
  5
12A
  8
DRG
 10
436.40958604219458
 20
902.18136821437122
 30
0.0
 11
436.4095860421948
 21
679.63741277185375
 31
0.0
  0
LINE
  5
12B
  8
DRG
 10
328.40958604219441
 20
744.20267297644182
 30
0.0
 11
328.4095860421948
 21
372.88136821437092
 31
0.0
  0
LINE
  5
12C
  8
DRG
 10
342.4095860421948
 20
358.88136821437092
 30
0.0
 11
400.4095860421948
 21
358.88136821437092
 31
0.0
  0
ARC
  5
12D
  8
DRG
 10
342.4095860421948
 20
372.88136821437092
 30
0.0
 40
14.0
 50
180.0
 51
270.0
  0
ARC
  5
12E
  8
DRG
 10
322.4095860421948
 20
446.88136821437098
 30
0.0
 40
6.0
 50
0.0
 51
90.0
  0
LINE
  5
12F
  8
DRG
 10
361.40958604219458
 20
1061.2813682143701
 30
0.0
 11
361.4095860421948
 21
954.28136821437067
 31
0.0
  0
LINE
  5
130
  8
CRS
 10
393.24536882756541
 20
874.18136821437088
 30
0.0
 11
444.77328198101441
 21
874.18136821437088
 31
0.0
  0
LINE
  5
131
  8
DRG
 10
425.4095860421948
 20
902.18136821437122
 30
0.0
 11
436.40958604219458
 21
902.18136821437122
 31
0.0
  0
LINE
  5
132
  8
DRG
 10
419.4095860421948
 20
925.68136821437088
 30
0.0
 11
419.4095860421948
 21
908.18136821437099
 31
0.0
  0
ARC
  5
133
  8
DRG
 10
425.4095860421948
 20
908.18136821437099
 30
0.0
 40
6.0
 50
180.0
 51
270.0
  0
LINE
  5
134
  8
DRG
 10
361.4095860421948
 20
938.18136821437088
 30
0.0
 11
406.9095860421948
 21
938.18136821437088
 31
0.0
  0
LINE
  5
135
  8
DRG
 10
361.4095860421948
 20
954.28136821437067
 30
0.0
 11
361.40958604219458
 21
945.08136821439336
 31
0.0
  0
ARC
  5
136
  8
DRG
 10
361.4095860421948
 20
941.6313682143707
 30
0.0
 40
3.450000000000045
 50
89.99999999999811
 51
270.0
  0
ARC
  5
137
  8
DRG
 10
406.9095860421948
 20
925.68136821437088
 30
0.0
 40
12.5
 50
0.0
 51
90.000000000000099
  0
ARC
  5
138
  8
DRG
 10
340.1563803870049
 20
1078.7813682143701
 30
0.0
 40
6.0
 50
215.68533471264911
 51
270.0
  0
ARC
  5
139
  8
DRG
 10
330.4095860421948
 20
1071.7813682143701
 30
0.0
 40
6.0
 50
35.685334712649187
 51
89.999999999999872
  0
LINE
  5
13A
  8
DRG
 10
340.1563803870049
 20
1072.7813682143701
 30
0.0
 11
361.4095860421948
 21
1072.7813682143701
 31
0.0
  0
LINE
  5
13B
  8
DRG
 10
361.4095860421948
 20
1072.7813682143701
 30
0.0
 11
361.4095860421948
 21
1061.2813682143701
 31
0.0
  0
ARC
  5
13C
  8
DRG
 10
400.4095860421948
 20
352.88136821437092
 30
0.0
 40
6.0
 50
0.0
 51
90.0
  0
LINE
  5
13D
  8
DRG
 10
406.4095860421948
 20
896.14541011246865
 30
0.0
 11
406.4095860421948
 21
679.63741277185375
 31
0.0
  0
ARC
  5
13E
  8
DRG
 10
412.4095860421948
 20
346.88136821437092
 30
0.0
 40
6.0
 50
180.0
 51
270.0
  0
LINE
  5
13F
  8
DRG
 10
412.4095860421948
 20
340.88136821437092
 30
0.0
 11
451.40958604219873
 21
340.88136821437092
 31
0.0
  0
LINE
  5
140
  8
DRG
 10
281.4095860421948
 20
1074.095054936553
 30
0.0
 11
281.40958604219497
 21
468.12381110539559
 31
0.0
  0
LINE
  5
141
  8
DRG
 10
336.4095860421948
 20
1074.0950549365889
 30
0.0
 11
336.40958604219441
 21
761.25660417366964
 31
0.0
  0
ARC
  5
142
  8
DRG
 10
412.4095860421948
 20
896.14541011246865
 30
0.0
 40
6.0
 50
90.0
 51
180.0
  0
ARC
  5
143
  8
DRG
 10
275.40958604219497
 20
468.12381110539559
 30
0.0
 40
6.0
 50
270.0
 51
0.0
  0
ARC
  5
144
  8
DRG
 10
334.40958604219441
 20
744.20267297644182
 30
0.0
 40
6.0
 50
90.0
 51
180.0
  0
ARC
  5
145
  8
DRG
 10
330.40958604219441
 20
761.25660417366964
 30
0.0
 40
6.0
 50
270.0
 51
0.0
  0
ARC
  5
146
  8
DRG
 10
956.40254435811994
 20
600.88136821437092
 30
0.0
 40
260.0
 50
79.682103570413304
 51
270.0
  0
LINE
  5
147
  8
DRG
 10
891.40254435811983
 20
1062.7813682143701
 30
0.0
 11
891.40254435811983
 21
952.78136821437079
 31
0.0
  0
ARC
  5
148
  8
DRG
 10
956.40254435811994
 20
874.18136821437088
 30
0.0
 40
64.0
 50
90.0
 51
165.7971486854639
  0
ARC
  5
149
  8
DRG
 10
956.40254435811994
 20
874.18136821437088
 30
0.0
 40
30.0
 50
90.0
 51
180.0000000000002
  0
LINE
  5
14A
  8
CRS
 10
876.18718405668403
 20
1007.78136821437
 30
0.0
 11
966.91027677360046
 21
1007.781368214371
 31
0.0
  0
LINE
  5
14B
  8
CRS
 10
886.79825220085388
 20
874.18136821437088
 30
0.0
 11
973.29763890560105
 21
874.18136821437088
 31
0.0
  0
ARC
  5
14C
  8
DRG
 10
920.40254435811983
 20
864.43401950059865
 30
0.0
 40
6.0
 50
277.7781852390782
 51
0.0
  0
LINE
  5
14D
  8
DRG
 10
926.40254435811983
 20
874.18136821437088
 30
0.0
 11
926.40254435811983
 21
864.43401950059865
 31
0.0
  0
ARC
  5
14E
  8
DRG
 10
956.40254435811994
 20
874.18136821437088
 30
0.0
 40
64.0
 50
165.7971486854639
 51
180.00000000000011
  0
LINE
  5
14F
  8
DRG
 10
892.40254435811983
 20
874.18136821437088
 30
0.0
 11
892.40254435811983
 21
857.50560713189793
 31
0.0
  0
ARC
  5
150
  8
DRG
 10
886.40254435811983
 20
857.50560713189793
 30
0.0
 40
6.0
 50
285.25752329045662
 51
0.0
  0
LINE
  5
151
  8
DRG
 10
901.40254435812005
 20
942.7813682143701
 30
0.0
 11
944.4025443581196
 21
942.78136821437045
 31
0.0
  0
ARC
  5
152
  8
DRG
 10
901.40254435811983
 20
952.78136821437079
 30
0.0
 40
10.0
 50
180.0
 51
270.00000000000011
  0
ARC
  5
153
  8
DRG
 10
956.40254435811994
 20
1007.78136821437
 30
0.0
 40
70.0
 50
90.0
 51
112.0601720408789
  0
LINE
  5
154
  8
DRG
 10
901.40254435811983
 20
1072.7813682143701
 30
0.0
 11
956.40254435811948
 21
1072.7813682143701
 31
0.0
  0
ARC
  5
155
  8
DRG
 10
901.40254435811983
 20
1062.7813682143701
 30
0.0
 40
10.0
 50
90.000000000000071
 51
180.0
  0
ARC
  5
156
  8
DRG
 10
944.4025443581196
 20
936.78136821437045
 30
0.0
 40
6.0
 50
10.644828249345681
 51
90.000000000000625
  0
LINE
  5
157
  8
CRS
  6
BYBLOCK
 10
912.90506967506133
 20
1057.2788428974291
 30
0.0
 11
920.15506967506133
 21
1057.2788428974291
 31
0.0
  0
CIRCLE
  5
158
  8
DRG2
 10
906.90506967506133
 20
1057.2788428974291
 30
0.0
 40
9.1349999999999998
  0
CIRCLE
  5
159
  8
DRG2
 10
906.90506967506133
 20
1057.2788428974291
 30
0.0
 40
8.1349999999999998
  0
LINE
  5
15A
  8
CRS
  6
BYBLOCK
 10
906.90506967506133
 20
1063.2788428974291
 30
0.0
 11
906.90506967506133
 21
1070.5288428974291
 31
0.0
  0
LINE
  5
15B
  8
CRS
  6
BYBLOCK
 10
906.90506967506133
 20
1051.2788428974291
 30
0.0
 11
906.90506967506133
 21
1044.0288428974279
 31
0.0
  0
LINE
  5
15C
  8
CRS
  6
BYBLOCK
 10
903.90506967506144
 20
1057.2788428974291
 30
0.0
 11
909.90506967506121
 21
1057.2788428974291
 31
0.0
  0
LINE
  5
15D
  8
CRS
  6
BYBLOCK
 10
906.90506967506133
 20
1054.2788428974291
 30
0.0
 11
906.90506967506133
 21
1060.2788428974291
 31
0.0
  0
LINE
  5
15E
  8
CRS
  6
BYBLOCK
 10
900.90506967506121
 20
1057.2788428974291
 30
0.0
 11
893.6550696750611
 21
1057.2788428974291
 31
0.0
  0
POLYLINE
  5
15F
  8
DRG2
 66
     1
 10
0.0
 20
0.0
 30
0.0
 70
     1
  0
VERTEX
  5
160
  8
DRG2
 10
904.01831832911319
 20
1062.2788428974291
 30
0.0
  0
VERTEX
  5
161
  8
DRG2
 10
901.13156698316504
 20
1057.2788428974291
 30
0.0
  0
VERTEX
  5
162
  8
DRG2
 10
904.01831832911319
 20
1052.2788428974291
 30
0.0
  0
VERTEX
  5
163
  8
DRG2
 10
909.79182102100935
 20
1052.2788428974291
 30
0.0
  0
VERTEX
  5
164
  8
DRG2
 10
912.6785723669575
 20
1057.2788428974291
 30
0.0
  0
VERTEX
  5
165
  8
DRG2
 10
909.79182102100935
 20
1062.2788428974291
 30
0.0
  0
SEQEND
  5
166
  8
DRG2
  0
LINE
  5
167
  8
CRS
  6
BYBLOCK
 10
912.90506967506133
 20
958.28389353131274
 30
0.0
 11
920.15506967506133
 21
958.28389353131274
 31
0.0
  0
CIRCLE
  5
168
  8
DRG2
 10
906.90506967506133
 20
958.28389353131274
 30
0.0
 40
8.1349999999999998
  0
CIRCLE
  5
169
  8
DRG2
 10
906.90506967506133
 20
958.28389353131274
 30
0.0
 40
9.1349999999999998
  0
LINE
  5
16A
  8
CRS
  6
BYBLOCK
 10
906.90506967506133
 20
952.28389353131286
 30
0.0
 11
906.90506967506133
 21
945.03389353131251
 31
0.0
  0
LINE
  5
16B
  8
CRS
  6
BYBLOCK
 10
906.90506967506133
 20
961.28389353131286
 30
0.0
 11
906.90506967506133
 21
955.28389353131274
 31
0.0
  0
LINE
  5
16C
  8
CRS
  6
BYBLOCK
 10
903.90506967506144
 20
958.28389353131274
 30
0.0
 11
909.90506967506121
 21
958.28389353131274
 31
0.0
  0
LINE
  5
16D
  8
CRS
  6
BYBLOCK
 10
906.90506967506133
 20
964.48389353131279
 30
0.0
 11
906.90506967506133
 21
971.73389353131279
 31
0.0
  0
LINE
  5
16E
  8
CRS
  6
BYBLOCK
 10
900.90506967506121
 20
958.28389353131274
 30
0.0
 11
893.6550696750611
 21
958.28389353131274
 31
0.0
  0
POLYLINE
  5
16F
  8
DRG2
 66
     1
 10
0.0
 20
0.0
 30
0.0
 70
     1
  0
VERTEX
  5
170
  8
DRG2
 10
904.01831832911319
 20
953.28389353131286
 30
0.0
  0
VERTEX
  5
171
  8
DRG2
 10
901.13156698316504
 20
958.28389353131274
 30
0.0
  0
VERTEX
  5
172
  8
DRG2
 10
904.01831832911319
 20
963.28389353131274
 30
0.0
  0
VERTEX
  5
173
  8
DRG2
 10
909.79182102100935
 20
963.28389353131274
 30
0.0
  0
VERTEX
  5
174
  8
DRG2
 10
912.6785723669575
 20
958.28389353131274
 30
0.0
  0
VERTEX
  5
175
  8
DRG2
 10
909.79182102100935
 20
953.28389353131286
 30
0.0
  0
SEQEND
  5
176
  8
DRG2
  0
CIRCLE
  5
177
  8
DRG2
 10
706.40254435811983
 20
600.88136821437092
 30
0.0
 40
7.1349999999999989
  0
CIRCLE
  5
178
  8
DRG2
 10
706.40254435811983
 20
600.88136821437092
 30
0.0
 40
8.1349999999999998
  0
LINE
  5
179
  8
CRS
  6
BYBLOCK
 10
706.40254435811983
 20
597.88136821437126
 30
0.0
 11
706.40254435811983
 21
603.88136821437138
 31
0.0
  0
LINE
  5
17A
  8
CRS
  6
BYBLOCK
 10
706.40254435811983
 20
594.88136821437138
 30
0.0
 11
706.40254435811983
 21
589.38136821437161
 31
0.0
  0
POLYLINE
  5
17B
  8
DRG2
 66
     1
 10
0.0
 20
0.0
 30
0.0
 70
     1
  0
VERTEX
  5
17C
  8
DRG2
 10
704.09314328136145
 20
604.88136821437092
 30
0.0
  0
VERTEX
  5
17D
  8
DRG2
 10
701.78374220460285
 20
600.88136821437092
 30
0.0
  0
VERTEX
  5
17E
  8
DRG2
 10
704.09314328136145
 20
596.88136821437092
 30
0.0
  0
VERTEX
  5
17F
  8
DRG2
 10
708.7119454348782
 20
596.88136821437092
 30
0.0
  0
VERTEX
  5
180
  8
DRG2
 10
711.02134651163681
 20
600.88136821437092
 30
0.0
  0
VERTEX
  5
181
  8
DRG2
 10
708.7119454348782
 20
604.88136821437092
 30
0.0
  0
SEQEND
  5
182
  8
DRG2
  0
LINE
  5
183
  8
CRS
  6
BYBLOCK
 10
706.40254435811983
 20
606.88136821437126
 30
0.0
 11
706.40254435811983
 21
612.38136821437138
 31
0.0
  0
LINE
  5
184
  8
CRS
 10
776.62584906148288
 20
777.65806351100787
 30
0.0
 11
782.62584906148277
 21
777.65806351100787
 31
0.0
  0
LINE
  5
185
  8
CRS
 10
779.62584906148277
 20
774.65806351100775
 30
0.0
 11
779.62584906148277
 21
780.65806351100775
 31
0.0
  0
LINE
  5
186
  8
CRS
 10
773.62584906148288
 20
777.65806351100787
 30
0.0
 11
767.147709489823
 21
777.65806351100787
 31
0.0
  0
LINE
  5
187
  8
CRS
 10
785.62584906148288
 20
777.65806351100787
 30
0.0
 11
792.10398863314265
 21
777.65806351100787
 31
0.0
  0
LINE
  5
188
  8
CRS
 10
779.62584906148277
 20
771.65806351100775
 30
0.0
 11
779.62584906148277
 21
765.1799239393481
 31
0.0
  0
LINE
  5
189
  8
CRS
 10
779.62584906148277
 20
783.65806351100775
 30
0.0
 11
779.62584906148277
 21
790.13620308266763
 31
0.0
  0
CIRCLE
  5
18A
  8
DRG2
 10
779.62584906148277
 20
777.65806351100787
 30
0.0
 40
8.1349999999999998
  0
CIRCLE
  5
18B
  8
DRG2
 10
779.62584906148277
 20
777.65806351100787
 30
0.0
 40
7.1349999999999989
  0
POLYLINE
  5
18C
  8
DRG2
 66
     1
 10
0.0
 20
0.0
 30
0.0
 70
     1
  0
VERTEX
  5
18D
  8
DRG2
 10
777.3164479847245
 20
781.65806351100787
 30
0.0
  0
VERTEX
  5
18E
  8
DRG2
 10
775.0070469079659
 20
777.65806351100787
 30
0.0
  0
VERTEX
  5
18F
  8
DRG2
 10
777.3164479847245
 20
773.65806351100787
 30
0.0
  0
VERTEX
  5
190
  8
DRG2
 10
781.93525013824114
 20
773.65806351100787
 30
0.0
  0
VERTEX
  5
191
  8
DRG2
 10
784.24465121499975
 20
777.65806351100787
 30
0.0
  0
VERTEX
  5
192
  8
DRG2
 10
781.93525013824114
 20
781.65806351100787
 30
0.0
  0
SEQEND
  5
193
  8
DRG2
  0
LINE
  5
194
  8
CRS
 10
776.62584906148288
 20
424.10467291773409
 30
0.0
 11
782.62584906148277
 21
424.10467291773409
 31
0.0
  0
POLYLINE
  5
195
  8
DRG2
 66
     1
 10
0.0
 20
0.0
 30
0.0
 70
     1
  0
VERTEX
  5
196
  8
DRG2
 10
777.3164479847245
 20
420.10467291773409
 30
0.0
  0
VERTEX
  5
197
  8
DRG2
 10
775.0070469079659
 20
424.10467291773409
 30
0.0
  0
VERTEX
  5
198
  8
DRG2
 10
777.3164479847245
 20
428.10467291773409
 30
0.0
  0
VERTEX
  5
199
  8
DRG2
 10
781.93525013824114
 20
428.10467291773409
 30
0.0
  0
VERTEX
  5
19A
  8
DRG2
 10
784.24465121499975
 20
424.10467291773409
 30
0.0
  0
VERTEX
  5
19B
  8
DRG2
 10
781.93525013824114
 20
420.10467291773409
 30
0.0
  0
SEQEND
  5
19C
  8
DRG2
  0
CIRCLE
  5
19D
  8
DRG2
 10
779.62584906148277
 20
424.10467291773409
 30
0.0
 40
7.1349999999999989
  0
CIRCLE
  5
19E
  8
DRG2
 10
779.62584906148277
 20
424.10467291773409
 30
0.0
 40
8.1349999999999998
  0
LINE
  5
19F
  8
CRS
 10
779.62584906148277
 20
427.10467291773409
 30
0.0
 11
779.62584906148277
 21
421.10467291773409
 31
0.0
  0
LINE
  5
1A0
  8
CRS
 10
773.62584906148288
 20
424.10467291773409
 30
0.0
 11
767.147709489823
 21
424.10467291773409
 31
0.0
  0
LINE
  5
1A1
  8
CRS
 10
779.62584906148277
 20
430.10467291773409
 30
0.0
 11
779.62584906148277
 21
436.58281248939392
 31
0.0
  0
LINE
  5
1A2
  8
CRS
 10
779.62584906148277
 20
418.10467291773409
 30
0.0
 11
779.62584906148277
 21
411.62653334607432
 31
0.0
  0
LINE
  5
1A3
  8
CRS
 10
785.62584906148288
 20
424.10467291773409
 30
0.0
 11
792.10398863314265
 21
424.10467291773409
 31
0.0
  0
LINE
  5
1A4
  8
CRS
 10
975.19254435811956
 20
849.92994961968634
 30
0.0
 11
981.19254435811945
 21
849.92994961968634
 31
0.0
  0
POLYLINE
  5
1A5
  8
DRG2
 66
     1
 10
0.0
 20
0.0
 30
0.0
 70
     1
  0
VERTEX
  5
1A6
  8
DRG2
 10
975.88314328136107
 20
853.92994961968623
 30
0.0
  0
VERTEX
  5
1A7
  8
DRG2
 10
973.57374220460258
 20
849.92994961968634
 30
0.0
  0
VERTEX
  5
1A8
  8
DRG2
 10
975.88314328136107
 20
845.92994961968623
 30
0.0
  0
VERTEX
  5
1A9
  8
DRG2
 10
980.50194543487783
 20
845.92994961968623
 30
0.0
  0
VERTEX
  5
1AA
  8
DRG2
 10
982.81134651163654
 20
849.92994961968634
 30
0.0
  0
VERTEX
  5
1AB
  8
DRG2
 10
980.50194543487783
 20
853.92994961968623
 30
0.0
  0
SEQEND
  5
1AC
  8
DRG2
  0
CIRCLE
  5
1AD
  8
DRG2
 10
978.19254435811945
 20
849.92994961968634
 30
0.0
 40
7.1349999999999989
  0
CIRCLE
  5
1AE
  8
DRG2
 10
978.19254435811945
 20
849.92994961968634
 30
0.0
 40
8.1349999999999998
  0
LINE
  5
1AF
  8
CRS
 10
978.19254435811945
 20
846.92994961968645
 30
0.0
 11
978.19254435811945
 21
852.92994961968634
 31
0.0
  0
LINE
  5
1B0
  8
CRS
 10
972.19254435811945
 20
849.92994961968634
 30
0.0
 11
965.7144047864598
 21
849.92994961968634
 31
0.0
  0
LINE
  5
1B1
  8
CRS
 10
978.19254435811945
 20
843.92994961968634
 30
0.0
 11
978.19254435811945
 21
837.45181004802657
 31
0.0
  0
LINE
  5
1B2
  8
CRS
 10
978.19254435811945
 20
855.92994961968645
 30
0.0
 11
978.19254435811945
 21
862.40808919134611
 31
0.0
  0
LINE
  5
1B3
  8
CRS
 10
984.19254435811956
 20
849.92994961968634
 30
0.0
 11
990.67068392977933
 21
849.92994961968634
 31
0.0
  0
ARC
  5
1B4
  8
DRG2
 10
956.40254435811994
 20
350.88136821437092
 30
0.0
 40
8.1349999999999998
 50
89.999999999999204
 51
270.0000000000008
  0
ARC
  5
1B5
  8
DRG2
 10
956.40254435811994
 20
350.88136821437092
 30
0.0
 40
7.1349999999999989
 50
89.999999999999091
 51
270.00000000000091
  0
LINE
  5
1B6
  8
CRS
 10
953.40254435811983
 20
350.88136821437092
 30
0.0
 11
959.40254435811983
 21
350.88136821437092
 31
0.0
  0
LINE
  5
1B7
  8
CRS
 10
950.40254435811983
 20
350.88136821437092
 30
0.0
 11
943.92440478646006
 21
350.88136821437092
 31
0.0
  0
ARC
  5
1B8
  8
DRG
 10
956.40254435811994
 20
600.88136821437092
 30
0.0
 40
130.0
 50
126.9775121859299
 51
143.02226080427221
  0
ARC
  5
1B9
  8
DRG
 10
844.5608466222676
 20
685.09202459206585
 30
0.0
 40
10.0
 50
247.49977299020219
 51
323.02226080427249
  0
ARC
  5
1BA
  8
DRG
 10
956.40254435811994
 20
600.88136821437092
 30
0.0
 40
130.0
 50
90.0
 51
98.022487814069933
  0
LINE
  5
1BB
  8
CRS
 10
899.29715539810638
 20
724.22251770990715
 30
0.0
 11
899.29715539810616
 21
753.27251770990711
 31
0.0
  0
LINE
  5
1BC
  8
CRS
 10
884.77215539810629
 20
738.7475177099069
 30
0.0
 11
913.82215539810625
 21
738.7475177099069
 31
0.0
  0
ARC
  5
1BD
  8
DRG
 10
818.74299619672286
 20
657.90245904925428
 30
0.0
 40
25.0
 50
67.499772990202075
 51
247.49977299020139
  0
LINE
  5
1BE
  8
DRG
 10
809.17581887582298
 20
634.80550864210181
 30
0.0
 11
821.59962105210798
 21
629.65934361489985
 31
0.0
  0
LINE
  5
1BF
  8
DRG
 10
828.3101735176225
 20
680.99940945640674
 30
0.0
 11
840.73397569390772
 21
675.85324442920501
 31
0.0
  0
ARC
  5
1C0
  8
DRG
 10
817.7725952968442
 20
581.34327149877186
 30
0.0
 40
10.0
 50
292.49977299020208
 51
8.0222608042725341
  0
LINE
  5
1C1
  8
DRG
 10
809.17555006091527
 20
566.95839443242028
 30
0.0
 11
821.59939301572615
 21
572.1044610115523
 31
0.0
  0
ARC
  5
1C2
  8
DRG
 10
956.40254435811994
 20
600.88136821437092
 30
0.0
 40
130.0
 50
171.977285176132
 51
188.02226080427221
  0
ARC
  5
1C3
  8
DRG
 10
817.77275012374798
 20
620.42056345203923
 30
0.0
 40
10.0
 50
351.97728517613223
 51
67.499772990201834
  0
LINE
  5
1C4
  8
DRG
 10
828.30953865532422
 20
520.76434199632172
 30
0.0
 11
840.7333816101351
 21
525.91040857545363
 31
0.0
  0
ARC
  5
1C5
  8
DRG
 10
818.74254435811974
 20
543.86136821437094
 30
0.0
 40
25.0
 50
112.49977299020181
 51
292.49977299020179
  0
ARC
  5
1C6
  8
DRG
 10
844.56017932901671
 20
516.67159808823396
 30
0.0
 40
10.0
 50
36.977285176132177
 51
112.49977299020181
  0
ARC
  5
1C7
  8
DRG
 10
956.40254435811994
 20
600.88136821437092
 30
0.0
 40
130.0
 50
216.97728517613211
 51
233.02226080427209
  0
ARC
  5
1C8
  8
DRG
 10
872.19188798042444
 20
489.0396704785187
 30
0.0
 40
10.0
 50
337.49977299020219
 51
53.022260804272527
  0
LINE
  5
1C9
  8
DRG
 10
922.47840393038894
 20
453.65464273207408
 30
0.0
 11
927.62456895759078
 21
466.07844490835907
 31
0.0
  0
LINE
  5
1CA
  8
DRG
 10
876.2845031160839
 20
472.78899737387371
 30
0.0
 11
881.43066814328574
 21
485.21279955015882
 31
0.0
  0
ARC
  5
1CB
  8
DRG
 10
899.38145352323602
 20
463.22182005297401
 30
0.0
 40
25.0
 50
157.49977299020239
 51
337.49977299020202
  0
ARC
  5
1CC
  8
DRG
 10
936.86334912045095
 20
462.25157397999931
 30
0.0
 40
10.0
 50
81.977285176132185
 51
157.49977299020179
  0
ARC
  5
1CD
  8
DRG
 10
956.40254435811994
 20
600.88136821437092
 30
0.0
 40
130.0
 50
261.97728517613189
 51
270.0
  0
ARC
  5
1CE
  8
DRG
 10
956.40254435811994
 20
600.88136821437092
 30
0.0
 40
120.0
 50
90.0
 51
270.0
  0
ARC
  5
1CF
  8
DRG
 10
956.40254435811994
 20
600.88136821437092
 30
0.0
 40
65.084999999999994
 50
90.0
 51
270.0
  0
ARC
  5
1D0
  8
DRG
 10
956.40254435811994
 20
600.88136821437092
 30
0.0
 40
225.0
 50
77.822502143183399
 51
107.16221614078729
  0
LINE
  5
1D1
  8
DRG
 10
883.72195852796722
 20
802.48129986958202
 30
0.0
 11
897.20217903669959
 21
769.93680398687275
 31
0.0
  0
ARC
  5
1D2
  8
DRG
 10
892.960769015187
 20
806.30809758846385
 30
0.0
 40
10.0
 50
107.1622161407864
 51
202.4997729902019
  0
ARC
  5
1D3
  8
DRG
 10
856.00552706630765
 20
791.00090671293651
 30
0.0
 40
10.0
 50
22.49977299020145
 51
117.8373298396174
  0
ARC
  5
1D4
  8
DRG
 10
956.40254435811994
 20
600.88136821437092
 30
0.0
 40
225.0
 50
117.8373298396171
 51
152.16221614078719
  0
ARC
  5
1D5
  8
DRG
 10
750.97631771178385
 20
664.32477138482022
 30
0.0
 40
10.0
 50
67.499772990201436
 51
162.83732983961741
  0
LINE
  5
1D6
  8
DRG
 10
754.80318864014407
 20
673.5635515476813
 30
0.0
 11
788.37974955678749
 21
659.65552878048311
 31
0.0
  0
ARC
  5
1D7
  8
DRG
 10
784.55287862842738
 20
650.41674861762215
 30
0.0
 40
10.0
 50
12.349677569247669
 51
67.499772990201933
  0
ARC
  5
1D8
  8
DRG
 10
799.86036234186724
 20
687.37186926906634
 30
0.0
 40
10.0
 50
247.49977299020179
 51
302.649868411157
  0
LINE
  5
1D9
  8
DRG
 10
762.45693049686395
 20
692.04111187340345
 30
0.0
 11
796.03349141350736
 21
678.13308910620538
 31
0.0
  0
ARC
  5
1DA
  8
DRG
 10
766.28380142522371
 20
701.27989203626476
 30
0.0
 40
10.0
 50
152.1622161407864
 51
247.4997729902019
  0
ARC
  5
1DB
  8
DRG
 10
766.28300585955424
 20
500.4843509225588
 30
0.0
 40
10.0
 50
112.49977299020139
 51
207.83732983961741
  0
LINE
  5
1DC
  8
DRG
 10
762.45620814067263
 20
509.72316140977892
 30
0.0
 11
796.03287926533687
 21
523.63091811127788
 31
0.0
  0
ARC
  5
1DD
  8
DRG
 10
799.85967698421894
 20
514.39210762405799
 30
0.0
 40
10.0
 50
57.349677569247667
 51
112.4997729902019
  0
ARC
  5
1DE
  8
DRG
 10
784.55248610869148
 20
551.34734957293722
 30
0.0
 40
10.0
 50
292.49977299020179
 51
347.64986841115689
  0
LINE
  5
1DF
  8
DRG
 10
754.80261270290885
 20
528.20078238421843
 30
0.0
 11
788.3792838275732
 21
542.10853908571755
 31
0.0
  0
ARC
  5
1E0
  8
DRG
 10
750.97581498402678
 20
537.43959287143821
 30
0.0
 40
10.0
 50
197.1622161407864
 51
292.4997729902019
  0
ARC
  5
1E1
  8
DRG
 10
892.95914118766984
 20
395.45514156803512
 30
0.0
 40
10.0
 50
157.49977299020139
 51
252.8373298396175
  0
LINE
  5
1E2
  8
DRG
 10
883.72036102480922
 20
399.28201249639523
 30
0.0
 11
897.62838379200753
 21
432.85857341303858
 31
0.0
  0
ARC
  5
1E3
  8
DRG
 10
906.86716395486803
 20
429.0317024846787
 30
0.0
 40
10.0
 50
102.3496775692476
 51
157.4997729902019
  0
ARC
  5
1E4
  8
DRG
 10
869.91204330342362
 20
444.33918619811851
 30
0.0
 40
10.0
 50
337.49977299020179
 51
32.649868411157037
  0
LINE
  5
1E5
  8
DRG
 10
865.24280069908696
 20
406.93575435311499
 30
0.0
 11
879.15082346628515
 21
440.51231526975857
 31
0.0
  0
ARC
  5
1E6
  8
DRG
 10
856.00402053622543
 20
410.76262528147498
 30
0.0
 40
10.0
 50
242.1622161407864
 51
337.4997729902019
  0
ARC
  5
1E7
  8
DRG
 10
956.40254435811994
 20
600.88136821437092
 30
0.0
 40
225.0
 50
252.8373298396169
 51
270.0
  0
ARC
  5
1E8
  8
DRG
 10
956.40254435811994
 20
600.88136821437092
 30
0.0
 40
225.0
 50
207.8373298396171
 51
242.162216140787
  0
ARC
  5
1E9
  8
DRG
 10
956.40254435811994
 20
600.88136821437092
 30
0.0
 40
225.0
 50
162.83732983961701
 51
197.16221614078719
  0
ARC
  5
1EA
  8
DRG
 10
956.40254435811994
 20
1007.781368214371
 30
0.0
 40
70.0
 50
90.0
 51
111.78678929826209
  0
LINE
  5
1EB
  8
DRG
 10
891.40254435811983
 20
1033.9465702835189
 30
0.0
 11
782.17961563305767
 21
793.8745574891791
 31
0.0
  0
LINE
  5
1EC
  8
DRG
 10
523.60958604219491
 20
763.54136821437066
 30
0.0
 11
523.60958604219491
 21
435.3897293041527
 31
0.0
  0
LINE
  5
1ED
  8
DRG
 10
436.40958604219441
 20
860.88136821437104
 30
0.0
 11
451.40958604219458
 21
860.88136821437104
 31
0.0
  0
LINE
  5
1EE
  8
DRG
 10
451.40958604219458
 20
860.88136821437104
 30
0.0
 11
451.4095860421956
 21
679.63741277185375
 31
0.0
  0
LINE
  5
1EF
  8
DRG2
 10
461.40958604219458
 20
842.79994961968623
 30
0.0
 11
460.40958604219458
 21
841.79994961968634
 31
0.0
  0
LINE
  5
1F0
  8
DRG2
 10
460.40958604219458
 20
858.05994961968645
 30
0.0
 11
461.40958604219458
 21
857.05994961968645
 31
0.0
  0
LINE
  5
1F1
  8
DRG2
 10
460.40958604219458
 20
858.05994961968645
 30
0.0
 11
460.40958604219458
 21
841.79994961968634
 31
0.0
  0
LINE
  5
1F2
  8
DRG2
 10
461.40958604219458
 20
842.79994961968623
 30
0.0
 11
461.40958604219458
 21
857.05994961968645
 31
0.0
  0
LINE
  5
1F3
  8
DRG2
 10
451.40958604219458
 20
841.79994961968634
 30
0.0
 11
460.40958604219458
 21
841.79994961968634
 31
0.0
  0
LINE
  5
1F4
  8
DRG2
 10
451.40958604219458
 20
858.05994961968622
 30
0.0
 11
460.40958604219458
 21
858.05994961968645
 31
0.0
  0
LINE
  5
1F5
  8
CRS
 10
444.59488585661029
 20
849.92994961968634
 30
0.0
 11
467.08544951598691
 21
849.92994961968634
 31
0.0
  0
LINE
  5
1F6
  8
CRS
 10
444.59488585661097
 20
777.65806351100787
 30
0.0
 11
467.08544951598759
 21
777.65806351100787
 31
0.0
  0
LINE
  5
1F7
  8
DRG2
 10
451.40958604219531
 20
785.78806351100786
 30
0.0
 11
460.40958604219531
 21
785.78806351100786
 31
0.0
  0
LINE
  5
1F8
  8
DRG2
 10
451.40958604219531
 20
769.52806351100799
 30
0.0
 11
460.40958604219531
 21
769.52806351100799
 31
0.0
  0
LINE
  5
1F9
  8
DRG2
 10
461.40958604219531
 20
770.52806351100799
 30
0.0
 11
461.40958604219531
 21
784.78806351100798
 31
0.0
  0
LINE
  5
1FA
  8
DRG2
 10
460.40958604219531
 20
785.78806351100786
 30
0.0
 11
460.40958604219531
 21
769.52806351100799
 31
0.0
  0
LINE
  5
1FB
  8
DRG2
 10
460.40958604219531
 20
785.78806351100786
 30
0.0
 11
461.40958604219531
 21
784.78806351100798
 31
0.0
  0
LINE
  5
1FC
  8
DRG2
 10
461.40958604219531
 20
770.52806351100799
 30
0.0
 11
460.40958604219531
 21
769.52806351100799
 31
0.0
  0
LINE
  5
1FD
  8
CRS
 10
444.59488585661359
 20
424.10467291773409
 30
0.0
 11
467.08544951599032
 21
424.10467291773409
 31
0.0
  0
LINE
  5
1FE
  8
DRG2
 10
451.40958604219799
 20
432.23467291773409
 30
0.0
 11
460.40958604219799
 21
432.2346729177342
 31
0.0
  0
LINE
  5
1FF
  8
DRG2
 10
451.40958604219799
 20
415.9746729177341
 30
0.0
 11
460.40958604219799
 21
415.9746729177341
 31
0.0
  0
LINE
  5
200
  8
DRG2
 10
461.40958604219799
 20
416.9746729177341
 30
0.0
 11
461.40958604219799
 21
431.2346729177342
 31
0.0
  0
LINE
  5
201
  8
DRG2
 10
460.40958604219799
 20
432.2346729177342
 30
0.0
 11
460.40958604219799
 21
415.9746729177341
 31
0.0
  0
LINE
  5
202
  8
DRG2
 10
460.40958604219799
 20
432.2346729177342
 30
0.0
 11
461.40958604219799
 21
431.2346729177342
 31
0.0
  0
LINE
  5
203
  8
DRG2
 10
461.40958604219799
 20
416.9746729177341
 30
0.0
 11
460.40958604219799
 21
415.9746729177341
 31
0.0
  0
LINE
  5
204
  8
CRS
 10
444.59488585661433
 20
350.88136821437092
 30
0.0
 11
467.085449515991
 21
350.88136821437092
 31
0.0
  0
LINE
  5
205
  8
DRG2
 10
451.40958604219873
 20
359.01136821437092
 30
0.0
 11
460.40958604219873
 21
359.01136821437098
 31
0.0
  0
LINE
  5
206
  8
DRG2
 10
451.40958604219873
 20
342.75136821437093
 30
0.0
 11
460.40958604219873
 21
342.75136821437093
 31
0.0
  0
LINE
  5
207
  8
DRG2
 10
461.40958604219873
 20
343.75136821437098
 30
0.0
 11
461.40958604219873
 21
358.01136821437109
 31
0.0
  0
LINE
  5
208
  8
DRG2
 10
460.40958604219873
 20
359.01136821437098
 30
0.0
 11
460.40958604219873
 21
342.75136821437093
 31
0.0
  0
LINE
  5
209
  8
DRG2
 10
460.40958604219873
 20
359.01136821437098
 30
0.0
 11
461.40958604219873
 21
358.01136821437109
 31
0.0
  0
LINE
  5
20A
  8
DRG2
 10
461.40958604219873
 20
343.75136821437098
 30
0.0
 11
460.40958604219873
 21
342.75136821437093
 31
0.0
  0
LINE
  5
20B
  8
HID
 10
241.4095860421948
 20
698.50136821437081
 30
0.0
 11
281.40958604219492
 21
698.50136821437081
 31
0.0
  0
LINE
  5
20C
  8
HID
 10
241.4095860421948
 20
503.26136821437092
 30
0.0
 11
281.40958604219492
 21
503.26136821437092
 31
0.0
  0
LINE
  5
20D
  8
DIM
 10
256.40958604219429
 20
1075.134990089628
 30
0.0
 11
256.40958604219429
 21
1170.3662106748391
 31
0.0
  0
LINE
  5
20E
  8
DRG
 10
436.4095860421948
 20
522.12532365688787
 30
0.0
 11
436.40958604219509
 21
340.88136821437092
 31
0.0
  0
LINE
  5
20F
  8
DRG
 10
406.4095860421948
 20
522.12532365688787
 30
0.0
 11
406.4095860421948
 21
346.88136821437092
 31
0.0
  0
LINE
  5
210
  8
DRG
 10
451.4095860421973
 20
522.12532365688787
 30
0.0
 11
451.40958604219873
 21
340.88136821437092
 31
0.0
  0
LINE
  5
211
  8
DRG
 10
528.60958604219491
 20
689.78136821437101
 30
0.0
 11
528.60958604219491
 21
511.981368214371
 31
0.0
  0
LINE
  5
212
  8
DRG
 10
523.60958604219491
 20
689.78136821437101
 30
0.0
 11
528.60958604219491
 21
689.78136821437101
 31
0.0
  0
LINE
  5
213
  8
DRG
 10
523.60958604219491
 20
511.981368214371
 30
0.0
 11
528.60958604219491
 21
511.981368214371
 31
0.0
  0
TEXT
  5
214
  8
DIM
 10
18.329400689873971
 20
803.14650581249043
 30
0.0
 40
7.0
  1
45%%d OFFSET FROM CENTRE LINE
  0
TEXT
  5
215
  8
DIM
 10
18.329400689873971
 20
815.14650581249032
 30
0.0
 40
7.0
  1
(0.42") DEEP EQUALLY SPACED
  0
TEXT
  5
216
  8
DIM
 10
18.329400689873971
 20
827.14650581249043
 30
0.0
 40
7.0
  1
4 HOLES TAPPED M10x11
  0
LINE
  5
217
  8
DIM
 10
191.531454586217
 20
812.70673452172628
 30
0.0
 11
203.23558309461279
 21
812.70673452172628
 31
0.0
  0
SOLID
  5
218
  8
DIM
 10
239.8497576008717
 20
718.84030740319611
 30
0.0
 11
237.3527950769998
 21
717.90420416877657
 31
0.0
 12
241.4095860421948
 22
710.88136821437115
 32
0.0
 13
241.4095860421948
 23
710.88136821437115
 33
0.0
  0
LINE
  5
219
  8
DIM
 10
238.60127633893569
 20
718.37225578598645
 30
0.0
 11
203.23558309461279
 21
812.70673452172628
 31
0.0
  0
LINE
  5
21A
  8
HID
 10
252.4095860421948
 20
485.88136821437092
 30
0.0
 11
252.4095860421948
 21
487.22876132906032
 31
0.0
  0
LINE
  5
21B
  8
HID
 10
256.4095860421948
 20
486.63136821437081
 30
0.0
 11
256.4095860421948
 21
487.66997708598359
 31
0.0
  0
LINE
  5
21C
  8
HID
 10
256.4095860421948
 20
495.13136821437098
 30
0.0
 11
256.95956447205702
 21
494.17877763078258
 31
0.0
  0
LINE
  5
21D
  8
HID
 10
241.4095860421948
 20
495.88136821437081
 30
0.0
 11
243.1919791994132
 21
495.88136821437081
 31
0.0
  0
LINE
  5
21E
  8
HID
 10
241.4095860421948
 20
495.13136821437081
 30
0.0
 11
243.11841931742009
 21
495.13136821437081
 31
0.0
  0
LINE
  5
21F
  8
CRS
 10
234.8428011518408
 20
710.88136821437092
 30
0.0
 11
266.30499622134261
 21
710.88136821437092
 31
0.0
  0
LINE
  5
220
  8
CRS
 10
234.8428011518408
 20
490.88136821437081
 30
0.0
 11
266.30499622134261
 21
490.88136821437081
 31
0.0
  0
POLYLINE
  5
221
  8
DRG
 66
     1
 10
0.0
 20
0.0
 30
0.0
 75
     6
  0
VERTEX
  5
222
  8
DRG
 10
1002.971020721668
 20
856.67694481642559
 30
0.0
  0
VERTEX
  5
223
  8
DRG
 10
1003.0383628614589
 20
856.00211438482995
 30
0.0
  0
VERTEX
  5
224
  8
DRG
 10
1003.82284774502
 20
853.58624020165234
 30
0.0
  0
VERTEX
  5
225
  8
DRG
 10
1004.71622567406
 20
851.52958358218007
 30
0.0
  0
VERTEX
  5
226
  8
DRG
 10
1005.32920358863
 20
849.73825811771746
 30
0.0
  0
VERTEX
  5
227
  8
DRG
 10
1005.371399724813
 20
848.12790210769754
 30
0.0
  0
VERTEX
  5
228
  8
DRG
 10
1004.948077502824
 20
846.65225268406698
 30
0.0
  0
VERTEX
  5
229
  8
DRG
 10
1004.263411638917
 20
845.27457168690137
 30
0.0
  0
VERTEX
  5
22A
  8
DRG
 10
1003.521576849339
 20
843.9581209562765
 30
0.0
  0
VERTEX
  5
22B
  8
DRG
 10
1002.926747850343
 20
842.66616233226807
 30
0.0
  0
VERTEX
  5
22C
  8
DRG
 10
1002.6830993581769
 20
841.36195765495165
 30
0.0
  0
VERTEX
  5
22D
  8
DRG
 10
1002.925386680875
 20
840.01421145608265
 30
0.0
  0
VERTEX
  5
22E
  8
DRG
 10
1003.510687493596
 20
838.61339903413841
 30
0.0
  0
VERTEX
  5
22F
  8
DRG
 10
1004.226660063283
 20
837.15543837927589
 30
0.0
  0
VERTEX
  5
230
  8
DRG
 10
1004.860962656879
 20
835.63624748165262
 30
0.0
  0
VERTEX
  5
231
  8
DRG
 10
1005.2012535413249
 20
834.05174433142565
 30
0.0
  0
VERTEX
  5
232
  8
DRG
 10
1005.035190983564
 20
832.39784691875207
 30
0.0
  0
VERTEX
  5
233
  8
DRG
 10
1004.273845564996
 20
830.63917774837068
 30
0.0
  0
VERTEX
  5
234
  8
DRG
 10
1003.321937124857
 20
828.6151773833468
 30
0.0
  0
VERTEX
  5
235
  8
DRG
 10
1002.70759781684
 20
826.13399090132725
 30
0.0
  0
VERTEX
  5
236
  8
DRG
 10
1002.958959794639
 20
823.0037633799584
 30
0.0
  0
VERTEX
  5
237
  8
DRG
 10
1003.864249846732
 20
820.81860133353177
 30
0.0
  0
SEQEND
  5
238
  8
DRG
  0
POLYLINE
  5
239
  8
DRG2
 66
     1
 10
0.0
 20
0.0
 30
0.0
  0
VERTEX
  5
23A
  8
DRG2
 10
954.09314328136145
 20
346.88136821437092
 30
0.0
  0
VERTEX
  5
23B
  8
DRG2
 10
951.78374220460285
 20
350.88136821437092
 30
0.0
  0
VERTEX
  5
23C
  8
DRG2
 10
954.09314328136145
 20
354.88136821437092
 30
0.0
  0
VERTEX
  5
23D
  8
DRG2
 10
956.40254435811994
 20
354.88136821437092
 30
0.0
  0
SEQEND
  5
23E
  8
DRG2
  0
POLYLINE
  5
23F
  8
DRG2
 66
     1
 10
0.0
 20
0.0
 30
0.0
  0
VERTEX
  5
240
  8
DRG2
 10
956.40254435811994
 20
346.88136821437092
 30
0.0
  0
VERTEX
  5
241
  8
DRG2
 10
954.09314328136145
 20
346.88136821437092
 30
0.0
  0
SEQEND
  5
242
  8
DRG2
  0
LINE
  5
243
  8
DIM
 10
388.40958604219298
 20
1097.792833181652
 30
0.0
 11
435.67057552076881
 21
1097.792833181652
 31
0.0
  0
LINE
  5
244
  8
DIM
 10
91.409586042194405
 20
1037.9190647267469
 30
0.0
 11
91.409586042194405
 21
1137.7108095201929
 31
0.0
  0
LINE
  5
245
  8
DIM
 10
86.409586042194633
 20
1034.6375480027541
 30
0.0
 11
86.409586042194633
 21
1170.3662106748391
 31
0.0
  0
LINE
  5
246
  8
DRG
 10
87.909586042194164
 20
1032.781368214371
 30
0.0
 11
235.4095860421946
 21
1032.781368214371
 31
0.0
  0
LINE
  5
247
  8
DRG
 10
91.409586042194405
 20
1036.1813682143711
 30
0.0
 11
146.40958604219441
 21
1036.1813682143711
 31
0.0
  0
LINE
  5
248
  8
DRG
 10
146.40958604219441
 20
1036.1813682143711
 30
0.0
 11
146.40958604219441
 21
1032.781368214371
 31
0.0
  0
LINE
  5
249
  8
DRG2
 10
87.909586042194164
 20
1032.781368214371
 30
0.0
 11
87.909586042194633
 21
982.78136821437135
 31
0.0
  0
LINE
  5
24A
  8
DRG
 10
86.409586042194178
 20
1031.281368214371
 30
0.0
 11
86.409586042194633
 21
984.28136821437147
 31
0.0
  0
LINE
  5
24B
  8
DRG
 10
86.409586042194633
 20
984.28136821437147
 30
0.0
 11
87.909586042194633
 21
982.78136821437135
 31
0.0
  0
LINE
  5
24C
  8
DRG
 10
91.409586042194405
 20
1036.1813682143711
 30
0.0
 11
91.409586042194405
 21
1032.781368214371
 31
0.0
  0
LINE
  5
24D
  8
DRG
 10
87.909586042194164
 20
1032.781368214371
 30
0.0
 11
86.409586042194178
 21
1031.281368214371
 31
0.0
  0
LINE
  5
24E
  8
DRG
 10
87.909586042194633
 20
982.78136821437135
 30
0.0
 11
235.4095860421946
 21
982.78136821437113
 31
0.0
  0
LINE
  5
24F
  8
DIM
 10
85.909586042194647
 20
982.78136821437135
 30
0.0
 11
31.838780545340342
 21
982.78136821437135
 31
0.0
  0
LINE
  5
250
  8
DIM
 10
85.909586042194647
 20
1032.781368214371
 30
0.0
 11
31.838780545340342
 21
1032.781368214371
 31
0.0
  0
LINE
  5
251
  8
DIM
 10
33.838780545340342
 20
1032.781368214371
 30
0.0
 11
33.838780545340342
 21
876.14314115954062
 31
0.0
  0
SOLID
  5
252
  8
DIM
 10
32.505447212007311
 20
990.78136821437135
 30
0.0
 11
35.172113878673819
 21
990.78136821437135
 31
0.0
 12
33.838780545340342
 22
982.78136821437135
 32
0.0
 13
33.838780545340342
 23
982.78136821437135
 33
0.0
  0
SOLID
  5
253
  8
DIM
 10
32.505447212007311
 20
1024.781368214371
 30
0.0
 11
35.172113878673819
 21
1024.781368214371
 31
0.0
 12
33.838780545340342
 22
1032.781368214371
 32
0.0
 13
33.838780545340342
 23
1032.781368214371
 33
0.0
  0
TEXT
  5
254
  8
DIM
 10
29.338780545340342
 20
892.42499507128662
 30
0.0
 40
7.0
  1
%%c50.00 -0.05
 50
90.0
 72
     4
 11
25.838780545340342
 21
928.75832840461987
 31
0.0
  0
TEXT
  5
255
  8
DIM
 10
44.377172401362706
 20
879.25092615224037
 30
0.0
 40
7.0
  1
(%%c1.969" -0.002")
 50
90.0
 72
     4
 11
41.377172401362706
 21
927.75092615224048
 31
0.0
  0
LINE
  5
256
  8
DRG
 10
455.88809585070442
 20
796.87777691204724
 30
0.0
 11
523.60958604219491
 21
752.0291306242998
 31
0.0
  0
LINE
  5
257
  8
DRG
 10
455.68294048777142
 20
810.99155916166103
 30
0.0
 11
523.60958604219491
 21
763.54136821437066
 31
0.0
  0
ARC
  5
258
  8
DRG
 10
461.4095860421948
 20
819.18945710528055
 30
0.0
 40
10.0
 50
180.0000000000004
 51
235.06375689589839
  0
ARC
  5
259
  8
DRG
 10
461.40958604219492
 20
805.21523132363302
 30
0.0
 40
10.0
 50
180.0000000000004
 51
236.48543005977839
  0
LINE
  5
25A
  8
DRG
 10
457.90716175871091
 20
703.51996969617903
 30
0.0
 11
523.60958604219491
 21
678.95203777769086
 31
0.0
  0
ARC
  5
25B
  8
DRG
 10
461.40958604219549
 20
712.88656054549324
 30
0.0
 40
10.0
 50
180.00000000000031
 51
249.4978561717181
  0
ARC
  5
25C
  8
DRG
 10
461.4095860421948
 20
379.74164041324292
 30
0.0
 40
10.0
 50
124.93624310410149
 51
179.99999999999949
  0
ARC
  5
25D
  8
DRG
 10
461.40958604219492
 20
393.71586619489028
 30
0.0
 40
10.0
 50
123.51456994022151
 51
179.9999999999996
  0
LINE
  5
25E
  8
DRG
 10
455.68294048777142
 20
387.93953835686239
 30
0.0
 11
523.60958604219491
 21
435.3897293041527
 31
0.0
  0
LINE
  5
25F
  8
DRG
 10
455.88809585070442
 20
402.05332060647618
 30
0.0
 11
523.60958604219491
 21
446.90196689422368
 31
0.0
  0
ARC
  5
260
  8
DRG
 10
461.40958604219549
 20
486.04453697303029
 30
0.0
 40
10.0
 50
110.5021438282818
 51
179.9999999999996
  0
LINE
  5
261
  8
DRG
 10
457.90716175871091
 20
495.4111278223445
 30
0.0
 11
523.60958604219491
 21
519.97905974083255
 31
0.0
  0
LINE
  5
262
  8
DIM
 10
523.60958604219491
 20
430.52777509549247
 30
0.0
 11
523.60958604219491
 21
271.73807530978871
 31
0.0
  0
ARC
  5
263
  8
DRG
 10
956.40254435811994
 20
1007.78136821437
 30
0.0
 40
40.0
 50
90.0
 51
270.0
  0
LINE
  5
264
  8
DRG
 10
901.40254435811983
 20
1067.7813682143701
 30
0.0
 11
956.40254435811948
 21
1067.7813682143701
 31
0.0
  0
ARC
  5
265
  8
DRG
 10
901.40254435811983
 20
1062.7813682143701
 30
0.0
 40
5.0
 50
90.0
 51
180.0
  0
LINE
  5
266
  8
DRG
 10
896.40254435811971
 20
1062.7813682143701
 30
0.0
 11
896.40254435811971
 21
952.78136821437079
 31
0.0
  0
ARC
  5
267
  8
DRG
 10
901.40254435811983
 20
952.78136821437079
 30
0.0
 40
5.0
 50
180.0
 51
270.0
  0
LINE
  5
268
  8
DRG
 10
901.40254435811983
 20
947.78136821437079
 30
0.0
 11
944.40254435811983
 21
947.78136821437079
 31
0.0
  0
LINE
  5
269
  8
DRG
 10
944.40254435811983
 20
947.7813682143709
 30
0.0
 11
956.40254435811994
 21
947.78136821437079
 31
0.0
  0
ARC
  5
26A
  8
DRG
 10
956.40254435811994
 20
874.18136821437088
 30
0.0
 40
20.0
 50
89.999999999999673
 51
223.267772623307
  0
LINE
  5
26B
  8
HID
 10
244.1482945258953
 20
495.88136821437081
 30
0.0
 11
246.64942266509021
 21
495.88136821437081
 31
0.0
  0
LINE
  5
26C
  8
HID
 10
248.04711110624521
 20
495.88136821437081
 30
0.0
 11
250.0332970336307
 21
495.88136821437081
 31
0.0
  0
LINE
  5
26D
  8
HID
 10
251.0631768496776
 20
495.88136821437081
 30
0.0
 11
252.4095860421948
 21
495.88136821437081
 31
0.0
  0
LINE
  5
26E
  8
HID
 10
244.0011701543375
 20
495.13136821437081
 30
0.0
 11
246.35516931440321
 21
495.13136821437081
 31
0.0
  0
LINE
  5
26F
  8
HID
 10
247.82642224512301
 20
495.13136821437098
 30
0.0
 11
249.8126127800802
 21
495.13136821437098
 31
0.0
  0
LINE
  5
270
  8
HID
 10
250.91604787054831
 20
495.13136821437098
 30
0.0
 11
253.04936277706321
 21
495.13136821437098
 31
0.0
  0
LINE
  5
271
  8
HID
 10
254.15280247510299
 20
495.13136821437098
 30
0.0
 11
256.4095860421948
 21
495.13136821437098
 31
0.0
  0
LINE
  5
272
  8
HID
 10
252.4095860421948
 20
494.361749970034
 30
0.0
 11
252.4095860421948
 21
495.88136821437081
 31
0.0
  0
LINE
  5
273
  8
HID
 10
252.4095860421948
 20
492.00859812501483
 30
0.0
 11
252.4095860421948
 21
493.33224539578458
 31
0.0
  0
LINE
  5
274
  8
HID
 10
252.4095860421948
 20
489.80251934039848
 30
0.0
 11
252.4095860421948
 21
491.49384583789009
 31
0.0
  0
LINE
  5
275
  8
HID
 10
252.4095860421948
 20
487.66997708598359
 30
0.0
 11
252.4095860421948
 21
488.77301819043441
 31
0.0
  0
LINE
  5
276
  8
HID
 10
256.4095860421948
 20
493.69992462250639
 30
0.0
 11
256.4095860421948
 21
495.13136821437098
 31
0.0
  0
LINE
  5
277
  8
HID
 10
256.4095860421948
 20
490.31727162752321
 30
0.0
 11
256.4095860421948
 21
492.59688694234092
 31
0.0
  0
LINE
  5
278
  8
HID
 10
256.4095860421948
 20
488.18472937310821
 30
0.0
 11
256.4095860421948
 21
489.5819131740796
 31
0.0
  0
LINE
  5
279
  8
HID
 10
257.28786170536023
 20
493.61015014271749
 30
0.0
 11
257.83054241209533
 21
492.67019958636462
 31
0.0
  0
LINE
  5
27A
  8
HID
 10
258.2776978466988
 20
491.89570365475078
 30
0.0
 11
258.86332468625079
 21
490.88136821437081
 31
0.0
  0
LINE
  5
27B
  8
HID
 10
248.04711110624521
 20
485.88136821437092
 30
0.0
 11
250.0332970336307
 21
485.88136821437092
 31
0.0
  0
LINE
  5
27C
  8
HID
 10
247.82642224512301
 20
486.6313682143707
 30
0.0
 11
249.8126127800802
 21
486.6313682143707
 31
0.0
  0
LINE
  5
27D
  8
HID
 10
256.4095860421948
 20
486.6313682143707
 30
0.0
 11
256.95956447205702
 21
487.58395879795899
 31
0.0
  0
LINE
  5
27E
  8
HID
 10
252.4095860421948
 20
487.40098645870762
 30
0.0
 11
252.4095860421948
 21
485.88136821437092
 31
0.0
  0
LINE
  5
27F
  8
HID
 10
254.15280247510299
 20
486.6313682143707
 30
0.0
 11
256.4095860421948
 21
486.6313682143707
 31
0.0
  0
LINE
  5
280
  8
HID
 10
250.91604787054831
 20
486.6313682143707
 30
0.0
 11
253.04936277706321
 21
486.6313682143707
 31
0.0
  0
LINE
  5
281
  8
HID
 10
244.0011701543375
 20
486.63136821437081
 30
0.0
 11
246.35516931440321
 21
486.63136821437081
 31
0.0
  0
LINE
  5
282
  8
HID
 10
241.4095860421948
 20
486.63136821437081
 30
0.0
 11
243.11841931742009
 21
486.63136821437081
 31
0.0
  0
LINE
  5
283
  8
HID
 10
251.0631768496776
 20
485.88136821437092
 30
0.0
 11
252.4095860421948
 21
485.88136821437092
 31
0.0
  0
LINE
  5
284
  8
HID
 10
244.1482945258953
 20
485.88136821437092
 30
0.0
 11
246.64942266509021
 21
485.88136821437092
 31
0.0
  0
LINE
  5
285
  8
HID
 10
241.4095860421948
 20
485.88136821437092
 30
0.0
 11
243.1919791994132
 21
485.88136821437092
 31
0.0
  0
LINE
  5
286
  8
HID
 10
257.28786170536023
 20
488.15258628602419
 30
0.0
 11
257.83054241209533
 21
489.09253684237711
 31
0.0
  0
LINE
  5
287
  8
HID
 10
258.2776978466988
 20
489.86703277399079
 30
0.0
 11
258.86332468625079
 21
490.88136821437081
 31
0.0
  0
LINE
  5
288
  8
HID
 10
257.28786170536029
 20
708.15258628602442
 30
0.0
 11
257.8305424120955
 21
709.09253684237717
 31
0.0
  0
LINE
  5
289
  8
HID
 10
257.28786170536029
 20
713.61015014271743
 30
0.0
 11
257.8305424120955
 21
712.67019958636445
 31
0.0
  0
LINE
  5
28A
  8
HID
 10
256.40958604219492
 20
708.18472937310844
 30
0.0
 11
256.40958604219492
 21
709.58191317407966
 31
0.0
  0
LINE
  5
28B
  8
HID
 10
252.40958604219489
 20
707.66997708598365
 30
0.0
 11
252.40958604219489
 21
708.77301819043464
 31
0.0
  0
LINE
  5
28C
  8
HID
 10
241.4095860421948
 20
705.88136821437092
 30
0.0
 11
243.1919791994132
 21
705.88136821437092
 31
0.0
  0
LINE
  5
28D
  8
HID
 10
244.1482945258953
 20
705.88136821437092
 30
0.0
 11
246.64942266509021
 21
705.88136821437092
 31
0.0
  0
LINE
  5
28E
  8
HID
 10
251.0631768496778
 20
705.88136821437092
 30
0.0
 11
252.4095860421948
 21
705.88136821437092
 31
0.0
  0
LINE
  5
28F
  8
HID
 10
241.4095860421948
 20
706.63136821437092
 30
0.0
 11
243.11841931742029
 21
706.63136821437092
 31
0.0
  0
LINE
  5
290
  8
HID
 10
244.00117015433781
 20
706.63136821437092
 30
0.0
 11
246.3551693144033
 21
706.63136821437092
 31
0.0
  0
LINE
  5
291
  8
HID
 10
250.91604787054851
 20
706.63136821437092
 30
0.0
 11
253.04936277706341
 21
706.63136821437092
 31
0.0
  0
LINE
  5
292
  8
HID
 10
254.1528024751031
 20
706.63136821437092
 30
0.0
 11
256.40958604219492
 21
706.63136821437092
 31
0.0
  0
LINE
  5
293
  8
HID
 10
252.40958604219489
 20
707.40098645870785
 30
0.0
 11
252.40958604219489
 21
705.88136821437092
 31
0.0
  0
LINE
  5
294
  8
HID
 10
256.40958604219492
 20
706.63136821437092
 30
0.0
 11
256.95956447205731
 21
707.58395879795921
 31
0.0
  0
LINE
  5
295
  8
HID
 10
247.82642224512301
 20
706.63136821437092
 30
0.0
 11
249.81261278008029
 21
706.63136821437092
 31
0.0
  0
LINE
  5
296
  8
HID
 10
248.0471111062453
 20
705.88136821437092
 30
0.0
 11
250.03329703363099
 21
705.88136821437092
 31
0.0
  0
LINE
  5
297
  8
HID
 10
256.40958604219492
 20
706.63136821437092
 30
0.0
 11
256.40958604219492
 21
707.66997708598365
 31
0.0
  0
LINE
  5
298
  8
HID
 10
252.40958604219489
 20
705.88136821437092
 30
0.0
 11
252.40958604219489
 21
707.22876132906049
 31
0.0
  0
LINE
  5
299
  8
HID
 10
256.40958604219492
 20
715.13136821437115
 30
0.0
 11
256.95956447205731
 21
714.17877763078263
 31
0.0
  0
LINE
  5
29A
  8
HID
 10
256.40958604219492
 20
710.31727162752316
 30
0.0
 11
256.40958604219492
 21
712.59688694234114
 31
0.0
  0
LINE
  5
29B
  8
HID
 10
256.40958604219492
 20
713.69992462250661
 30
0.0
 11
256.40958604219492
 21
715.13136821437115
 31
0.0
  0
LINE
  5
29C
  8
HID
 10
252.40958604219489
 20
709.80251934039848
 30
0.0
 11
252.40958604219489
 21
711.49384583789015
 31
0.0
  0
LINE
  5
29D
  8
HID
 10
252.40958604219489
 20
712.00859812501494
 30
0.0
 11
252.40958604219489
 21
713.33224539578464
 31
0.0
  0
LINE
  5
29E
  8
HID
 10
252.40958604219489
 20
714.36174997003423
 30
0.0
 11
252.40958604219489
 21
715.88136821437081
 31
0.0
  0
LINE
  5
29F
  8
HID
 10
254.1528024751031
 20
715.13136821437115
 30
0.0
 11
256.40958604219492
 21
715.13136821437115
 31
0.0
  0
LINE
  5
2A0
  8
HID
 10
250.91604787054851
 20
715.13136821437092
 30
0.0
 11
253.04936277706341
 21
715.13136821437092
 31
0.0
  0
LINE
  5
2A1
  8
HID
 10
247.82642224512301
 20
715.13136821437092
 30
0.0
 11
249.81261278008029
 21
715.13136821437092
 31
0.0
  0
LINE
  5
2A2
  8
HID
 10
244.00117015433781
 20
715.13136821437092
 30
0.0
 11
246.3551693144033
 21
715.13136821437092
 31
0.0
  0
LINE
  5
2A3
  8
HID
 10
241.4095860421948
 20
715.13136821437092
 30
0.0
 11
243.11841931742029
 21
715.13136821437092
 31
0.0
  0
LINE
  5
2A4
  8
HID
 10
251.0631768496778
 20
715.88136821437081
 30
0.0
 11
252.4095860421948
 21
715.88136821437081
 31
0.0
  0
LINE
  5
2A5
  8
HID
 10
248.0471111062453
 20
715.88136821437081
 30
0.0
 11
250.03329703363099
 21
715.88136821437081
 31
0.0
  0
LINE
  5
2A6
  8
HID
 10
244.1482945258953
 20
715.88136821437081
 30
0.0
 11
246.64942266509021
 21
715.88136821437081
 31
0.0
  0
LINE
  5
2A7
  8
HID
 10
241.4095860421948
 20
715.88136821437081
 30
0.0
 11
243.1919791994132
 21
715.88136821437081
 31
0.0
  0
LINE
  5
2A8
  8
HID
 10
258.27769784669891
 20
709.86703277399079
 30
0.0
 11
258.86332468625091
 21
710.88136821437092
 31
0.0
  0
LINE
  5
2A9
  8
HID
 10
258.27769784669891
 20
711.89570365475095
 30
0.0
 11
258.86332468625091
 21
710.88136821437092
 31
0.0
  0
LINE
  5
2AA
  8
DRG2
 10
216.04012598554681
 20
142.29904128280111
 30
0.0
 11
664.04012598554675
 21
142.29904128280111
 31
0.0
  0
LINE
  5
2AB
  8
DRG2
 10
216.04012598554681
 20
119.89904128280109
 30
0.0
 11
664.04012598554675
 21
119.89904128280109
 31
0.0
  0
LINE
  5
2AC
  8
DRG2
 10
216.04012598554681
 20
97.499041282801144
 30
0.0
 11
664.04012598554675
 21
97.499041282801144
 31
0.0
  0
LINE
  5
2AD
  8
DRG2
 10
216.04012598554681
 20
75.099041282801124
 30
0.0
 11
664.04012598554675
 21
75.099041282801124
 31
0.0
  0
TEXT
  5
2AE
  8
TXT
 10
222.70679265221349
 20
83.299041282801142
 30
0.0
 40
7.0
  1
FACTOR (MECH. ADVANTAGE)
 72
     4
 11
300.04012598554681
 21
86.299041282801156
 31
0.0
  0
TEXT
  5
2AF
  8
TXT
 10
259.87345931888012
 20
127.5990412828011
 30
0.0
 40
7.0
  1
NOMINAL RATIO
 72
     4
 11
300.04012598554681
 21
131.0990412828011
 31
0.0
  0
LINE
  5
2B0
  8
DRG2
 10
216.04012598554681
 20
75.099041282801124
 30
0.0
 11
216.04012598554681
 21
142.29904128280111
 31
0.0
  0
TEXT
  5
2B1
  8
TXT
 10
266.04012598554681
 20
105.1990412828011
 30
0.0
 40
7.0
  1
EXACT RATIO
 72
     4
 11
300.04012598554681
 21
108.6990412828011
 31
0.0
  0
TEXT
  5
2B2
  8
TXT
 10
612.04012598554675
 20
105.1990412828011
 30
0.0
 40
7.0
  1
15.15:1
 72
     4
 11
629.04012598554675
 21
108.6990412828011
 31
0.0
  0
TEXT
  5
2B3
  8
TXT
 10
612.37345931888001
 20
82.799041282801127
 30
0.0
 40
7.0
  1
13.632
 72
     4
 11
629.04012598554675
 21
86.299041282801156
 31
0.0
  0
TEXT
  5
2B4
  8
TXT
 10
479.70679265221338
 20
127.5990412828011
 30
0.0
 40
7.0
  1
10:1
 72
     4
 11
489.04012598554669
 21
131.0990412828011
 31
0.0
  0
TEXT
  5
2B5
  8
TXT
 10
474.04012598554669
 20
105.1990412828011
 30
0.0
 40
7.0
  1
9.99:1
 72
     4
 11
489.04012598554669
 21
108.6990412828011
 31
0.0
  0
TEXT
  5
2B6
  8
TXT
 10
475.04012598554669
 20
82.799041282801127
 30
0.0
 40
7.0
  1
8.993
 72
     4
 11
489.04012598554669
 21
86.299041282801156
 31
0.0
  0
TEXT
  5
2B7
  8
TXT
 10
412.37345931888012
 20
127.5990412828011
 30
0.0
 40
7.0
  1
8:1
 72
     4
 11
419.04012598554681
 21
131.0990412828011
 31
0.0
  0
LINE
  5
2B8
  8
DRG2
 10
384.04012598554681
 20
75.099041282801124
 30
0.0
 11
384.04012598554681
 21
142.29904128280111
 31
0.0
  0
LINE
  5
2B9
  8
DRG2
 10
454.04012598554669
 20
75.099041282801124
 30
0.0
 11
454.04012598554669
 21
142.29904128280111
 31
0.0
  0
TEXT
  5
2BA
  8
TXT
 10
404.04012598554681
 20
105.1990412828011
 30
0.0
 40
7.0
  1
8.09:1
 72
     4
 11
419.04012598554681
 21
108.6990412828011
 31
0.0
  0
TEXT
  5
2BB
  8
TXT
 10
405.04012598554681
 20
82.799041282801127
 30
0.0
 40
7.0
  1
7.280
 72
     4
 11
419.04012598554681
 21
86.299041282801156
 31
0.0
  0
TEXT
  5
2BC
  8
TXT
 10
549.70679265221338
 20
127.5990412828011
 30
0.0
 40
7.0
  1
12:1
 72
     4
 11
559.04012598554675
 21
131.0990412828011
 31
0.0
  0
LINE
  5
2BD
  8
DRG2
 10
524.04012598554675
 20
75.099041282801124
 30
0.0
 11
524.04012598554675
 21
142.29904128280111
 31
0.0
  0
LINE
  5
2BE
  8
DRG2
 10
594.04012598554675
 20
75.099041282801124
 30
0.0
 11
594.04012598554675
 21
142.29904128280111
 31
0.0
  0
TEXT
  5
2BF
  8
TXT
 10
542.04012598554675
 20
105.1990412828011
 30
0.0
 40
7.0
  1
11.83:1
 72
     4
 11
559.04012598554675
 21
108.6990412828011
 31
0.0
  0
TEXT
  5
2C0
  8
TXT
 10
542.54012598554675
 20
82.799041282801127
 30
0.0
 40
7.0
  1
10.649
 72
     4
 11
559.04012598554675
 21
86.299041282801156
 31
0.0
  0
TEXT
  5
2C1
  8
TXT
 10
619.70679265221338
 20
127.5990412828011
 30
0.0
 40
7.0
  1
15:1
 72
     4
 11
629.04012598554675
 21
131.0990412828011
 31
0.0
  0
LINE
  5
2C2
  8
DRG2
 10
664.04012598554675
 20
75.099041282801124
 30
0.0
 11
664.04012598554675
 21
142.29904128280111
 31
0.0
  0
TEXT
  5
2C3
  8
DIM
 10
146.8924122685485
 20
1549.7323892938509
 30
0.0
 40
7.0
  1
60
 72
     4
 11
152.55907893521521
 21
1553.2323892938509
 31
0.0
  0
LINE
  5
2C4
  8
DIM
 10
122.5590789352152
 20
1546.2323892938509
 30
0.0
 11
182.55907893521521
 21
1546.2323892938509
 31
0.0
  0
LINE
  5
2C5
  8
DRG
 10
182.55907893521521
 20
1381.2323892938509
 30
0.0
 11
124.0590789352152
 21
1381.2323892938509
 31
0.0
  0
LINE
  5
2C6
  8
DRG
 10
182.52098535789651
 20
1331.2323892938509
 30
0.0
 11
124.0590789352152
 21
1331.2323892938509
 31
0.0
  0
LINE
  5
2C7
  8
DRG
 10
182.55907893521521
 20
1385.7323892938509
 30
0.0
 11
127.5590789352152
 21
1385.7323892938509
 31
0.0
  0
LINE
  5
2C8
  8
CRS
 10
301.36092632755111
 20
1356.2323892938509
 30
0.0
 11
108.9106086174576
 21
1356.2323892938509
 31
0.0
  0
LINE
  5
2C9
  8
DIM
 10
82.559078935215226
 20
1206.2323892938509
 30
0.0
 11
82.559078935215666
 21
1506.2323892938521
 31
0.0
  0
LINE
  5
2CA
  8
DIM
 10
176.69248237073739
 20
1206.2323892938509
 30
0.0
 11
80.784287994928718
 21
1206.2323892938509
 31
0.0
  0
SOLID
  5
2CB
  8
DIM
 10
81.225753220929406
 20
1214.2323435795649
 30
0.0
 11
83.892404649501046
 21
1214.2323435795649
 31
0.0
 12
82.559078935215226
 22
1206.2323892938509
 32
0.0
 13
82.559078935215226
 23
1206.2323892938509
 33
0.0
  0
TEXT
  5
2CC
  8
DIM
 10
79.059078935215666
 20
1302.649259717911
 30
0.0
 40
7.0
  1
FOR INPUT OPTIONS
 50
90.0
 72
     4
 11
75.559078935215666
 21
1355.4825930512441
 31
0.0
  0
LINE
  5
2CD
  8
DRG
 10
124.0590789352152
 20
1381.2323892938509
 30
0.0
 11
122.5590789352152
 21
1379.7323892938509
 31
0.0
  0
LINE
  5
2CE
  8
DRG
 10
122.5590789352152
 20
1332.7323892938509
 30
0.0
 11
124.0590789352152
 21
1331.2323892938509
 31
0.0
  0
LINE
  5
2CF
  8
DRG
 10
122.5590789352152
 20
1379.7323892938509
 30
0.0
 11
122.5590789352152
 21
1332.7323892938509
 31
0.0
  0
LINE
  5
2D0
  8
DRG2
 10
124.0590789352152
 20
1381.2323892938509
 30
0.0
 11
124.0590789352152
 21
1331.2323892938509
 31
0.0
  0
LINE
  5
2D1
  8
DRG
 10
127.5590789352152
 20
1385.7323892938509
 30
0.0
 11
127.5590789352152
 21
1381.2323892938509
 31
0.0
  0
LINE
  5
2D2
  8
DIM
 10
178.6124516748325
 20
1506.2323892938509
 30
0.0
 11
79.777190555021889
 21
1506.2323892938509
 31
0.0
  0
SOLID
  5
2D3
  8
DIM
 10
81.225753220929846
 20
1498.2324350081369
 30
0.0
 11
83.892404649501046
 21
1498.2324350081369
 31
0.0
 12
82.559078935215666
 22
1506.2323892938521
 32
0.0
 13
82.559078935215666
 23
1506.2323892938521
 33
0.0
  0
TEXT
  5
2D4
  8
DIM
 10
153.39272553347249
 20
1428.3165284478259
 30
0.0
 40
7.0
  1
5
 72
     1
 11
155.7260588668058
 21
1431.8165284478259
 31
0.0
 73
     2
  0
LINE
  5
2D5
  8
DIM
 10
115.5962655225982
 20
1425.7334474487759
 30
0.0
 11
104.1565886671498
 21
1425.7334474487759
 31
0.0
  0
SOLID
  5
2D6
  8
DIM
 10
114.6026601664373
 20
1427.0657150081361
 30
0.0
 11
114.6026601664373
 21
1424.3990635795651
 31
0.0
 12
122.6026144521513
 22
1425.7323892938509
 32
0.0
 13
122.6026144521513
 23
1425.7323892938509
 33
0.0
  0
SOLID
  5
2D7
  8
DIM
 10
135.59712679824881
 20
1427.0666219980731
 30
0.0
 11
135.59712679824881
 21
1424.3999705695021
 31
0.0
 12
127.5971725125343
 22
1425.733296283787
 32
0.0
 13
127.5971725125343
 23
1425.733296283787
 33
0.0
  0
LINE
  5
2D8
  8
DIM
 10
133.59717251253431
 20
1425.733296283787
 30
0.0
 11
172.52945077141311
 21
1425.733296283787
 31
0.0
  0
SOLID
  5
2D9
  8
DIM
 10
130.55903322092959
 20
1547.5657150081361
 30
0.0
 11
130.55903322092959
 21
1544.8990635795651
 31
0.0
 12
122.5590789352152
 22
1546.2323892938509
 32
0.0
 13
122.5590789352152
 23
1546.2323892938509
 33
0.0
  0
LINE
  5
2DA
  8
DRG
 10
292.53407893521478
 20
1416.2323892938509
 30
0.0
 11
276.2840789352158
 21
1416.2323892938509
 31
0.0
  0
LINE
  5
2DB
  8
DRG
 10
292.53407893521478
 20
1296.2323892938509
 30
0.0
 11
276.2840789352158
 21
1296.2323892938509
 31
0.0
  0
LINE
  5
2DC
  8
DRG
 10
276.2840789352158
 20
1416.2323892938509
 30
0.0
 11
276.2840789352158
 21
1296.2323892938509
 31
0.0
  0
LINE
  5
2DD
  8
DRG
 10
182.55907893521521
 20
1506.2323892938509
 30
0.0
 11
182.55907893521521
 21
1206.2323892938509
 31
0.0
  0
LINE
  5
2DE
  8
DRG
 10
202.55907893521521
 20
1506.2323892938509
 30
0.0
 11
202.55907893521521
 21
1206.2323892938509
 31
0.0
  0
LINE
  5
2DF
  8
HID
 10
187.55907893521521
 20
1431.4173892938511
 30
0.0
 11
187.55907893521521
 21
1281.047389293851
 31
0.0
  0
LINE
  5
2E0
  8
DRG
 10
271.2840789352158
 20
1362.2323892938509
 30
0.0
 11
207.55907893521521
 21
1362.2323892938509
 31
0.0
  0
LINE
  5
2E1
  8
DRG
 10
271.2840789352158
 20
1350.2323892938509
 30
0.0
 11
207.55907893521521
 21
1350.2323892938509
 31
0.0
  0
LINE
  5
2E2
  8
DRG
 10
271.28407893521478
 20
1301.2323892938509
 30
0.0
 11
207.5590789352143
 21
1301.2323892938509
 31
0.0
  0
LINE
  5
2E3
  8
DRG
 10
202.55907893521521
 20
1206.2323892938509
 30
0.0
 11
276.2840789352158
 21
1296.2323892938509
 31
0.0
  0
LINE
  5
2E4
  8
DIM
 10
194.55907893521521
 20
1269.6895362513851
 30
0.0
 11
205.5173410269918
 21
1269.6895362513851
 31
0.0
  0
LINE
  5
2E5
  8
HID
 10
202.55907893521521
 20
1228.652389293851
 30
0.0
 11
182.55907893521521
 21
1228.652389293851
 31
0.0
  0
SOLID
  5
2E6
  8
DIM
 10
174.5591246495012
 20
1271.02286196567
 30
0.0
 11
174.5591246495012
 21
1268.3562105370991
 31
0.0
 12
182.55907893521521
 22
1269.6895362513851
 32
0.0
 13
182.55907893521521
 23
1269.6895362513851
 33
0.0
  0
LINE
  5
2E7
  8
DIM
 10
175.70193607807249
 20
1269.6895362513851
 30
0.0
 11
135.29580810482091
 21
1269.6895362513851
 31
0.0
  0
SOLID
  5
2E8
  8
DIM
 10
195.55903322092959
 20
1271.02286196567
 30
0.0
 11
195.55903322092959
 21
1268.3562105370991
 31
0.0
 12
187.55907893521521
 22
1269.6895362513851
 32
0.0
 13
187.55907893521521
 23
1269.6895362513851
 33
0.0
  0
TEXT
  5
2E9
  8
DIM
 10
150.8611360901387
 20
1272.015123944941
 30
0.0
 40
7.0
  1
5
 72
     1
 11
153.1944694234721
 21
1275.5151239449419
 31
0.0
 73
     2
  0
LINE
  5
2EA
  8
HID
 10
202.55907893521521
 20
1249.152389293851
 30
0.0
 11
182.55907893521521
 21
1249.152389293851
 31
0.0
  0
LINE
  5
2EB
  8
CRS
 10
206.35917788776231
 20
1238.902389293851
 30
0.0
 11
177.94992942964441
 21
1238.902389293851
 31
0.0
  0
LINE
  5
2EC
  8
HID
 10
186.55907893521521
 20
1280.047389293851
 30
0.0
 11
182.5590789352147
 21
1280.047389293851
 31
0.0
  0
ARC
  5
2ED
  8
HID
 10
186.55907893521521
 20
1281.047389293851
 30
0.0
 40
1.0
 50
270.00000000000063
 51
0.0
  0
ARC
  5
2EE
  8
DRG
 10
207.5590789352143
 20
1296.2323892938509
 30
0.0
 40
5.0
 50
90.0
 51
180.0
  0
ARC
  5
2EF
  8
DRG
 10
207.55907893521521
 20
1345.2323892938509
 30
0.0
 40
5.0
 50
90.0
 51
180.0
  0
ARC
  5
2F0
  8
DRG
 10
207.55907893521521
 20
1367.2323892938509
 30
0.0
 40
5.0
 50
180.0
 51
270.0
  0
ARC
  5
2F1
  8
DRG
 10
271.28407893521478
 20
1296.2323892938509
 30
0.0
 40
5.0
 50
0.0
 51
90.0
  0
ARC
  5
2F2
  8
DRG
 10
271.2840789352158
 20
1345.2323892938509
 30
0.0
 40
5.0
 50
0.0
 51
90.0
  0
ARC
  5
2F3
  8
DRG
 10
271.2840789352158
 20
1367.2323892938509
 30
0.0
 40
5.0
 50
270.0
 51
0.0
  0
LINE
  5
2F4
  8
DRG
 10
271.2840789352158
 20
1411.2323892938509
 30
0.0
 11
207.55907893521521
 21
1411.2323892938509
 31
0.0
  0
LINE
  5
2F5
  8
DRG
 10
276.2840789352158
 20
1416.2323892938509
 30
0.0
 11
202.55907893521521
 21
1506.2323892938509
 31
0.0
  0
LINE
  5
2F6
  8
HID
 10
202.55907893521521
 20
1463.3123892938511
 30
0.0
 11
182.55907893521521
 21
1463.3123892938511
 31
0.0
  0
LINE
  5
2F7
  8
CRS
 10
206.35917788776231
 20
1473.5623892938511
 30
0.0
 11
177.94992942964441
 21
1473.5623892938511
 31
0.0
  0
LINE
  5
2F8
  8
HID
 10
202.55907893521521
 20
1483.8123892938511
 30
0.0
 11
182.55907893521521
 21
1483.8123892938511
 31
0.0
  0
LINE
  5
2F9
  8
HID
 10
186.55907893521521
 20
1432.4173892938511
 30
0.0
 11
182.55907893521521
 21
1432.4173892938511
 31
0.0
  0
ARC
  5
2FA
  8
HID
 10
186.55907893521521
 20
1431.4173892938511
 30
0.0
 40
1.0
 50
0.0
 51
90.0
  0
ARC
  5
2FB
  8
DRG
 10
207.55907893521521
 20
1416.2323892938509
 30
0.0
 40
5.0
 50
180.0
 51
270.0
  0
SOLID
  5
2FC
  8
DIM
 10
174.5591246495012
 20
1547.5657150081361
 30
0.0
 11
174.5591246495012
 21
1544.8990635795651
 31
0.0
 12
182.55907893521521
 22
1546.2323892938509
 32
0.0
 13
182.55907893521521
 23
1546.2323892938509
 33
0.0
  0
ARC
  5
2FD
  8
DRG
 10
271.2840789352158
 20
1416.2323892938509
 30
0.0
 40
5.0
 50
270.0
 51
0.0
  0
LINE
  5
2FE
  8
DRG
 10
202.55907893521521
 20
1506.2323892938509
 30
0.0
 11
182.55907893521521
 21
1506.2323892938509
 31
0.0
  0
LINE
  5
2FF
  8
DRG
 10
202.55907893521521
 20
1206.2323892938509
 30
0.0
 11
182.55907893521521
 21
1206.2323892938509
 31
0.0
  0
LINE
  5
300
  8
DIM
 10
187.55907893521521
 20
1278.502923329615
 30
0.0
 11
187.55907893521521
 21
1266.025034064997
 31
0.0
  0
LINE
  5
301
  8
CRS
 10
206.35917788776231
 20
1404.8323892938511
 30
0.0
 11
177.94992942964441
 21
1404.8323892938511
 31
0.0
  0
LINE
  5
302
  8
HID
 10
202.55907893521521
 20
1415.0823892938511
 30
0.0
 11
182.55907893521521
 21
1415.0823892938511
 31
0.0
  0
LINE
  5
303
  8
HID
 10
202.55907893521521
 20
1394.5823892938511
 30
0.0
 11
182.55907893521521
 21
1394.5823892938511
 31
0.0
  0
LINE
  5
304
  8
CRS
 10
206.35917788776231
 20
1307.632389293851
 30
0.0
 11
177.94992942964441
 21
1307.632389293851
 31
0.0
  0
LINE
  5
305
  8
HID
 10
202.55907893521521
 20
1317.882389293851
 30
0.0
 11
182.55907893521521
 21
1317.882389293851
 31
0.0
  0
LINE
  5
306
  8
HID
 10
202.55907893521521
 20
1297.382389293851
 30
0.0
 11
182.55907893521521
 21
1297.382389293851
 31
0.0
  0
LINE
  5
307
  8
DIM
 10
127.5590789352156
 20
1387.608611073653
 30
0.0
 11
127.5590789352156
 21
1428.440968190504
 31
0.0
  0
TEXT
  5
308
  8
DIM
 10
134.8924122685485
 20
1536.2323892938509
 30
0.0
 40
7.0
  1
(2.36")
 72
     4
 11
152.55907893521521
 21
1539.2323892938509
 31
0.0
  0
TEXT
  5
309
  8
DIM
 10
138.05939220013909
 20
1414.8165284478259
 30
0.0
 40
7.0
  1
(0.20")
 72
     4
 11
155.7260588668058
 21
1417.8165284478259
 31
0.0
  0
TEXT
  5
30A
  8
DIM
 10
135.52780275680539
 20
1258.5151239449419
 30
0.0
 40
7.0
  1
(0.20")
 72
     4
 11
153.1944694234721
 21
1261.5151239449419
 31
0.0
  0
TEXT
  5
30B
  8
DIM
 10
93.059078935215666
 20
1327.4825930512441
 30
0.0
 40
7.0
  1
SEE TABLE
 50
90.0
 72
     4
 11
89.559078935215666
 21
1355.4825930512441
 31
0.0
  0
LINE
  5
30C
  8
DIM
 10
122.5590789352152
 20
1383.7029030180511
 30
0.0
 11
122.5590789352152
 21
1502.1648494002229
 31
0.0
  0
LINE
  5
30D
  8
DRG
 10
292.53407893521478
 20
1416.2323892938509
 30
0.0
 11
292.53407893521478
 21
1296.2323892938509
 31
0.0
  0
SOLID
  5
30E
  8
DIM
 10
190.55903322092919
 20
1547.5657150081361
 30
0.0
 11
190.55903322092919
 21
1544.8990635795651
 31
0.0
 12
182.55907893521521
 22
1546.2323892938509
 32
0.0
 13
182.55907893521521
 23
1546.2323892938509
 33
0.0
  0
LINE
  5
30F
  8
DIM
 10
292.53407893521478
 20
1546.2323892938509
 30
0.0
 11
182.55907893521521
 21
1546.2323892938509
 31
0.0
  0
TEXT
  5
310
  8
DIM
 10
229.93003407773381
 20
1549.7323892938509
 30
0.0
 40
7.0
  1
110
 72
     4
 11
237.59670074440049
 21
1553.2323892938509
 31
0.0
  0
TEXT
  5
311
  8
DIM
 10
219.879912268548
 20
1536.2300605594819
 30
0.0
 40
7.0
  1
(4.33")
 72
     4
 11
237.54657893521471
 21
1539.2300605594819
 31
0.0
  0
SOLID
  5
312
  8
DIM
 10
284.53412464950082
 20
1547.5657150081361
 30
0.0
 11
284.53412464950082
 21
1544.8990635795651
 31
0.0
 12
292.53407893521478
 22
1546.2323892938509
 32
0.0
 13
292.53407893521478
 23
1546.2323892938509
 33
0.0
  0
ARC
  5
313
  8
DRG
 10
956.40254435811994
 20
600.88136821437115
 30
0.0
 40
88.899999999999864
 50
89.999999999999915
 51
270.00000000000011
  0
ARC
  5
314
  8
DRG2
 10
899.29715539810616
 20
738.7475177099069
 30
0.0
 40
9.5250000000000004
 50
72.011257910716211
 51
16.408731326059911
  0
CIRCLE
  5
315
  8
DRG2
 10
899.29715539810616
 20
738.7475177099069
 30
0.0
 40
8.2867499999999996
  0
ARC
  5
316
  8
DRG2
 10
818.53639486258362
 20
657.98675717438459
 30
0.0
 40
9.5250000000000004
 50
72.011257910716211
 51
16.408731326059911
  0
CIRCLE
  5
317
  8
DRG2
 10
818.53639486258362
 20
657.98675717438459
 30
0.0
 40
8.2867499999999996
  0
ARC
  5
318
  8
DRG2
 10
818.53639486258362
 20
543.77597925435737
 30
0.0
 40
9.5250000000000004
 50
72.011257910716211
 51
16.408731326059911
  0
CIRCLE
  5
319
  8
DRG2
 10
818.53639486258362
 20
543.77597925435737
 30
0.0
 40
8.2867499999999996
  0
ARC
  5
31A
  8
DRG2
 10
899.29715539810616
 20
463.01521871883489
 30
0.0
 40
9.5250000000000004
 50
72.011257910716211
 51
16.408731326059911
  0
CIRCLE
  5
31B
  8
DRG2
 10
899.29715539810616
 20
463.01521871883489
 30
0.0
 40
8.2867499999999996
  0
LINE
  5
31C
  8
CRS
 10
818.53639486258385
 20
643.4617571743845
 30
0.0
 11
818.53639486258339
 21
672.51175717438446
 31
0.0
  0
LINE
  5
31D
  8
CRS
 10
804.01139486258376
 20
657.98675717438459
 30
0.0
 11
833.06139486258348
 21
657.98675717438459
 31
0.0
  0
LINE
  5
31E
  8
CRS
 10
818.53639486258385
 20
529.25097925435728
 30
0.0
 11
818.53639486258339
 21
558.30097925435734
 31
0.0
  0
LINE
  5
31F
  8
CRS
 10
804.01139486258376
 20
543.77597925435737
 30
0.0
 11
833.06139486258348
 21
543.77597925435737
 31
0.0
  0
LINE
  5
320
  8
CRS
 10
899.29715539810638
 20
448.49021871883491
 30
0.0
 11
899.29715539810616
 21
477.54021871883481
 31
0.0
  0
LINE
  5
321
  8
CRS
 10
884.77215539810629
 20
463.01521871883489
 30
0.0
 11
913.82215539810625
 21
463.01521871883489
 31
0.0
  0
TEXT
  5
322
  8
DIM
 10
610.77690115000757
 20
858.79007168413568
 30
0.0
 40
7.0
  1

  0
TEXT
  5
323
  8
DIM
 10
1044.084134230588
 20
1025.0771552230481
 30
0.0
 40
7.0
  1
(2.76")
 50
90.0
 72
     4
 11
1041.084134230588
 21
1042.743821889715
 31
0.0
  0
TEXT
  5
324
  8
DIM
 10
1044.084134230588
 20
783.76951657085499
 30
0.0
 40
7.0
  1
(16.02")
 50
90.0
 72
     4
 11
1041.084134230588
 21
804.10284990418836
 31
0.0
  0
TEXT
  5
325
  8
DIM
 10
628.53903901986121
 20
647.91331962360698
 30
0.0
 40
7.0
  1
(%%c13.78")
 50
0.0000000000001599
 72
     4
 11
652.03903901986109
 21
650.91331962360709
 31
0.0
  0
LINE
  5
326
  8
DIM
 10
675.73742499317268
 20
658.75688782614748
 30
0.0
 11
627.96602116361794
 21
658.75688782614748
 31
0.0
  0
TEXT
  5
327
  8
DIM
 10
639.87237235319435
 20
663.10045602868831
 30
0.0
 40
7.0
  1
%%C350
 50
0.0000000000000799
 72
     4
 11
652.03903901986109
 21
666.60045602868831
 31
0.0
  0
ARC
  5
328
  8
DIM
 10
956.40254435811994
 20
600.88136821437092
 30
0.0
 40
175.0
 50
162.5277411092612
 51
170.1419039998658
  0
ARC
  5
329
  8
DRG
 10
899.00002950335636
 20
739.46329809106385
 30
0.0
 40
25.0
 50
22.49999999999967
 51
202.4999999999996
  0
LINE
  5
32A
  8
DRG
 10
922.09701781613865
 20
749.03038390019105
 30
0.0
 11
927.62510305622015
 21
735.68440553963148
 31
0.0
  0
ARC
  5
32B
  8
DRG
 10
936.86389838133312
 20
739.51123986328275
 30
0.0
 40
10.0
 50
202.4999999999996
 51
278.0224878140699
  0
ARC
  5
32C
  8
DRG
 10
906.48587539851428
 20
773.65338600019356
 30
0.0
 40
10.0
 50
201.81791925542819
 51
257.65009542095447
  0
ARC
  5
32D
  8
DRG
 10
872.19233110554296
 20
712.72339959772626
 30
0.0
 40
10.0
 50
306.97751218593021
 51
22.49999999999967
  0
ARC
  5
32E
  8
DRG
 10
869.53069409806301
 20
758.34604870559008
 30
0.0
 40
10.0
 50
327.34990457904479
 51
22.49999999999967
  0
LINE
  5
32F
  8
DRG
 10
875.90304119057419
 20
729.89621228193664
 30
0.0
 11
881.43112643065581
 21
716.55023392137707
 31
0.0
  0
LINE
  5
330
  8
DRG
 10
865.24433755352788
 20
794.82770443181835
 30
0.0
 11
878.76948942317586
 21
762.17288302924112
 31
0.0
  0
TEXT
  5
331
  8
DIM
 10
845.02069645609322
 20
298.51983967024762
 30
0.0
 40
7.0
  1
(%%c20.47")
 72
     4
 11
869.18736312275985
 21
301.51983967024762
 31
0.0
  0
TEXT
  5
332
  8
DIM
 10
539.93014550186706
 20
298.51983967024751
 30
0.0
 40
7.0
  1
(0.20")
 72
     4
 11
557.59681216853357
 21
301.51983967024751
 31
0.0
  0
TEXT
  5
333
  8
DIM
 10
440.5543722767211
 20
298.51983967024751
 30
0.0
 40
7.0
  1
(5.18")
 72
     4
 11
457.5543722767211
 21
301.51983967024751
 31
0.0
  0
TEXT
  5
334
  8
DIM
 10
364.063797264632
 20
262.73807530978871
 30
0.0
 40
7.0
  1
(11.11")
 72
     4
 11
382.39713059796532
 21
265.73807530978871
 31
0.0
  0
TEXT
  5
335
  8
DIM
 10
432.58133243214212
 20
630.33158698749787
 30
0.0
 40
7.0
  1
(4.45")
 72
     4
 11
450.2479990988088
 21
633.33158698749787
 31
0.0
  0
TEXT
  5
336
  8
DIM
 10
154.88357842260621
 20
580.04803488103778
 30
0.0
 40
7.0
  1
(%%c7.68")
 50
90.0
 72
     4
 11
151.88357842260621
 21
600.88136821437115
 31
0.0
  0
TEXT
  5
337
  8
DIM
 10
153.74291937552769
 20
1157.3662106748391
 30
0.0
 40
7.0
  1
(6.69")
 72
     4
 11
171.40958604219441
 21
1160.3662106748391
 31
0.0
  0
TEXT
  5
338
  8
DIM
 10
373.81986481259759
 20
1157.3662106748391
 30
0.0
 40
7.0
  1
(10.52")
 72
     4
 11
394.1531981459309
 21
1160.3662106748391
 31
0.0
  0
TEXT
  5
339
  8
DIM
 10
41.362995207492141
 20
1122.6200985076259
 30
0.0
 40
7.0
  1
(0.20")
 72
     4
 11
59.029661874158819
 21
1125.6200985076259
 31
0.0
  0
TEXT
  5
33A
  8
DIM
 10
195.24216356103821
 20
1122.6200985076259
 30
0.0
 40
7.0
  1
(0.59")
 72
     4
 11
212.9088302277049
 21
1125.6200985076259
 31
0.0
  0
TEXT
  5
33B
  8
DIM
 10
432.27594744778162
 20
1122.6200985076259
 30
0.0
 40
7.0
  1
(5.80")
 72
     4
 11
449.9426141144483
 21
1125.6200985076259
 31
0.0
  0
TEXT
  5
33C
  8
DIM
 10
399.8924566247864
 20
1086.792833181652
 30
0.0
 40
7.0
  1
(0.47")
 72
     4
 11
417.55912329145309
 21
1089.792833181652
 31
0.0
  0
TEXT
  5
33D
  8
DIM
 10
475.22520473400442
 20
922.87759641767741
 30
0.0
 40
7.0
  1
(2.45")
 72
     4
 11
492.89187140067099
 21
925.87759641767752
 31
0.0
  0
TEXT
  5
33E
  8
DIM
 10
159.95605435136139
 20
1089.0142962855609
 30
0.0
 40
7.0
  1
14x9x55
 72
     4
 11
180.62272101802799
 21
1092.5142962855609
 31
0.0
  0
TEXT
  5
33F
  8
DIM
 10
129.62272101802799
 20
1077.5142962855609
 30
0.0
 40
7.0
  1
(0.55"x0.35"x2.17")
 72
     4
 11
180.62272101802799
 21
1080.5142962855609
 31
0.0
  0
TEXT
  5
340
  8
DIM
 10
171.2893876846947
 20
1065.0142962855609
 30
0.0
 40
7.0
  1
KEY
 72
     4
 11
180.62272101802799
 21
1068.5142962855609
 31
0.0
  0
SOLID
  5
341
  8
DIM
 10
114.1534890621304
 20
1043.862531609873
 30
0.0
 11
116.6901071326841
 21
1044.685137150366
 31
0.0
 12
117.8896147188878
 22
1036.663980168458
 32
0.0
 13
117.8896147188878
 23
1036.663980168458
 33
0.0
  0
LINE
  5
342
  8
DIM
 10
115.42179809740701
 20
1044.2738343801191
 30
0.0
 11
103.6692977507734
 21
1080.5142962855609
 31
0.0
  0
LINE
  5
343
  8
DIM
 10
126.1217515378336
 20
1080.5142962855609
 30
0.0
 11
103.6692977507734
 21
1080.5142962855609
 31
0.0
  0
TEXT
  5
344
  8
DIM
 10
18.329400689873971
 20
791.14650581249043
 30
0.0
 40
7.0
  1
ON %%C220 (%%c8.66") P.C.
  0
TEXT
  5
345
  8
DIM
 10
570.45349657979796
 20
838.98612773741638
 30
0.0
 40
7.0
  1
%%C500 (%%c19.69") P.C.
  0
LINE
  5
346
  8
DIM
 10
182.55907893521521
 20
1510.7258050769919
 30
0.0
 11
182.55907893521521
 21
1548.2323892938509
 31
0.0
  0
LINE
  5
347
  8
DIM
 10
122.5590789352152
 20
1510.7258050769919
 30
0.0
 11
122.5590789352152
 21
1548.2323892938509
 31
0.0
  0
LINE
  5
348
  8
DIM
 10
292.53407893521478
 20
1420.835728978175
 30
0.0
 11
292.53407893521478
 21
1548.8625229849561
 31
0.0
  0
TEXT
  5
349
  8
TXT
 10
967.16666666666663
 20
1469.909972571453
 30
0.0
 40
7.0
  1
DETAILS
 72
     4
 11
987.0
 21
1473.409972571453
 31
0.0
  0
TEXT
  5
34A
  8
TXT
 10
969.0
 20
1410.4099725714541
 30
0.0
 40
7.0
  1
8x7x55
 72
     4
 11
987.0
 21
1413.9099725714541
 31
0.0
  0
TEXT
  5
34B
  8
TXT
 10
966.33333333333326
 20
1373.309972571454
 30
0.0
 40
7.0
  1
12x8x55
 72
     4
 11
987.0
 21
1376.809972571454
 31
0.0
  0
TEXT
  5
34C
  8
TXT
 10
936.66666666666674
 20
1433.309972571454
 30
0.0
 40
7.0
  1
(0.31"x0.28"x2.17")
 72
     4
 11
987.0
 21
1436.309972571454
 31
0.0
  0
TEXT
  5
34D
  8
TXT
 10
936.66666666666674
 20
1396.209972571454
 30
0.0
 40
7.0
  1
(0.31"x0.28"x2.17")
 72
     4
 11
987.0
 21
1399.209972571454
 31
0.0
  0
TEXT
  5
34E
  8
TXT
 10
936.66666666666674
 20
1359.1099725714539
 30
0.0
 40
7.0
  1
(0.47"x0.31"x2.17")
 72
     4
 11
987.0
 21
1362.1099725714539
 31
0.0
  0
TEXT
  5
34F
  8
TXT
 10
969.0
 20
1447.509972571454
 30
0.0
 40
7.0
  1
8x7x55
 72
     4
 11
987.0
 21
1451.009972571454
 31
0.0
  0
TEXT
  5
350
  8
TXT
 10
966.33333333333326
 20
1262.009972571454
 30
0.0
 40
7.0
  1
14x9x55
 72
     4
 11
987.0
 21
1265.509972571454
 31
0.0
  0
TEXT
  5
351
  8
TXT
 10
936.0
 20
1247.809972571454
 30
0.0
 40
7.0
  1
(0.55"x0.35"x2.17")
 72
     4
 11
987.0
 21
1250.809972571454
 31
0.0
  0
TEXT
  5
352
  8
TXT
 10
936.0
 20
1284.9099725714541
 30
0.0
 40
7.0
  1
(0.55"x0.35"x2.17")
 72
     4
 11
987.0
 21
1287.9099725714541
 31
0.0
  0
TEXT
  5
353
  8
TXT
 10
966.33333333333326
 20
1299.1099725714539
 30
0.0
 40
7.0
  1
14x9x55
 72
     4
 11
987.0
 21
1302.6099725714539
 31
0.0
  0
TEXT
  5
354
  8
TXT
 10
936.66666666666674
 20
1322.009972571454
 30
0.0
 40
7.0
  1
(0.47"x0.31"x2.17")
 72
     4
 11
987.0
 21
1325.009972571454
 31
0.0
  0
TEXT
  5
355
  8
TXT
 10
966.33333333333326
 20
1336.209972571454
 30
0.0
 40
7.0
  1
12x8x55
 72
     4
 11
987.0
 21
1339.709972571454
 31
0.0
  0
LINE
  5
356
  8
DRG2
 10
322.0
 20
1239.6099725714539
 30
0.0
 11
1050.0
 21
1239.6099725714539
 31
0.0
  0
LINE
  5
357
  8
DRG2
 10
322.0
 20
1276.709972571454
 30
0.0
 11
1050.0
 21
1276.709972571454
 31
0.0
  0
LINE
  5
358
  8
DRG2
 10
322.0
 20
1521.7099725714529
 30
0.0
 11
1050.0
 21
1521.709972571454
 31
0.0
  0
LINE
  5
359
  8
DRG2
 10
322.0
 20
1499.309972571453
 30
0.0
 11
1050.0
 21
1499.309972571454
 31
0.0
  0
LINE
  5
35A
  8
DRG2
 10
322.0
 20
1425.109972571453
 30
0.0
 11
1050.0
 21
1425.1099725714539
 31
0.0
  0
LINE
  5
35B
  8
DRG2
 10
322.0
 20
1462.2099725714529
 30
0.0
 11
1050.0
 21
1462.209972571454
 31
0.0
  0
LINE
  5
35C
  8
DRG2
 10
322.0
 20
1388.009972571454
 30
0.0
 11
1050.0
 21
1388.009972571454
 31
0.0
  0
LINE
  5
35D
  8
DRG2
 10
322.0
 20
1388.009972571454
 30
0.0
 11
1050.0
 21
1388.009972571454
 31
0.0
  0
LINE
  5
35E
  8
DRG2
 10
322.0
 20
1350.9099725714541
 30
0.0
 11
1050.0
 21
1350.9099725714541
 31
0.0
  0
LINE
  5
35F
  8
DRG2
 10
322.0
 20
1313.809972571454
 30
0.0
 11
1050.0
 21
1313.809972571454
 31
0.0
  0
TEXT
  5
360
  8
TXT
 10
337.33333333333331
 20
1440.1599725714541
 30
0.0
 40
7.0
  1
ISO F14
 72
     4
 11
357.0
 21
1443.6599725714541
 31
0.0
  0
TEXT
  5
361
  8
TXT
 10
337.66666666666657
 20
1365.959972571454
 30
0.0
 40
7.0
  1
ISO F16
 72
     4
 11
357.0
 21
1369.459972571454
 31
0.0
  0
TEXT
  5
362
  8
TXT
 10
336.83333333333331
 20
1291.759972571454
 30
0.0
 40
7.0
  1
ISO F25
 72
     4
 11
357.0
 21
1295.259972571454
 31
0.0
  0
LINE
  5
363
  8
DRG2
 10
322.0
 20
1239.6099725714539
 30
0.0
 11
322.0
 21
1521.7099725714529
 31
0.0
  0
TEXT
  5
364
  8
TXT
 10
344.66666666666657
 20
1254.6599725714541
 30
0.0
 40
7.0
  1
FA25
 72
     4
 11
357.0
 21
1258.1599725714541
 31
0.0
  0
TEXT
  5
365
  8
TXT
 10
345.5
 20
1328.8599725714539
 30
0.0
 40
7.0
  1
FA16
 72
     4
 11
357.0
 21
1332.3599725714539
 31
0.0
  0
TEXT
  5
366
  8
TXT
 10
345.16666666666669
 20
1403.059972571454
 30
0.0
 40
7.0
  1
FA14
 72
     4
 11
357.0
 21
1406.559972571454
 31
0.0
  0
LINE
  5
367
  8
DRG2
 10
504.0
 20
1239.6099725714539
 30
0.0
 11
504.0
 21
1499.309972571453
 31
0.0
  0
LINE
  5
368
  8
DRG2
 10
630.0
 20
1239.6099725714539
 30
0.0
 11
630.0
 21
1499.309972571454
 31
0.0
  0
LINE
  5
369
  8
DRG2
 10
756.00000000000057
 20
1239.6099725714539
 30
0.0
 11
756.0
 21
1499.309972571453
 31
0.0
  0
LINE
  5
36A
  8
DRG2
 10
924.00000000000045
 20
1239.6099725714539
 30
0.0
 11
924.00000000000045
 21
1499.309972571453
 31
0.0
  0
TEXT
  5
36B
  8
TXT
 10
654.0
 20
1336.209972571454
 30
0.0
 40
7.0
  1
%%c126.92 +0.05
 72
     4
 11
693.0
 21
1339.709972571454
 31
0.0
  0
TEXT
  5
36C
  8
TXT
 10
530.66666666666663
 20
1336.209972571454
 30
0.0
 40
7.0
  1
%%c40.00 -0.05
 72
     4
 11
567.0
 21
1339.709972571454
 31
0.0
  0
TEXT
  5
36D
  8
TXT
 10
775.50000000000045
 20
1336.709972571454
 30
0.0
 40
7.0
  1
4 HOLES %%c20.5 (%%c0.81")
 72
     4
 11
840.00000000000034
 21
1339.709972571454
 31
0.0
  0
TEXT
  5
36E
  8
TXT
 10
411.5
 20
1336.709972571454
 30
0.0
 40
7.0
  1
%%c210 (%%c8.27")
 72
     4
 11
448.0
 21
1339.709972571454
 31
0.0
  0
LINE
  5
36F
  8
DRG2
 10
392.0
 20
1239.6099725714539
 30
0.0
 11
392.0
 21
1499.309972571453
 31
0.0
  0
TEXT
  5
370
  8
TXT
 10
639.5
 20
1247.809972571454
 30
0.0
 40
7.0
  1
(%%c5.999" +0.004") 
 72
     4
 11
693.0
 21
1250.809972571454
 31
0.0
  0
TEXT
  5
371
  8
TXT
 10
654.66666666666663
 20
1262.009972571454
 30
0.0
 40
7.0
  1
%%c152.37 +0.10
 72
     4
 11
693.0
 21
1265.509972571454
 31
0.0
  0
TEXT
  5
372
  8
TXT
 10
639.5
 20
1284.9099725714541
 30
0.0
 40
7.0
  1
(%%c7.878" +0.004") 
 72
     4
 11
693.0
 21
1287.9099725714541
 31
0.0
  0
TEXT
  5
373
  8
TXT
 10
654.66666666666663
 20
1299.1099725714539
 30
0.0
 40
7.0
  1
%%c200.10 +0.10
 72
     4
 11
693.0
 21
1302.6099725714539
 31
0.0
  0
TEXT
  5
374
  8
TXT
 10
639.5
 20
1322.009972571454
 30
0.0
 40
7.0
  1
(%%c4.997" +0.002") 
 72
     4
 11
693.0
 21
1325.009972571454
 31
0.0
  0
TEXT
  5
375
  8
TXT
 10
530.66666666666663
 20
1262.009972571454
 30
0.0
 40
7.0
  1
%%c50.00 -0.05
 72
     4
 11
567.0
 21
1265.509972571454
 31
0.0
  0
TEXT
  5
376
  8
TXT
 10
518.5
 20
1247.809972571454
 30
0.0
 40
7.0
  1
(%%c1.969" -0.002")
 72
     4
 11
567.0
 21
1250.809972571454
 31
0.0
  0
TEXT
  5
377
  8
TXT
 10
518.5
 20
1284.9099725714541
 30
0.0
 40
7.0
  1
(%%c1.969" -0.002")
 72
     4
 11
567.0
 21
1287.9099725714541
 31
0.0
  0
TEXT
  5
378
  8
TXT
 10
530.66666666666663
 20
1299.1099725714539
 30
0.0
 40
7.0
  1
%%c50.00 -0.05
 72
     4
 11
567.0
 21
1302.6099725714539
 31
0.0
  0
TEXT
  5
379
  8
TXT
 10
518.5
 20
1322.009972571454
 30
0.0
 40
7.0
  1
(%%c1.575" -0.002")
 72
     4
 11
567.0
 21
1325.009972571454
 31
0.0
  0
TEXT
  5
37A
  8
TXT
 10
414.5
 20
1247.809972571454
 30
0.0
 40
7.0
  1
x 20 (0.79")
 72
     4
 11
448.0
 21
1250.809972571454
 31
0.0
  0
TEXT
  5
37B
  8
TXT
 10
409.49999999999989
 20
1262.509972571454
 30
0.0
 40
7.0
  1
%%c300 (%%c11.81")
 72
     4
 11
448.0
 21
1265.509972571454
 31
0.0
  0
TEXT
  5
37C
  8
TXT
 10
409.49999999999989
 20
1299.6099725714539
 30
0.0
 40
7.0
  1
%%c300 (%%c11.81")
 72
     4
 11
448.0
 21
1302.6099725714539
 31
0.0
  0
TEXT
  5
37D
  8
TXT
 10
414.5
 20
1284.9099725714541
 30
0.0
 40
7.0
  1
x 20 (0.79")
 72
     4
 11
448.0
 21
1287.9099725714541
 31
0.0
  0
TEXT
  5
37E
  8
TXT
 10
414.5
 20
1322.009972571454
 30
0.0
 40
7.0
  1
x 20 (0.79")
 72
     4
 11
448.0
 21
1325.009972571454
 31
0.0
  0
TEXT
  5
37F
  8
TXT
 10
775.50000000000045
 20
1262.509972571454
 30
0.0
 40
7.0
  1
8 HOLES %%c16.5 (%%c0.65")
 72
     4
 11
840.00000000000034
 21
1265.509972571454
 31
0.0
  0
TEXT
  5
380
  8
TXT
 10
771.33333333333371
 20
1247.809972571454
 30
0.0
 40
7.0
  1
ON %%c254.0 (%%c10.00") P.C.
 72
     4
 11
840.00000000000034
 21
1250.809972571454
 31
0.0
  0
TEXT
  5
381
  8
TXT
 10
771.33333333333371
 20
1284.9099725714541
 30
0.0
 40
7.0
  1
ON %%c254.0 (%%c10.00") P.C.
 72
     4
 11
840.00000000000034
 21
1287.9099725714541
 31
0.0
  0
TEXT
  5
382
  8
TXT
 10
775.50000000000045
 20
1299.6099725714539
 30
0.0
 40
7.0
  1
8 HOLES %%c16.5 (%%c0.65")
 72
     4
 11
840.00000000000034
 21
1302.6099725714539
 31
0.0
  0
TEXT
  5
383
  8
TXT
 10
774.66666666666697
 20
1322.009972571454
 30
0.0
 40
7.0
  1
ON %%c165.0 (%%c6.50") P.C.
 72
     4
 11
840.00000000000034
 21
1325.009972571454
 31
0.0
  0
TEXT
  5
384
  8
TXT
 10
684.16666666666663
 20
1469.909972571453
 30
0.0
 40
7.0
  1
DIA.
 72
     4
 11
693.0
 21
1473.409972571453
 31
0.0
  0
TEXT
  5
385
  8
TXT
 10
674.0
 20
1484.609972571453
 30
0.0
 40
7.0
  1
RECESS
 72
     4
 11
693.0
 21
1488.109972571453
 31
0.0
  0
TEXT
  5
386
  8
TXT
 10
624.83333333333326
 20
1507.0099725714531
 30
0.0
 40
7.0
  1
INPUT FLANGE DETAILS
 72
     4
 11
686.0
 21
1510.5099725714531
 31
0.0
  0
TEXT
  5
387
  8
TXT
 10
656.66666666666663
 20
1410.4099725714541
 30
0.0
 40
7.0
  1
%%c95.27 +0.05
 72
     4
 11
693.0
 21
1413.9099725714541
 31
0.0
  0
TEXT
  5
388
  8
TXT
 10
640.16666666666663
 20
1396.209972571454
 30
0.0
 40
7.0
  1
(%%c3.751" +0.002") 
 72
     4
 11
693.0
 21
1399.209972571454
 31
0.0
  0
TEXT
  5
389
  8
TXT
 10
654.0
 20
1373.309972571454
 30
0.0
 40
7.0
  1
%%c130.05 +0.05
 72
     4
 11
693.0
 21
1376.809972571454
 31
0.0
  0
TEXT
  5
38A
  8
TXT
 10
640.16666666666663
 20
1359.1099725714539
 30
0.0
 40
7.0
  1
(%%c5.120" +0.002") 
 72
     4
 11
693.0
 21
1362.1099725714539
 31
0.0
  0
TEXT
  5
38B
  8
TXT
 10
639.5
 20
1433.309972571454
 30
0.0
 40
7.0
  1
(%%c3.939" +0.002") 
 72
     4
 11
693.0
 21
1436.309972571454
 31
0.0
  0
TEXT
  5
38C
  8
TXT
 10
654.0
 20
1447.509972571454
 30
0.0
 40
7.0
  1
%%c100.05 +0.05
 72
     4
 11
693.0
 21
1451.009972571454
 31
0.0
  0
TEXT
  5
38D
  8
TXT
 10
530.66666666666663
 20
1410.4099725714541
 30
0.0
 40
7.0
  1
%%c30.00 -0.05
 72
     4
 11
567.0
 21
1413.9099725714541
 31
0.0
  0
TEXT
  5
38E
  8
TXT
 10
530.66666666666663
 20
1373.309972571454
 30
0.0
 40
7.0
  1
%%c40.00 -0.05
 72
     4
 11
567.0
 21
1376.809972571454
 31
0.0
  0
TEXT
  5
38F
  8
TXT
 10
530.66666666666663
 20
1447.509972571454
 30
0.0
 40
7.0
  1
%%c30.00 -0.05
 72
     4
 11
567.0
 21
1451.009972571454
 31
0.0
  0
TEXT
  5
390
  8
TXT
 10
519.83333333333314
 20
1396.209972571454
 30
0.0
 40
7.0
  1
(%%c1.181" -0.002")
 72
     4
 11
567.0
 21
1399.209972571454
 31
0.0
  0
TEXT
  5
391
  8
TXT
 10
518.5
 20
1359.1099725714539
 30
0.0
 40
7.0
  1
(%%c1.575" -0.002")
 72
     4
 11
567.0
 21
1362.1099725714539
 31
0.0
  0
TEXT
  5
392
  8
TXT
 10
519.83333333333314
 20
1433.309972571454
 30
0.0
 40
7.0
  1
(%%c1.181" -0.002")
 72
     4
 11
567.0
 21
1436.309972571454
 31
0.0
  0
TEXT
  5
393
  8
TXT
 10
411.5
 20
1448.009972571454
 30
0.0
 40
7.0
  1
%%c175 (%%c6.89")
 72
     4
 11
448.0
 21
1451.009972571454
 31
0.0
  0
TEXT
  5
394
  8
TXT
 10
411.5
 20
1410.9099725714541
 30
0.0
 40
7.0
  1
%%c175 (%%c6.89")
 72
     4
 11
448.0
 21
1413.9099725714541
 31
0.0
  0
TEXT
  5
395
  8
TXT
 10
415.16666666666669
 20
1396.209972571454
 30
0.0
 40
7.0
  1
x 15 (0.59")
 72
     4
 11
448.0
 21
1399.209972571454
 31
0.0
  0
TEXT
  5
396
  8
TXT
 10
411.5
 20
1373.809972571454
 30
0.0
 40
7.0
  1
%%c210 (%%c8.27")
 72
     4
 11
448.0
 21
1376.809972571454
 31
0.0
  0
TEXT
  5
397
  8
TXT
 10
414.5
 20
1359.1099725714539
 30
0.0
 40
7.0
  1
x 20 (0.79")
 72
     4
 11
448.0
 21
1362.1099725714539
 31
0.0
  0
TEXT
  5
398
  8
TXT
 10
415.16666666666669
 20
1433.309972571454
 30
0.0
 40
7.0
  1
x 15 (0.59")
 72
     4
 11
448.0
 21
1436.309972571454
 31
0.0
  0
TEXT
  5
399
  8
TXT
 10
413.0
 20
1469.909972571453
 30
0.0
 40
7.0
  1
& THICKNESS
 72
     4
 11
448.0
 21
1473.409972571453
 31
0.0
  0
TEXT
  5
39A
  8
TXT
 10
408.8333333333332
 20
1485.109972571453
 30
0.0
 40
7.0
  1
FLANGE O/DIA.
 72
     4
 11
448.0
 21
1488.109972571453
 31
0.0
  0
TEXT
  5
39B
  8
TXT
 10
558.16666666666663
 20
1469.909972571453
 30
0.0
 40
7.0
  1
DIA.
 72
     4
 11
567.0
 21
1473.409972571453
 31
0.0
  0
TEXT
  5
39C
  8
TXT
 10
551.0
 20
1484.609972571453
 30
0.0
 40
7.0
  1
SHAFT
 72
     4
 11
567.0
 21
1488.109972571453
 31
0.0
  0
TEXT
  5
39D
  8
TXT
 10
800.33333333333394
 20
1470.409972571453
 30
0.0
 40
7.0
  1
(OFF CENTRES)
 72
     4
 11
840.00000000000034
 21
1473.409972571453
 31
0.0
  0
TEXT
  5
39E
  8
TXT
 10
803.66666666666697
 20
1484.609972571453
 30
0.0
 40
7.0
  1
HOLE DETAILS
 72
     4
 11
840.00000000000034
 21
1488.109972571453
 31
0.0
  0
TEXT
  5
39F
  8
TXT
 10
775.33333333333371
 20
1433.309972571454
 30
0.0
 40
7.0
  1
ON %%c140.0 (%%c5.51") P.C.
 72
     4
 11
840.00000000000034
 21
1436.309972571454
 31
0.0
  0
TEXT
  5
3A0
  8
TXT
 10
775.33333333333371
 20
1396.209972571454
 30
0.0
 40
7.0
  1
ON %%c140.0 (%%c5.51") P.C.
 72
     4
 11
840.00000000000034
 21
1399.209972571454
 31
0.0
  0
TEXT
  5
3A1
  8
TXT
 10
774.66666666666697
 20
1359.1099725714539
 30
0.0
 40
7.0
  1
ON %%c165.0 (%%c6.50") P.C.
 72
     4
 11
840.00000000000034
 21
1362.1099725714539
 31
0.0
  0
TEXT
  5
3A2
  8
TXT
 10
775.50000000000045
 20
1373.809972571454
 30
0.0
 40
7.0
  1
4 HOLES %%c20.5 (%%c0.81")
 72
     4
 11
840.00000000000034
 21
1376.809972571454
 31
0.0
  0
TEXT
  5
3A3
  8
TXT
 10
775.50000000000045
 20
1410.9099725714541
 30
0.0
 40
7.0
  1
4 HOLES %%c16.5 (%%c0.65")
 72
     4
 11
840.00000000000034
 21
1413.9099725714541
 31
0.0
  0
TEXT
  5
3A4
  8
TXT
 10
775.50000000000045
 20
1448.009972571454
 30
0.0
 40
7.0
  1
4 HOLES %%c16.5 (%%c0.65")
 72
     4
 11
840.00000000000034
 21
1451.009972571454
 31
0.0
  0
TEXT
  5
3A5
  8
TXT
 10
977.66666666666674
 20
1484.609972571453
 30
0.0
 40
7.0
  1
KEY
 72
     4
 11
987.0
 21
1488.109972571453
 31
0.0
  0
LINE
  5
3A6
  8
DRG2
 10
1050.0
 20
1239.6099725714539
 30
0.0
 11
1050.0
 21
1521.709972571454
 31
0.0
  0
TEXT
  5
3A7
  8
TXT
 10
682.54893938085843
 20
170.86814352385619
 30
0.0
 40
7.0
  1
(%%c6.996" -0.002") 
 72
     4
 11
736.04893938085843
 21
173.86814352385619
 31
0.0
  0
TEXT
  5
3A8
  8
TXT
 10
697.04893938085843
 20
185.06814352385621
 30
0.0
 40
7.0
  1
%%c177.70 -0.05
 72
     4
 11
736.04893938085843
 21
188.56814352385609
 31
0.0
  0
TEXT
  5
3A9
  8
TXT
 10
682.54893938085843
 20
207.9681435238561
 30
0.0
 40
7.0
  1
(%%c9.053" -0.002") 
 72
     4
 11
736.04893938085843
 21
210.9681435238561
 31
0.0
  0
TEXT
  5
3AA
  8
TXT
 10
696.38227271419169
 20
222.16814352385609
 30
0.0
 40
7.0
  1
%%c229.95 -0.05
 72
     4
 11
736.04893938085843
 21
225.66814352385609
 31
0.0
  0
TEXT
  5
3AB
  8
TXT
 10
705.71560604752494
 20
244.56814352385621
 30
0.0
 40
7.0
  1
SPIGOT DIA.
 72
     4
 11
736.04893938085843
 21
248.06814352385621
 31
0.0
  0
LINE
  5
3AC
  8
DRG2
 10
596.04893938085843
 20
281.6681435238562
 30
0.0
 11
1016.048939380857
 21
281.6681435238562
 31
0.0
  0
LINE
  5
3AD
  8
DRG2
 10
596.04893938085843
 20
162.6681435238562
 30
0.0
 11
1016.048939380857
 21
162.6681435238562
 31
0.0
  0
LINE
  5
3AE
  8
DRG2
 10
596.04893938085843
 20
199.76814352385611
 30
0.0
 11
1016.048939380857
 21
199.76814352385611
 31
0.0
  0
LINE
  5
3AF
  8
DRG2
 10
596.04893938085843
 20
236.86814352385611
 30
0.0
 11
1016.048939380857
 21
236.86814352385611
 31
0.0
  0
LINE
  5
3B0
  8
DRG2
 10
596.04893938085843
 20
259.26814352385622
 30
0.0
 11
1016.048939380857
 21
259.26814352385622
 31
0.0
  0
LINE
  5
3B1
  8
DRG2
 10
666.04893938085843
 20
162.66814352385629
 30
0.0
 11
666.04893938085843
 21
259.26814352385622
 31
0.0
  0
LINE
  5
3B2
  8
DRG2
 10
596.04893938085843
 20
162.6681435238562
 30
0.0
 11
596.04893938085843
 21
281.6681435238562
 31
0.0
  0
TEXT
  5
3B3
  8
TXT
 10
618.71560604752494
 20
177.71814352385621
 30
0.0
 40
7.0
  1
FA30
 72
     4
 11
631.04893938085843
 21
181.2181435238561
 31
0.0
  0
TEXT
  5
3B4
  8
TXT
 10
610.8822727141918
 20
214.81814352385621
 30
0.0
 40
7.0
  1
ISO F30
 72
     4
 11
631.04893938085843
 21
218.31814352385621
 31
0.0
  0
TEXT
  5
3B5
  8
TXT
 10
843.04893938085741
 20
170.86814352385619
 30
0.0
 40
7.0
  1
ON %%c298.5 (%%c11.75") P.C.
 72
     4
 11
911.04893938085763
 21
173.86814352385619
 31
0.0
  0
TEXT
  5
3B6
  8
TXT
 10
814.21560604752415
 20
185.56814352385621
 30
0.0
 40
7.0
  1
8 HOLES 3/4"UNCx25 (0.98") DEEP
 72
     4
 11
911.04893938085763
 21
188.56814352385609
 31
0.0
  0
TEXT
  5
3B7
  8
TXT
 10
843.04893938085741
 20
207.9681435238561
 30
0.0
 40
7.0
  1
ON %%c298.0 (%%c11.73") P.C.
 72
     4
 11
911.04893938085763
 21
210.9681435238561
 31
0.0
  0
TEXT
  5
3B8
  8
TXT
 10
827.21560604752415
 20
222.66814352385609
 30
0.0
 40
7.0
  1
8 HOLES M20x25 (0.98") DEEP
 72
     4
 11
911.04893938085763
 21
225.66814352385609
 31
0.0
  0
TEXT
  5
3B9
  8
TXT
 10
814.71560604752415
 20
245.06814352385609
 30
0.0
 40
7.0
  1
HOLE DETAILS (22.5%%d OFF CENTRES)
 72
     4
 11
911.04893938085763
 21
248.06814352385621
 31
0.0
  0
LINE
  5
3BA
  8
DRG2
 10
806.04893938085843
 20
162.6681435238564
 30
0.0
 11
806.04893938085843
 21
259.26814352385622
 31
0.0
  0
TEXT
  5
3BB
  8
TXT
 10
753.21560604752415
 20
266.9681435238561
 30
0.0
 40
7.0
  1
BASEPLATE DETAILS
 72
     4
 11
806.04893938085752
 21
270.4681435238561
 31
0.0
  0
LINE
  5
3BC
  8
DRG2
 10
1016.048939380857
 20
162.6681435238566
 30
0.0
 11
1016.048939380857
 21
281.66814352385649
 31
0.0
  0
INSERT
  5
5B5
  8
0
  2
ROTORK_GEARS_LOGO
 10
-0.9412803430048199
 20
30.383146114195849
 30
0.0
 41
1.050000000000014
 42
1.0500000000000109
 43
1.05
  0
VIEWPORT
  5
30
 67
     1
  8
0
 10
210.00000022409631
 20
152.0942409999999
 30
0.0
 40
420.00000044819268
 41
304.18848199999991
 68
     1
 69
     1
1001
ACAD
1000
MVIEW
1002
{
1070
    16
1010
0.0
1020
0.0
1030
0.0
1010
0.0
1020
0.0
1030
1.0
1040
0.0
1040
304.18848199999991
1040
210.00000022409631
1040
152.0942409999999
1040
50.0
1040
0.0
1040
0.0
1070
     0
1070
  2000
1070
     1
1070
     1
1070
     1
1070
     0
1070
     0
1070
     1
1040
0.0
1040
0.0
1040
0.0
1040
5.0
1040
5.0
1040
10.0
1040
10.0
1070
     0
1002
{
1002
}
1002
}
  0
ENDSEC
  0
EOF
