  0
SECTION
  2
HEADER
  9
$ACADVER
  1
AC1009
  9
$INSBASE
 10
10.0
 20
14.0
 30
0.0
  9
$EXTMIN
 10
0.0
 20
181.27661262712559
 30
0.0
  9
$EXTMAX
 10
1720.6451614324869
 20
2312.6371460557812
 30
3.6000000000000001
  9
$LIMMIN
 10
0.0
 20
0.0
  9
$LIMMAX
 10
1525.0
 20
2200.0
  9
$ORTHOMODE
 70
     0
  9
$REGENMODE
 70
     1
  9
$FILLMODE
 70
     1
  9
$QTEXTMODE
 70
     0
  9
$MIRRTEXT
 70
     0
  9
$DRAGMODE
 70
     2
  9
$LTSCALE
 40
2.0
  9
$OSMODE
 70
    47
  9
$ATTMODE
 70
     1
  9
$TEXTSIZE
 40
10.0
  9
$TRACEWID
 40
10.0
  9
$TEXTSTYLE
  7
STANDARD
  9
$CLAYER
  8
DIM
  9
$CELTYPE
  6
BYLAYER
  9
$CECOLOR
 62
   256
  9
$DIMSCALE
 40
2.0
  9
$DIMASZ
 40
6.0
  9
$DIMEXO
 40
5.0
  9
$DIMDLI
 40
10.0
  9
$DIMRND
 40
0.0
  9
$DIMDLE
 40
1.25
  9
$DIMEXE
 40
2.0
  9
$DIMTP
 40
0.0
  9
$DIMTM
 40
0.0
  9
$DIMTXT
 40
5.0
  9
$DIMCEN
 40
-3.0
  9
$DIMTSZ
 40
0.0
  9
$DIMTOL
 70
     0
  9
$DIMLIM
 70
     0
  9
$DIMTIH
 70
     0
  9
$DIMTOH
 70
     0
  9
$DIMSE1
 70
     0
  9
$DIMSE2
 70
     0
  9
$DIMTAD
 70
     0
  9
$DIMZIN
 70
     0
  9
$DIMBLK
  1

  9
$DIMASO
 70
     0
  9
$DIMSHO
 70
     0
  9
$DIMPOST
  1

  9
$DIMAPOST
  1

  9
$DIMALT
 70
     0
  9
$DIMALTD
 70
     2
  9
$DIMALTF
 40
0.039
  9
$DIMLFAC
 40
1.0
  9
$DIMTOFL
 70
     0
  9
$DIMTVP
 40
1.1424000000000001
  9
$DIMTIX
 70
     0
  9
$DIMSOXD
 70
     0
  9
$DIMSAH
 70
     0
  9
$DIMBLK1
  1

  9
$DIMBLK2
  1

  9
$DIMSTYLE
  2
STD
  9
$DIMCLRD
 70
   256
  9
$DIMCLRE
 70
   256
  9
$DIMCLRT
 70
   256
  9
$DIMTFAC
 40
0.75
  9
$DIMGAP
 40
1.5
  9
$LUNITS
 70
     2
  9
$LUPREC
 70
     2
  9
$SKETCHINC
 40
1.0
  9
$FILLETRAD
 40
0.0
  9
$AUNITS
 70
     0
  9
$AUPREC
 70
     2
  9
$MENU
  1
ACAD
  9
$ELEVATION
 40
0.0
  9
$PELEVATION
 40
0.0
  9
$THICKNESS
 40
0.0
  9
$LIMCHECK
 70
     0
  9
$BLIPMODE
 70
     0
  9
$CHAMFERA
 40
0.0
  9
$CHAMFERB
 40
0.0
  9
$SKPOLY
 70
     1
  9
$TDCREATE
 40
2449751.6550601851
  9
$TDUPDATE
 40
2452817.467535798
  9
$TDINDWG
 40
0.377026331
  9
$TDUSRTIMER
 40
0.377026331
  9
$USRTIMER
 70
     1
  9
$ANGBASE
 50
0.0
  9
$ANGDIR
 70
     0
  9
$PDMODE
 70
     3
  9
$PDSIZE
 40
0.0
  9
$PLINEWID
 40
0.0
  9
$COORDS
 70
     1
  9
$SPLFRAME
 70
     0
  9
$SPLINETYPE
 70
     6
  9
$SPLINESEGS
 70
     6
  9
$ATTDIA
 70
     0
  9
$ATTREQ
 70
     1
  9
$HANDLING
 70
  4097
  9
$HANDSEED
  5
7BA
  9
$SURFTAB1
 70
    18
  9
$SURFTAB2
 70
    18
  9
$SURFTYPE
 70
     6
  9
$SURFU
 70
    18
  9
$SURFV
 70
    18
  9
$UCSNAME
  2

  9
$UCSORG
 10
0.0
 20
0.0
 30
0.0
  9
$UCSXDIR
 10
1.0
 20
0.0
 30
0.0
  9
$UCSYDIR
 10
0.0
 20
1.0
 30
0.0
  9
$PUCSNAME
  2

  9
$PUCSORG
 10
0.0
 20
0.0
 30
0.0
  9
$PUCSXDIR
 10
1.0
 20
0.0
 30
0.0
  9
$PUCSYDIR
 10
0.0
 20
1.0
 30
0.0
  9
$USERI1
 70
     0
  9
$USERI2
 70
     0
  9
$USERI3
 70
     0
  9
$USERI4
 70
     0
  9
$USERI5
 70
     0
  9
$USERR1
 40
0.0
  9
$USERR2
 40
0.0
  9
$USERR3
 40
0.0
  9
$USERR4
 40
0.0
  9
$USERR5
 40
0.0
  9
$WORLDVIEW
 70
     0
  9
$SHADEDGE
 70
     3
  9
$SHADEDIF
 70
    70
  9
$TILEMODE
 70
     1
  9
$MAXACTVP
 70
    16
  9
$PLIMCHECK
 70
     0
  9
$PEXTMIN
 10
1.0000000000000000E+020
 20
1.0000000000000000E+020
 30
1.0000000000000000E+020
  9
$PEXTMAX
 10
-1.0000000000000000E+020
 20
-1.0000000000000000E+020
 30
-1.0000000000000000E+020
  9
$PLIMMIN
 10
0.0
 20
0.0
  9
$PLIMMAX
 10
420.0
 20
297.0
  9
$UNITMODE
 70
     0
  9
$VISRETAIN
 70
     0
  9
$PLINEGEN
 70
     0
  9
$PSLTSCALE
 70
     0
  0
ENDSEC
  0
SECTION
  2
TABLES
  0
TABLE
  2
VPORT
 70
     2
  0
VPORT
  2
*ACTIVE
 70
     0
 10
0.0
 20
0.0
 11
1.0
 21
1.0
 12
-1021.441416383403
 22
-464.7721330555346
 13
0.0
 23
0.0
 14
5.0
 24
5.0
 15
50.0
 25
50.0
 16
0.0
 26
0.0
 36
1.0
 17
2269.0407461565928
 27
1711.730816310074
 37
0.0
 40
2148.6820639701641
 41
1.7512195121951211
 42
50.0
 43
0.0
 44
0.0
 50
0.0
 51
0.0
 71
     0
 72
  2000
 73
     1
 74
     2
 75
     0
 76
     0
 77
     0
 78
     1
  0
ENDTAB
  0
TABLE
  2
LTYPE
 70
    13
  0
LTYPE
  2
CONTINUOUS
 70
     0
  3
Solid line
 72
    65
 73
     0
 40
0.0
  0
LTYPE
  2
CENTER
 70
     0
  3
____ _ ____ _ ____ _ ____ _ ____ _ ____ _ ____ 
 72
    65
 73
     4
 40
50.0
 49
31.25
 49
-6.25
 49
6.25
 49
-6.25
  0
LTYPE
  2
HIDDEN
 70
     0
  3
_ _ _ _ _ _ _ _ _ _ _ _ _ _ _ _ _ _ _ _ _ _ _ _
 72
    65
 73
     2
 40
9.375
 49
6.25
 49
-3.125
  0
LTYPE
  2
PHANTOM2
 70
     0
  3
Phantom (.5x) ___ _ _ ___ _ _ ___ _ _ ___ _ _
 72
    65
 73
     6
 40
1.25
 49
0.625
 49
-0.125
 49
0.125
 49
-0.125
 49
0.125
 49
-0.125
  0
LTYPE
  2
ASULTYPE
 70
     0
  3
Solid line
 72
    65
 73
     2
 40
3.0
 49
2.5
 49
0.5
  0
LTYPE
  2
ASVLTYPE
 70
     0
  3
__ __ __ __ __ __ __ __ __ __ __ __ __ __ __ __ __ __ __ __ __
 72
    65
 73
     2
 40
0.75
 49
0.5
 49
-0.25
  0
LTYPE
  2
AM_ISO02W050
 70
     0
  3
__ __ __ __ __ __ __ __ __ __ __ __ __ __ __
 72
    65
 73
     2
 40
7.5
 49
6.0
 49
-1.5
  0
LTYPE
  2
AM_ISO08W050
 70
     0
  3
____ . ____ . ____ . ____ . ____ . ____ . ____
 72
    65
 73
     4
 40
18.0
 49
12.0
 49
-1.5
 49
3.0
 49
-1.5
  0
LTYPE
  2
AM_ISO09W050
 70
     0
  3
_____ . . _____ . . _____ . . ____ .. ____
 72
    65
 73
     6
 40
22.5
 49
12.0
 49
-1.5
 49
3.0
 49
-1.5
 49
3.0
 49
-1.5
  0
LTYPE
  2
AMCONSTR
 70
     0
  3
_______________________
 72
    65
 73
     2
 40
9999.0
 49
9999.0
 49
0.0
  0
LTYPE
  2
AM_ISO08W050X2
 70
     0
  3
__ . __ . __ . __ . __ . __
 72
    65
 73
     4
 40
9.0
 49
6.0
 49
-0.75
 49
1.5
 49
-0.75
  0
LTYPE
  2
AM_ISO02W050X2
 70
     0
  3
 _ _ _ _ _ _ _ _ _ _ _ _
 72
    65
 73
     2
 40
3.75
 49
3.0
 49
-0.75
  0
LTYPE
  2
AMZIGZAG
 70
     0
  3
/\/-/\/-/\/-/\/-/\/-/\/
 72
    65
 73
     2
 40
11.000099999999991
 49
0.0001
 49
-11.0
  0
ENDTAB
  0
TABLE
  2
LAYER
 70
     8
  0
LAYER
  2
0
 70
     0
 62
     7
  6
CONTINUOUS
  0
LAYER
  2
BORT
 70
     0
 62
     7
  6
CONTINUOUS
  0
LAYER
  2
DRG
 70
     0
 62
     1
  6
CONTINUOUS
  0
LAYER
  2
CRS
 70
     0
 62
     3
  6
CENTER
  0
LAYER
  2
HID
 70
     0
 62
     6
  6
HIDDEN
  0
LAYER
  2
DRG2
 70
     0
 62
     8
  6
CONTINUOUS
  0
LAYER
  2
DIM
 70
     0
 62
     2
  6
CONTINUOUS
  0
LAYER
  2
TXT
 70
     0
 62
     4
  6
CONTINUOUS
  0
ENDTAB
  0
TABLE
  2
STYLE
 70
     2
  0
STYLE
  2
STANDARD
 70
     0
 40
0.0
 41
1.0
 50
0.0
 71
     0
 42
10.0
  3
SIMPLEX
  4

  0
STYLE
  2

 70
     1
 40
0.0
 41
1.0
 50
0.0
 71
     0
 42
10.0
  3
ltypeshp.shx
  4

  0
ENDTAB
  0
TABLE
  2
VIEW
 70
     0
  0
ENDTAB
  0
TABLE
  2
UCS
 70
     0
  0
ENDTAB
  0
TABLE
  2
APPID
 70
    12
  0
APPID
  2
ACAD
 70
     0
  0
APPID
  2
GENIUS_GENDIM_13
 70
     0
  0
APPID
  2
GENIUS_GENDTOL_13
 70
     0
  0
APPID
  2
GENIUS_GE3DTOL_13
 70
     0
  0
APPID
  2
MCAD_NO_VIS
 70
     0
  0
APPID
  2
ACAD_TEMP_GRAPHIC
 70
     0
  0
APPID
  2
AD_DRAW
 70
     0
  0
APPID
  2
ACATTRIBSERVICES
 70
     0
  0
APPID
  2
ASURF_PCURVE_APPNAME
 70
     0
  0
APPID
  2
DESIGNERASSEMBLIES
 70
     0
  0
APPID
  2
ACADM_DIM_EDIT
 70
     0
  0
APPID
  2
CONTENTBLOCKICON
 70
     0
  0
ENDTAB
  0
TABLE
  2
DIMSTYLE
 70
     1
  0
DIMSTYLE
  2
STD
 70
     0
  3

  4

  5

  6

  7

 40
2.0
 41
6.0
 42
5.0
 43
10.0
 44
2.0
 45
0.0
 46
1.25
 47
0.0
 48
0.0
140
5.0
141
-3.0
142
0.0
143
0.039
144
1.0
145
1.1424000000000001
146
0.75
147
1.5
 71
     0
 72
     0
 73
     0
 74
     0
 75
     0
 76
     0
 77
     0
 78
     0
170
     0
171
     2
172
     0
173
     0
174
     0
175
     0
176
   256
177
   256
178
   256
  0
ENDTAB
  0
ENDSEC
  0
SECTION
  2
BLOCKS
  0
BLOCK
  8
0
  2
$MODEL_SPACE
 70
     0
 10
0.0
 20
0.0
 30
0.0
  3
$MODEL_SPACE
  1

  0
ENDBLK
  5
442
  8
0
  0
BLOCK
 67
     1
  8
0
  2
$PAPER_SPACE
 70
     0
 10
0.0
 20
0.0
 30
0.0
  3
$PAPER_SPACE
  1

  0
ENDBLK
  5
440
 67
     1
  8
0
  0
BLOCK
  8
0
  2
*U0
 70
     1
 10
0.0
 20
0.0
 30
0.0
  3
*U0
  1

  0
ENDBLK
  5
4F8
  8
0
  0
BLOCK
  8
0
  2
LOGO
 70
     0
 10
0.0
 20
0.0
 30
0.0
  3
LOGO
  1

  0
INSERT
  5
523
  8
DRG
  6
CONTINUOUS
 62
     7
  2
*U3
 10
0.0
 20
0.0
 30
0.0
1001
ACAD
1002
{
1000
R14_HATCH_DATA
1000
523
1011
1.0
1021
0.0
1031
0.0
1021
0.0
1031
0.0
1011
0.0
1021
0.0
1031
0.0
1021
1.0
1031
0.0
1011
0.0
1021
0.0
1031
0.0
1021
0.0
1031
1.0
1040
0.0
1010
0.0
1020
0.0
1030
1.0
1000
SOLID
1070
     1
1070
     1
1071
       17
1071
        7
1070
     1
1070
     1
1071
        9
1040
18.821661727211438
1040
85.569427875032716
1040
-0.4142135623730951
1040
26.821661727211438
1040
93.569427875032716
1040
0.0
1040
28.191279411133561
1040
93.56942787503273
1040
0.0
1040
28.191279411133561
1040
102.0369718403326
1040
0.2674368359602434
1040
18.821661727211438
1040
97.915857504065912
1040
0.0
1040
18.821661727211438
1040
102.0369718403326
1040
0.0
1040
7.7802673214059723
1040
102.0369718403326
1040
0.0
1040
7.7802673214059723
1040
62.115696081838671
1040
0.0
1040
18.821661727211438
1040
62.115696081838678
1040
0.0
1071
        9
1005
546
1005
54D
1005
54C
1005
54B
1005
54A
1005
545
1005
535
1005
537
1005
533
1071
        7
1070
     1
1070
     1
1071
        8
1040
29.838142899665851
1040
72.897331735467191
1040
0.4142135623730863
1040
41.838142899665847
1040
60.89733173546756
1040
0.0
1040
47.650196927116667
1040
60.89733173546756
1040
0.4142126981028046
1040
59.650196927064421
1040
72.897296325816569
1040
0.0348233422700972
1040
59.650196927064421
1040
90.096337111694368
1040
0.4142126981028142
1040
47.650196927116667
1040
102.0963017020437
1040
0.0
1040
41.838142899665847
1040
102.0963017020437
1040
0.4142135623730893
1040
29.838142899665851
1040
90.096301702044016
1040
0.0348231985322414
1071
        8
1005
527
1005
54E
1005
549
1005
548
1005
534
1005
544
1005
526
1005
585
1071
       22
1070
     1
1070
     1
1071
        4
1040
40.882971825549703
1040
90.337990088334166
1040
-1.0
1040
48.605370470334492
1040
90.337990088334735
1040
-0.0248818291691539
1040
48.605370470334492
1040
72.655643349175492
1040
-1.0
1040
40.882971825549703
1040
72.655643349177595
1040
-0.0248818291691501
1071
        4
1005
529
1005
584
1005
528
1005
547
1071
        7
1070
     1
1070
     1
1071
       18
1040
67.331191210151701
1040
68.89733173546756
1040
0.4142135623730951
1040
75.331191210151701
1040
60.89733173546756
1040
0.0
1040
80.675802928262684
1040
60.89733173546756
1040
0.1450058980834471
1040
84.501142256151084
1040
62.072518178885289
1040
0.0
1040
84.501142256151084
1040
70.214764581409185
1040
-0.0833071563303517
1040
83.501142256151255
1040
69.876055965300111
1040
0.0
1040
80.482556033578916
1040
69.876055965300111
1040
-0.4142135623730951
1040
77.482556033578931
1040
72.876055965300111
1040
0.0
1040
77.482556033578931
1040
94.593352860836134
1040
0.0
1040
84.553623006881026
1040
94.593352860836134
1040
0.0
1040
84.553623006881026
1040
101.9948050433795
1040
0.0
1040
77.482556033578931
1040
101.9948050433795
1040
0.0
1040
77.482556033578931
1040
107.1280725498991
1040
0.0
1040
67.331191210151701
1040
107.1280725498991
1040
0.0
1040
67.331191210151701
1040
101.9948050433795
1040
0.0
1040
62.478989637268562
1040
101.9948050433795
1040
0.0
1040
62.478989637268569
1040
94.593352860836134
1040
0.0
1040
67.331191210151687
1040
94.593352860836134
1040
0.0
1071
       18
1005
582
1005
596
1005
583
1005
58E
1005
58C
1005
58D
1005
589
1005
58B
1005
58A
1005
586
1005
558
1005
56C
1005
55B
1005
559
1005
593
1005
581
1005
588
1005
587
1071
        7
1070
     1
1070
     1
1071
        8
1040
85.849782736700035
1040
72.897331735467475
1040
0.4142135623730931
1040
97.849782736700035
1040
60.89733173546756
1040
0.0
1040
103.66183676415081
1040
60.89733173546756
1040
0.4142126981028048
1040
115.6618367640986
1040
72.897296325816569
1040
0.0348233422700971
1040
115.6618367640986
1040
90.096337111694325
1040
0.4142126981028151
1040
103.66183676415081
1040
102.0963017020437
1040
0.0
1040
97.849782736700035
1040
102.0963017020437
1040
0.4142135623730893
1040
85.849782736700035
1040
90.096301702044016
1040
0.0348231985322409
1071
        8
1005
557
1005
597
1005
595
1005
591
1005
55A
1005
580
1005
556
1005
5BE
1071
       22
1070
     1
1070
     1
1071
        4
1040
96.894611662583884
1040
90.337990088335033
1040
-1.0
1040
104.6170103073686
1040
90.337990088334763
1040
-0.0248818291691539
1040
104.6170103073686
1040
72.655643349175506
1040
-1.0
1040
96.894611662583884
1040
72.655643349177595
1040
-0.0248818291691514
1071
        4
1005
594
1005
58F
1005
592
1005
590
1071
        7
1070
     1
1070
     1
1071
        9
1040
119.0096173095521
1040
62.115696081838678
1040
0.0
1040
130.05101171535759
1040
62.115696081838671
1040
0.0
1040
130.05101171535759
1040
85.569427875032716
1040
-0.4142135623730946
1040
138.05101171535759
1040
93.569427875032716
1040
0.0
1040
139.4206293992797
1040
93.56942787503273
1040
0.0
1040
139.4206293992797
1040
102.0369718403325
1040
0.2674368359602435
1040
130.05101171535759
1040
97.915857504065855
1040
0.0
1040
130.05101171535759
1040
102.0369718403326
1040
0.0
1040
119.0096173095521
1040
102.0369718403326
1040
0.0
1071
        9
1005
5BD
1005
5C3
1005
5C2
1005
5BF
1005
5C1
1005
5C0
1005
599
1005
5A8
1005
598
1071
        7
1070
     0
1070
     1
1071
        4
1040
153.2899770207527
1040
102.0369718403326
1040
142.11987082690661
1040
102.0369718403326
1040
142.11987082690661
1040
62.115696081838678
1040
153.2899770207527
1040
62.115696081838678
1071
        4
1005
5BC
1005
59D
1005
5A1
1005
59C
1071
        7
1070
     0
1070
     1
1071
        9
1040
161.3332883364622
1040
62.115696081838678
1040
171.78072804963571
1040
62.115696081838678
1040
165.4162645291251
1040
78.311404477182364
1040
176.9709164189357
1040
78.31140447718235
1040
176.9709164189357
1040
86.855763084496857
1040
165.4162645291251
1040
86.855763084496886
1040
171.38205787173379
1040
102.0369718403326
1040
160.9346181585602
1040
102.0369718403326
1040
153.2899770207527
1040
82.583583780839575
1071
        9
1005
5C9
1005
5C8
1005
5C7
1005
5C4
1005
59B
1005
5B7
1005
59A
1005
5C6
1005
5C5
1071
        7
1070
     1
1070
     1
1071
       21
1040
152.52515784094209
1040
47.648154099737518
1040
-0.8501159182110916
1040
160.04745823702251
1040
46.421288526219293
1040
0.0
1040
160.04745823702251
1040
45.21828747592599
1040
0.0
1040
171.0912486890569
1040
45.21828747592599
1040
0.4103700463812956
1040
159.0922846938046
1040
57.06060729124669
1040
0.0
1040
153.28023066635379
1040
57.06060729124669
1040
0.3231315706904765
1040
141.8917942032017
1040
48.84260609145101
1040
0.1954153765693974
1040
142.3184035466634
1040
43.115005509834923
1040
0.2113556324406552
1040
155.72873071743231
1040
33.145354604103439
1040
-0.2264685134690167
1040
160.04745823702251
1040
29.300230626583549
1040
0.0
1040
160.04745823702251
1040
27.619948938379359
1040
-1.0
1040
152.32505959223769
1040
27.619948938379359
1040
0.0
1040
152.32505959223769
1040
29.959298931438969
1040
0.0
1040
141.28023066635379
1040
29.95929893143898
1040
0.0
1040
141.28023066635379
1040
27.861637324670479
1040
0.4142135623730951
1040
153.28023066635379
1040
15.861637324670481
1040
0.0
1040
159.0922846938046
1040
15.861637324670481
1040
0.4142135623730951
1040
171.0922846938046
1040
27.861637324670479
1040
0.0
1040
171.0922846938046
1040
29.95929893143904
1040
0.3201720163042325
1040
161.4128172083947
1040
39.98989916707626
1040
-0.1549843570040388
1040
153.4809683549079
1040
44.585756161105429
1040
-0.2969707756967668
1071
       21
1005
5B8
1005
5BA
1005
5B5
1005
5B6
1005
5BB
1005
5A0
1005
5AD
1005
59E
1005
5B3
1005
5B0
1005
5B2
1005
5B1
1005
59F
1005
5A5
1005
550
1005
554
1005
551
1005
5B4
1005
5AF
1005
5AE
1005
5B9
1071
        7
1070
     1
1070
     1
1071
        9
1040
116.19314081319391
1040
17.28637227261407
1040
0.0
1040
127.2345352189994
1040
17.28637227261407
1040
0.0
1040
127.2345352189994
1040
40.740104065808097
1040
-0.4142135623730953
1040
135.23453521899941
1040
48.740104065808111
1040
0.0
1040
136.6041529029215
1040
48.740104065808111
1040
0.0
1040
136.6041529029215
1040
57.207648031108022
1040
0.2674368359602446
1040
127.2345352189994
1040
53.086533694841222
1040
0.0
1040
127.2345352189994
1040
57.207648031108022
1040
0.0
1040
116.19314081319391
1040
57.207648031108022
1040
0.0
1071
        9
1005
5A6
1005
5AA
1005
5A9
1005
5A3
1005
5A4
1005
5A2
1005
5A7
1005
5AC
1005
5AB
1071
        7
1070
     1
1070
     1
1071
       18
1040
111.2523129779601
1040
45.06060729124669
1040
0.4142135623730951
1040
99.252312977960173
1040
57.06060729124669
1040
0.0
1040
93.440258950509346
1040
57.06060729124669
1040
0.3935971290544443
1040
81.470405744524527
1040
45.910674481046733
1040
0.0
1040
92.485087876393209
1040
45.910674481046733
1040
0.0
1040
92.485087876393209
1040
47.313129977668268
1040
-1.0
1040
100.2074865211779
1040
47.313129977668268
1040
0.0
1040
100.207486521178
1040
42.948196427274922
1040
0.0
1040
93.358174068518778
1040
42.948196427274922
1040
0.3803366342075343
1040
81.440258950509346
1040
32.349374231810209
1040
0.0
1040
81.440258950509346
1040
27.861637324670479
1040
0.212203934851876
1040
85.398663329684837
1040
18.95474449545469
1040
0.2715779457989354
1040
94.991749269489972
1040
17.839408458597308
1040
0.2212147422997974
1040
102.1211660476033
1040
23.542010892025001
1040
0.0
1040
102.1211660476033
1040
21.102600968374279
1040
0.048558820350044
1040
102.6710305977499
1040
17.89352120355198
1040
0.0
1040
111.8021775281067
1040
17.893521203552009
1040
-0.0850534761391249
1040
111.2523129779601
1040
23.54201089202471
1040
0.0
1071
       18
1005
555
1005
57C
1005
55E
1005
57D
1005
57E
1005
57B
1005
57F
1005
57A
1005
55C
1005
572
1005
55D
1005
54F
1005
56E
1005
576
1005
575
1005
574
1005
577
1005
56D
1071
       22
1070
     1
1070
     1
1071
        6
1040
101.5095597489034
1040
37.384730871555568
1040
0.0
1040
101.5095597489034
1040
29.984856014372749
1040
-0.4101584254678068
1040
95.863486513980718
1040
23.758749615986972
1040
-0.4142135623730822
1040
92.002287191588479
1040
27.619948938379359
1040
0.0
1040
92.002287191588479
1040
33.041326503689838
1040
-0.3592987923427892
1040
97.969021393668683
1040
37.384730871555568
1040
0.0
1071
        6
1005
578
1005
570
1005
573
1005
571
1005
56F
1005
579
1071
        7
1070
     1
1070
     1
1071
       14
1040
74.280536421539182
1040
35.629722934820848
1040
0.0
1040
74.280536421539182
1040
45.06060729124669
1040
0.4142135623730951
1040
62.280536421539182
1040
57.06060729124669
1040
0.0
1040
56.468482394088369
1040
57.06060729124669
1040
0.4142135623730892
1040
44.468482394088362
1040
45.060607291246939
1040
0.0348231985322411
1040
44.468482394088362
1040
27.861637324670291
1040
0.4142135623730907
1040
56.468482394088369
1040
15.861637324670481
1040
0.0
1040
62.280536421539182
1040
15.861637324670481
1040
0.4142135623730951
1040
74.280536421539182
1040
27.861637324670479
1040
0.0
1040
74.280536421539196
1040
30.816887788353831
1040
0.0
1040
63.235709964757
1040
30.81688778835381
1040
0.0
1040
63.235709964757007
1040
27.61994893837937
1040
-1.0
1040
55.513311319972217
1040
27.61994893837937
1040
0.0
1040
55.513311319972232
1040
35.629722934820848
1040
0.0
1071
       14
1005
566
1005
56B
1005
525
1005
539
1005
524
1005
553
1005
552
1005
565
1005
560
1005
562
1005
564
1005
563
1005
561
1005
55F
1071
       22
1070
     1
1070
     1
1071
        4
1040
63.235709964756971
1040
41.923431282527652
1040
0.0
1040
55.51331131997221
1040
41.923431282527638
1040
0.0
1040
55.513311319972217
1040
46.690614073903141
1040
-1.0
1040
63.235709964757007
1040
46.690614073903127
1040
0.0
1071
        4
1005
567
1005
569
1005
568
1005
56A
1071
        7
1070
     1
1070
     1
1071
       15
1040
37.639779947293832
1040
57.06060729124669
1040
0.0
1040
27.267121908897028
1040
57.06060729124669
1040
0.0
1040
27.267121908897021
1040
51.255838552818979
1040
0.3392741364964821
1040
18.58303542025671
1040
58.127888502333931
1040
0.3975671648689696
1040
7.030577403887583
1040
46.170226698962978
1040
0.0322586733839356
1040
7.0565934473582743
1040
30.23514359210488
1040
0.381674351628262
1040
18.58303542025671
1040
18.945146626805109
1040
0.3392741364964824
1040
27.267121908897021
1040
25.817196576320061
1040
0.0
1040
27.267121908897021
1040
13.51984597021351
1040
-1.0
1040
19.544723264112228
1040
13.51984597021351
1040
0.0
1040
19.544723264112239
1040
14.846027306936771
1040
0.0
1040
7.7279273094568479
1040
14.846027306936771
1040
0.435111756420548
1040
18.100585347853119
1040
3.392610111620797
1040
0.0
1040
25.69916102541525
1040
3.392610111620797
1040
0.3589835117613411
1040
37.639779947293839
1040
13.760967175618781
1040
0.0
1071
       15
1005
53F
1005
543
1005
542
1005
536
1005
538
1005
52A
1005
53E
1005
52B
1005
531
1005
532
1005
52D
1005
52E
1005
530
1005
52F
1005
52C
1071
       22
1070
     1
1070
     1
1071
        6
1040
27.387732575171409
1040
32.086434320449378
1040
-0.3635850888704513
1040
22.683854862926161
1040
25.455509253088579
1040
-0.4081657147783189
1040
17.256300807526252
1040
30.5191262631974
1040
0.0
1040
17.256300807526252
1040
46.312783983787632
1040
-0.4081657147783226
1040
22.683854862926282
1040
51.376400993896397
1040
-0.3635850888704468
1040
27.387732575171409
1040
44.745475926535612
1040
0.0
1071
        6
1005
53D
1005
53C
1005
53B
1005
540
1005
541
1005
53A
1070
     0
1070
     1
1040
0.2228598800114194
1071
       17
1040
17.63743802729277
1040
76.626905651017751
1040
0.0
1040
33.91754890401171
1040
77.741205688022092
1040
0.0
1040
33.91754890401171
1040
77.741205688022092
1040
0.0
1040
69.153945982282949
1040
79.301225382558854
1040
0.0
1040
91.455465417142008
1040
80.861243290751887
1040
0.0
1040
91.455465417142008
1040
80.861243290751887
1040
0.0
1040
120.67045393727309
1040
80.861243290751887
1040
0.0
1040
151.44655150816561
1040
79.746945040091759
1040
0.0
1040
157.69097519808881
1040
82.198402263350317
1040
0.0
1040
149.43941532211869
1040
47.209401108474808
1040
0.0
1040
122.2315629880345
1040
49.21514046054449
1040
0.0
1040
107.73557316557979
1040
43.19792419067948
1040
0.0
1040
107.73557316557979
1040
43.19792419067948
1040
0.0
1040
69.376961114066034
1040
40.30074552354403
1040
0.0
1040
69.376961114066034
1040
40.30074552354403
1040
0.0
1040
30.572318798986078
1040
42.306483089269697
1040
0.0
1040
30.572318798986078
1040
42.306483089269697
1040
0.0
1002
}
  0
ARC
  5
524
  8
DRG
 62
     7
 10
56.468482394088369
 20
27.861637324670479
 30
0.0
 40
12.0
 50
180.0
 51
270.0
  0
ARC
  5
525
  8
DRG
 62
     7
 10
56.468482394088369
 20
45.06060729124669
 30
0.0
 40
12.0
 50
90.0
 51
180.0
  0
ARC
  5
526
  8
DRG
 62
     7
 10
47.650196927116667
 20
72.89733173546756
 30
0.0
 40
12.0
 50
270.0
 51
0.0
  0
ARC
  5
527
  8
DRG
 62
     7
 10
47.650196927116667
 20
90.096301702043775
 30
0.0
 40
12.0
 50
0.0
 51
90.0
  0
ARC
  5
528
  8
DRG
 62
     7
 10
44.74417114794209
 20
72.655643349176444
 30
0.0
 40
3.8611993223923942
 50
180.0
 51
0.0
  0
ARC
  5
529
  8
DRG
 62
     7
 10
44.74417114794209
 20
90.337990088334877
 30
0.0
 40
3.8611993223923942
 50
0.0
 51
180.0
  0
ARC
  5
52A
  8
DRG
 62
     7
 10
19.137584483414571
 20
31.0402274344309
 30
0.0
 40
12.107786932649869
 50
183.81258486583951
 51
267.37487616930952
  0
LINE
  5
52B
  8
DRG
 62
     7
 10
27.267121908897021
 20
13.51984597021351
 30
0.0
 11
27.267121908897021
 21
25.817196576319979
 31
0.0
  0
LINE
  5
52C
  8
DRG
 62
     7
 10
37.639779947293839
 20
13.760967175618591
 30
0.0
 11
37.639779947293839
 21
57.06060729124669
 31
0.0
  0
LINE
  5
52D
  8
DRG
 62
     7
 10
7.7279273094568453
 20
14.846027306936771
 30
0.0
 11
19.544723264112228
 21
14.846027306936771
 31
0.0
  0
ARC
  5
52E
  8
DRG
 62
     7
 10
18.249110221157022
 20
13.95076893658401
 30
0.0
 40
10.559203445863639
 50
175.13635846835899
 51
269.19405577571678
  0
ARC
  5
52F
  8
DRG
 62
     7
 10
25.379351800633462
 20
15.82074347040526
 30
0.0
 40
12.432247452652581
 50
271.47404887186468
 51
350.4632534986161
  0
LINE
  5
530
  8
DRG
 62
     7
 10
18.100585347854121
 20
3.392610111620797
 30
0.0
 11
25.699161025414639
 21
3.392610111620797
 31
0.0
  0
ARC
  5
531
  8
DRG
 62
     7
 10
23.40592258650463
 20
13.51984597021351
 30
0.0
 40
3.8611993223923942
 50
180.0
 51
0.0
  0
LINE
  5
532
  8
DRG
 62
     7
 10
19.544723264112228
 20
13.51984597021351
 30
0.0
 11
19.544723264112228
 21
14.846027306936771
 31
0.0
  0
LINE
  5
533
  8
DRG
 62
     7
 10
18.821661727211438
 20
62.115696081838678
 30
0.0
 11
18.821661727211438
 21
85.569427875032716
 31
0.0
  0
ARC
  5
534
  8
DRG
 62
     7
 10
41.838142899665847
 20
72.89733173546756
 30
0.0
 40
12.0
 50
180.0
 51
270.0
  0
LINE
  5
535
  8
DRG
 62
     7
 10
7.7802673214059723
 20
102.0369718403326
 30
0.0
 11
7.7802673214059723
 21
62.115696081838678
 31
0.0
  0
ARC
  5
536
  8
DRG
 62
     7
 10
19.137584483414571
 20
46.032807694708133
 30
0.0
 40
12.107786932649869
 50
92.625123830690427
 51
179.34969965531249
  0
LINE
  5
537
  8
DRG
 62
     7
 10
7.7802673214059723
 20
62.115696081838678
 30
0.0
 11
18.821661727211438
 21
62.115696081838678
 31
0.0
  0
ARC
  5
538
  8
DRG
 62
     7
 10
130.4096373956734
 20
38.404095866101891
 30
0.0
 40
123.62323904739679
 50
176.39825231050591
 51
183.7888327716102
  0
ARC
  5
539
  8
DRG
 62
     7
 10
167.7922598686371
 20
36.46112230795859
 30
0.0
 40
123.62323904739679
 50
176.01116722839041
 51
183.98883277160959
  0
LINE
  5
53A
  8
DRG
 62
     7
 10
27.387732575171409
 20
32.086434320449371
 30
0.0
 11
27.387732575171409
 21
44.745475926535619
 31
0.0
  0
LINE
  5
53B
  8
DRG
 62
     7
 10
17.256300807526252
 20
30.519126263197901
 30
0.0
 11
17.256300807526252
 21
46.312783983787199
 31
0.0
  0
ARC
  5
53C
  8
DRG
 62
     7
 10
22.554825927420261
 20
30.757839296791811
 30
0.0
 40
5.3038997311936118
 50
182.57958705316651
 51
271.39398239048438
  0
ARC
  5
53D
  8
DRG
 62
     7
 10
21.079116203706629
 20
31.577778829510549
 30
0.0
 40
6.3290892655085571
 50
284.68766481341447
 51
4.6097118352224014
  0
ARC
  5
53E
  8
DRG
 62
     7
 10
18.444167318675341
 20
28.04361904615444
 30
0.0
 40
9.0995321151857773
 50
270.87442572940842
 51
345.83740798549388
  0
LINE
  5
53F
  8
DRG
 62
     7
 10
37.639779947293839
 20
57.06060729124669
 30
0.0
 11
27.267121908897021
 21
57.06060729124669
 31
0.0
  0
ARC
  5
540
  8
DRG
 62
     7
 10
22.554825927420261
 20
46.074070950193168
 30
0.0
 40
5.3038997311936118
 50
88.606017609515575
 51
177.42041294683341
  0
ARC
  5
541
  8
DRG
 62
     7
 10
21.079116203706629
 20
45.254131417474468
 30
0.0
 40
6.3290892655085571
 50
355.39028816477759
 51
75.312335186585557
  0
ARC
  5
542
  8
DRG
 62
     7
 10
18.444167318675341
 20
49.029416082984589
 30
0.0
 40
9.0995321151857773
 50
14.16259201450603
 51
89.125574270591571
  0
LINE
  5
543
  8
DRG
 62
     7
 10
27.267121908897021
 20
51.255838552819107
 30
0.0
 11
27.267121908897021
 21
57.06060729124669
 31
0.0
  0
LINE
  5
544
  8
DRG
 62
     7
 10
41.838142899665847
 20
60.89733173546756
 30
0.0
 11
47.650196927116667
 21
60.89733173546756
 31
0.0
  0
LINE
  5
545
  8
DRG
 62
     7
 10
7.7802673214059723
 20
102.0369718403326
 30
0.0
 11
18.821661727211438
 21
102.0369718403326
 31
0.0
  0
ARC
  5
546
  8
DRG
 62
     7
 10
26.821661727211438
 20
85.569427875032716
 30
0.0
 40
8.0
 50
90.0
 51
180.0
  0
ARC
  5
547
  8
DRG
 62
     7
 10
218.4362314981995
 20
81.496816718755667
 30
0.0
 40
177.77324423808651
 50
177.14934059322539
 51
182.85065940677461
  0
ARC
  5
548
  8
DRG
 62
     7
 10
153.16192037421459
 20
81.496816718755667
 30
0.0
 40
123.62323904739679
 50
176.01116722839041
 51
183.98883277160959
  0
ARC
  5
549
  8
DRG
 62
     7
 10
41.838142899665847
 20
90.096301702043775
 30
0.0
 40
12.0
 50
90.0
 51
180.0
  0
LINE
  5
54A
  8
DRG
 62
     7
 10
18.821661727211438
 20
97.915857504065912
 30
0.0
 11
18.821661727211438
 21
102.0369718403326
 31
0.0
  0
ARC
  5
54B
  8
DRG
 62
     7
 10
27.083354510939952
 20
91.844139685506846
 30
0.0
 40
10.2528691067876
 50
83.7965056449153
 51
143.68693404466879
  0
LINE
  5
54C
  8
DRG
 62
     7
 10
28.191279411133561
 20
102.0369718403326
 30
0.0
 11
28.191279411133561
 21
93.569427875032716
 31
0.0
  0
LINE
  5
54D
  8
DRG
 62
     7
 10
28.191279411133561
 20
93.569427875032716
 30
0.0
 11
26.821661727211438
 21
93.569427875032716
 31
0.0
  0
LINE
  5
54E
  8
DRG
 62
     7
 10
41.838142899665847
 20
102.0963017020437
 30
0.0
 11
47.650196927116667
 21
102.0963017020437
 31
0.0
  0
ARC
  5
54F
  8
DRG
 62
     7
 10
91.146199293645054
 20
26.576636016635941
 30
0.0
 40
9.5460672539884595
 50
232.98068850611
 51
293.75592135571679
  0
ARC
  5
550
  8
DRG
 62
     7
 10
153.28023066635379
 20
27.861637324670479
 30
0.0
 40
12.0
 50
180.0
 51
270.0
  0
ARC
  5
551
  8
DRG
 62
     7
 10
159.0922846938046
 20
27.861637324670479
 30
0.0
 40
12.0
 50
270.0
 51
0.0
  0
ARC
  5
552
  8
DRG
 62
     7
 10
62.280536421539182
 20
27.861637324670479
 30
0.0
 40
12.0
 50
270.0
 51
0.0
  0
LINE
  5
553
  8
DRG
 62
     7
 10
56.468482394088369
 20
15.861637324670481
 30
0.0
 11
62.280536421539182
 21
15.861637324670481
 31
0.0
  0
LINE
  5
554
  8
DRG
 62
     7
 10
153.28023066635379
 20
15.861637324670481
 30
0.0
 11
159.0922846938046
 21
15.861637324670481
 31
0.0
  0
ARC
  5
555
  8
DRG
 62
     7
 10
99.252312977960173
 20
45.06060729124669
 30
0.0
 40
12.0
 50
0.0
 51
90.0
  0
ARC
  5
556
  8
DRG
 62
     7
 10
103.66183676415081
 20
72.89733173546756
 30
0.0
 40
12.0
 50
270.0
 51
0.0
  0
ARC
  5
557
  8
DRG
 62
     7
 10
103.66183676415081
 20
90.096301702043775
 30
0.0
 40
12.0
 50
0.0
 51
90.0
  0
ARC
  5
558
  8
DRG
 62
     7
 10
75.331191210151701
 20
68.89733173546756
 30
0.0
 40
8.0
 50
180.0
 51
270.0
  0
LINE
  5
559
  8
DRG
 62
     7
 10
84.501142256151084
 20
62.072518178885268
 30
0.0
 11
84.501142256151084
 21
70.214764581409213
 31
0.0
  0
ARC
  5
55A
  8
DRG
 62
     7
 10
97.849782736700035
 20
72.89733173546756
 30
0.0
 40
12.0
 50
180.0
 51
270.0
  0
ARC
  5
55B
  8
DRG
 62
     7
 10
80.604973725058926
 20
67.941395133310024
 30
0.0
 40
7.044419488421358
 50
270.57609896713558
 51
303.5789717876612
  0
ARC
  5
55C
  8
DRG
 62
     7
 10
93.358174068518778
 20
30.948196427274919
 30
0.0
 40
12.0
 50
90.0
 51
173.29457252003729
  0
ARC
  5
55D
  8
DRG
 62
     7
 10
93.44025895050936
 20
27.861637324670479
 30
0.0
 40
12.0
 50
180.0
 51
227.9226718038604
  0
ARC
  5
55E
  8
DRG
 62
     7
 10
93.44025895050936
 20
45.06060729124669
 30
0.0
 40
12.0
 50
90.0
 51
175.93782586434531
  0
LINE
  5
55F
  8
DRG
 62
     7
 10
74.280536421539182
 20
45.06060729124669
 30
0.0
 11
74.280536421539182
 21
35.629722934820848
 31
0.0
  0
LINE
  5
560
  8
DRG
 62
     7
 10
63.235709964757007
 20
30.816887788353821
 30
0.0
 11
74.280536421539182
 21
30.816887788353821
 31
0.0
  0
LINE
  5
561
  8
DRG
 62
     7
 10
55.513311319972217
 20
35.629722934820848
 30
0.0
 11
74.280536421539182
 21
35.629722934820848
 31
0.0
  0
LINE
  5
562
  8
DRG
 62
     7
 10
63.235709964757007
 20
30.816887788353821
 30
0.0
 11
63.235709964757007
 21
27.619948938379359
 31
0.0
  0
LINE
  5
563
  8
DRG
 62
     7
 10
55.513311319972217
 20
35.629722934820848
 30
0.0
 11
55.513311319972217
 21
27.619948938379359
 31
0.0
  0
ARC
  5
564
  8
DRG
 62
     7
 10
59.374510642364612
 20
27.619948938379359
 30
0.0
 40
3.8611993223923942
 50
180.0
 51
0.0
  0
LINE
  5
565
  8
DRG
 62
     7
 10
74.280536421539182
 20
30.816887788353821
 30
0.0
 11
74.280536421539182
 21
27.861637324670479
 31
0.0
  0
ARC
  5
566
  8
DRG
 62
     7
 10
62.280536421539182
 20
45.06060729124669
 30
0.0
 40
12.0
 50
0.0
 51
90.0
  0
LINE
  5
567
  8
DRG
 62
     7
 10
55.513311319972217
 20
41.923431282527652
 30
0.0
 11
63.235709964757007
 21
41.923431282527652
 31
0.0
  0
ARC
  5
568
  8
DRG
 62
     7
 10
59.374510642364612
 20
46.690614073903127
 30
0.0
 40
3.8611993223923942
 50
0.0
 51
180.0
  0
LINE
  5
569
  8
DRG
 62
     7
 10
55.513311319972217
 20
46.690614073903127
 30
0.0
 11
55.513311319972217
 21
41.923431282527652
 31
0.0
  0
LINE
  5
56A
  8
DRG
 62
     7
 10
63.235709964757007
 20
46.690614073903127
 30
0.0
 11
63.235709964757007
 21
41.923431282527652
 31
0.0
  0
LINE
  5
56B
  8
DRG
 62
     7
 10
56.468482394088369
 20
57.06060729124669
 30
0.0
 11
62.280536421539182
 21
57.06060729124669
 31
0.0
  0
LINE
  5
56C
  8
DRG
 62
     7
 10
75.331191210151701
 20
60.89733173546756
 30
0.0
 11
80.675802928264815
 21
60.89733173546756
 31
0.0
  0
LINE
  5
56D
  8
DRG
 62
     7
 10
111.2523129779601
 20
45.06060729124669
 30
0.0
 11
111.2523129779601
 21
21.10260096837424
 31
0.0
  0
ARC
  5
56E
  8
DRG
 62
     7
 10
92.427187023305351
 20
28.353548776339029
 30
0.0
 40
10.822390038051561
 50
283.70766965543032
 51
333.6028219757398
  0
ARC
  5
56F
  8
DRG
 62
     7
 10
97.617648860406234
 20
31.597336783954741
 30
0.0
 40
5.7980507916306081
 50
86.525641605078704
 51
165.57884810514051
  0
ARC
  5
570
  8
DRG
 62
     7
 10
95.530005668639475
 20
29.734254501986349
 30
0.0
 40
5.9848030975807349
 50
273.19424815916329
 51
2.3998464036014582
  0
LINE
  5
571
  8
DRG
 62
     7
 10
92.002287191588479
 20
27.619948938379359
 30
0.0
 11
92.002287191588479
 21
33.041326503689788
 31
0.0
  0
LINE
  5
572
  8
DRG
 62
     7
 10
81.440258950509346
 20
32.349374231809861
 30
0.0
 11
81.440258950509346
 21
27.861637324670479
 31
0.0
  0
ARC
  5
573
  8
DRG
 62
     7
 10
95.863486513980874
 20
27.619948938379359
 30
0.0
 40
3.8611993223923942
 50
180.0
 51
270.0
  0
LINE
  5
574
  8
DRG
 62
     7
 10
102.6710305977499
 20
17.89352120355198
 30
0.0
 11
111.8021775281067
 21
17.893521203552009
 31
0.0
  0
ARC
  5
575
  8
DRG
 62
     7
 10
118.87875205644769
 20
22.322305930199491
 30
0.0
 40
16.801915635954131
 50
175.83705377070211
 51
195.28307330703629
  0
LINE
  5
576
  8
DRG
 62
     7
 10
102.1211660476033
 20
23.542010892025068
 30
0.0
 11
102.1211660476033
 21
21.102600968374329
 31
0.0
  0
ARC
  5
577
  8
DRG
 62
     7
 10
128.00989898680459
 20
22.322305930199519
 30
0.0
 40
16.801915635954131
 50
175.83705377070211
 51
195.28307330703629
  0
LINE
  5
578
  8
DRG
 62
     7
 10
101.5095597489034
 20
37.384730871555568
 30
0.0
 11
101.5095597489034
 21
29.483652989600269
 31
0.0
  0
LINE
  5
579
  8
DRG
 62
     7
 10
101.5095597489034
 20
37.384730871555568
 30
0.0
 11
97.266276327143615
 21
37.384730871555568
 31
0.0
  0
LINE
  5
57A
  8
DRG
 62
     7
 10
100.2074865211779
 20
42.948196427274922
 30
0.0
 11
93.358174068518778
 21
42.948196427274922
 31
0.0
  0
ARC
  5
57B
  8
DRG
 62
     7
 10
96.346287198785603
 20
47.313129977668268
 30
0.0
 40
3.8611993223923942
 50
0.0
 51
180.0
  0
LINE
  5
57C
  8
DRG
 62
     7
 10
93.44025895050936
 20
57.06060729124669
 30
0.0
 11
99.252312977960173
 21
57.06060729124669
 31
0.0
  0
LINE
  5
57D
  8
DRG
 62
     7
 10
92.485087876393209
 20
45.910674481046733
 30
0.0
 11
81.470405744524555
 21
45.910674481046733
 31
0.0
  0
LINE
  5
57E
  8
DRG
 62
     7
 10
92.485087876393209
 20
47.313129977668268
 30
0.0
 11
92.485087876393209
 21
45.910674481046733
 31
0.0
  0
LINE
  5
57F
  8
DRG
 62
     7
 10
100.2074865211779
 20
47.313129977668268
 30
0.0
 11
100.2074865211779
 21
42.948196427274922
 31
0.0
  0
LINE
  5
580
  8
DRG
 62
     7
 10
97.849782736700035
 20
60.89733173546756
 30
0.0
 11
103.66183676415081
 21
60.89733173546756
 31
0.0
  0
LINE
  5
581
  8
DRG
 62
     7
 10
80.482556033578916
 20
69.876055965300111
 30
0.0
 11
83.501142256151056
 21
69.876055965300111
 31
0.0
  0
LINE
  5
582
  8
DRG
 62
     7
 10
77.482556033578931
 20
94.593352860836134
 30
0.0
 11
84.553623006881026
 21
94.593352860836134
 31
0.0
  0
LINE
  5
583
  8
DRG
 62
     7
 10
77.482556033578931
 20
101.9948050433795
 30
0.0
 11
84.553623006881026
 21
101.9948050433795
 31
0.0
  0
ARC
  5
584
  8
DRG
 62
     7
 10
-128.9478892023152
 20
81.496816718755667
 30
0.0
 40
177.77324423808651
 50
357.1493405932253
 51
2.8506594067746178
  0
ARC
  5
585
  8
DRG
 62
     7
 10
-63.673578078330422
 20
81.496816718755667
 30
0.0
 40
123.62323904739679
 50
356.01116722839038
 51
3.9888327716095779
  0
LINE
  5
586
  8
DRG
 62
     7
 10
67.331191210151701
 20
94.593352860836134
 30
0.0
 11
67.331191210151701
 21
68.89733173546756
 31
0.0
  0
LINE
  5
587
  8
DRG
 62
     7
 10
77.482556033578931
 20
94.593352860836134
 30
0.0
 11
77.482556033578931
 21
72.876055965300111
 31
0.0
  0
ARC
  5
588
  8
DRG
 62
     7
 10
80.482556033578916
 20
72.876055965300111
 30
0.0
 40
3.0
 50
180.0
 51
270.0
  0
LINE
  5
589
  8
DRG
 62
     7
 10
62.478989637268569
 20
101.9948050433795
 30
0.0
 11
67.331191210151701
 21
101.9948050433795
 31
0.0
  0
LINE
  5
58A
  8
DRG
 62
     7
 10
62.478989637268569
 20
94.593352860836134
 30
0.0
 11
67.331191210151701
 21
94.593352860836134
 31
0.0
  0
LINE
  5
58B
  8
DRG
 62
     7
 10
62.478989637268569
 20
94.593352860836134
 30
0.0
 11
62.478989637268569
 21
101.9948050433795
 31
0.0
  0
LINE
  5
58C
  8
DRG
 62
     7
 10
67.331191210151701
 20
107.1280725498991
 30
0.0
 11
77.482556033578931
 21
107.1280725498991
 31
0.0
  0
LINE
  5
58D
  8
DRG
 62
     7
 10
67.331191210151701
 20
107.1280725498991
 30
0.0
 11
67.331191210151701
 21
101.9948050433795
 31
0.0
  0
LINE
  5
58E
  8
DRG
 62
     7
 10
77.482556033578931
 20
101.9948050433795
 30
0.0
 11
77.482556033578931
 21
107.1280725498991
 31
0.0
  0
ARC
  5
58F
  8
DRG
 62
     7
 10
-72.936249365281071
 20
81.496816718755667
 30
0.0
 40
177.77324423808651
 50
357.1493405932253
 51
2.8506594067746178
  0
ARC
  5
590
  8
DRG
 62
     7
 10
274.44787133523357
 20
81.496816718755667
 30
0.0
 40
177.77324423808651
 50
177.14934059322539
 51
182.85065940677461
  0
ARC
  5
591
  8
DRG
 62
     7
 10
209.1735602112488
 20
81.496816718755667
 30
0.0
 40
123.62323904739679
 50
176.01116722839041
 51
183.98883277160959
  0
ARC
  5
592
  8
DRG
 62
     7
 10
100.75581098497619
 20
72.655643349176444
 30
0.0
 40
3.8611993223923942
 50
180.0
 51
0.0
  0
ARC
  5
593
  8
DRG
 62
     7
 10
82.991751330883176
 20
73.025526152493626
 30
0.0
 40
3.1903983410800212
 50
279.18737892597682
 51
298.2359877234839
  0
ARC
  5
594
  8
DRG
 62
     7
 10
100.75581098497619
 20
90.337990088334877
 30
0.0
 40
3.8611993223923942
 50
0.0
 51
180.0
  0
ARC
  5
595
  8
DRG
 62
     7
 10
97.849782736700035
 20
90.096301702043775
 30
0.0
 40
12.0
 50
90.0
 51
180.0
  0
LINE
  5
596
  8
DRG
 62
     7
 10
84.553623006881026
 20
101.9948050433795
 30
0.0
 11
84.553623006881026
 21
94.593352860836134
 31
0.0
  0
LINE
  5
597
  8
DRG
 62
     7
 10
97.849782736700035
 20
102.0963017020437
 30
0.0
 11
103.66183676415081
 21
102.0963017020437
 31
0.0
  0
LINE
  5
598
  8
DRG
 62
     7
 10
130.05101171535759
 20
62.115696081838678
 30
0.0
 11
130.05101171535759
 21
85.569427875032716
 31
0.0
  0
LINE
  5
599
  8
DRG
 62
     7
 10
119.0096173095521
 20
102.0369718403326
 30
0.0
 11
119.0096173095521
 21
62.115696081838678
 31
0.0
  0
LINE
  5
59A
  8
DRG
 62
     7
 10
165.4162645291251
 20
78.31140447718235
 30
0.0
 11
171.78072804963571
 21
62.115696081838678
 31
0.0
  0
LINE
  5
59B
  8
DRG
 62
     7
 10
153.2899770207527
 20
82.583583780839604
 30
0.0
 11
161.3332883364622
 21
62.115696081838678
 31
0.0
  0
LINE
  5
59C
  8
DRG
 62
     7
 10
153.2899770207527
 20
102.0369718403326
 30
0.0
 11
153.2899770207527
 21
62.115696081838678
 31
0.0
  0
LINE
  5
59D
  8
DRG
 62
     7
 10
142.11987082690661
 20
102.0369718403326
 30
0.0
 11
142.11987082690661
 21
62.115696081838678
 31
0.0
  0
ARC
  5
59E
  8
DRG
 62
     7
 10
160.28928843394391
 20
53.283870983727013
 30
0.0
 40
20.648450998997479
 50
209.50344874889601
 51
257.2400493880096
  0
LINE
  5
59F
  8
DRG
 62
     7
 10
141.28023066635379
 20
29.95929893143898
 30
0.0
 11
152.32505959223769
 21
29.95929893143898
 31
0.0
  0
ARC
  5
5A0
  8
DRG
 62
     7
 10
153.28023066635379
 20
45.06060729124669
 30
0.0
 40
12.0
 50
90.0
 51
161.62913043773071
  0
LINE
  5
5A1
  8
DRG
 62
     7
 10
153.2899770207527
 20
62.115696081838678
 30
0.0
 11
142.11987082690661
 21
62.115696081838678
 31
0.0
  0
LINE
  5
5A2
  8
DRG
 62
     7
 10
127.2345352189994
 20
17.28637227261407
 30
0.0
 11
127.2345352189994
 21
40.740104065808111
 31
0.0
  0
LINE
  5
5A3
  8
DRG
 62
     7
 10
116.19314081319391
 20
57.207648031108022
 30
0.0
 11
116.19314081319391
 21
17.28637227261407
 31
0.0
  0
LINE
  5
5A4
  8
DRG
 62
     7
 10
116.19314081319391
 20
17.28637227261407
 30
0.0
 11
127.2345352189994
 21
17.28637227261407
 31
0.0
  0
LINE
  5
5A5
  8
DRG
 62
     7
 10
141.28023066635379
 20
29.95929893143898
 30
0.0
 11
141.28023066635379
 21
27.861637324670479
 31
0.0
  0
ARC
  5
5A6
  8
DRG
 62
     7
 10
135.496228002728
 20
47.014815876282221
 30
0.0
 40
10.2528691067876
 50
83.7965056449153
 51
143.68693404466879
  0
ARC
  5
5A7
  8
DRG
 62
     7
 10
135.23453521899941
 20
40.740104065808111
 30
0.0
 40
8.0
 50
90.0
 51
180.0
  0
LINE
  5
5A8
  8
DRG
 62
     7
 10
119.0096173095521
 20
62.115696081838678
 30
0.0
 11
130.05101171535759
 21
62.115696081838678
 31
0.0
  0
LINE
  5
5A9
  8
DRG
 62
     7
 10
116.19314081319391
 20
57.207648031108022
 30
0.0
 11
127.2345352189994
 21
57.207648031108022
 31
0.0
  0
LINE
  5
5AA
  8
DRG
 62
     7
 10
127.2345352189994
 20
53.0865336948413
 30
0.0
 11
127.2345352189994
 21
57.207648031108079
 31
0.0
  0
LINE
  5
5AB
  8
DRG
 62
     7
 10
136.6041529029215
 20
57.207648031108022
 30
0.0
 11
136.6041529029215
 21
48.740104065808111
 31
0.0
  0
LINE
  5
5AC
  8
DRG
 62
     7
 10
136.6041529029215
 20
48.740104065808111
 30
0.0
 11
135.23453521899941
 21
48.740104065808111
 31
0.0
  0
ARC
  5
5AD
  8
DRG
 62
     7
 10
149.15275272984229
 20
46.50373678022958
 30
0.0
 40
7.6283568598071962
 50
162.14543119997589
 51
216.29372603558031
  0
ARC
  5
5AE
  8
DRG
 62
     7
 10
164.68224204875119
 20
54.775095406185869
 30
0.0
 40
15.14236331012172
 50
222.29150451995909
 51
257.53093545652467
  0
ARC
  5
5AF
  8
DRG
 62
     7
 10
159.223234097084
 20
28.191351553125511
 30
0.0
 40
12.0
 50
8.4721667757414814
 51
79.486612768212169
  0
LINE
  5
5B0
  8
DRG
 62
     7
 10
160.04745823702251
 20
29.300230626583438
 30
0.0
 11
160.04745823702251
 21
27.619948938379359
 31
0.0
  0
LINE
  5
5B1
  8
DRG
 62
     7
 10
152.32505959223769
 20
27.619948938379359
 30
0.0
 11
152.32505959223769
 21
29.95929893143898
 31
0.0
  0
ARC
  5
5B2
  8
DRG
 62
     7
 10
156.18625891463009
 20
27.619948938379359
 30
0.0
 40
3.8611993223923942
 50
180.0
 51
0.0
  0
ARC
  5
5B3
  8
DRG
 62
     7
 10
153.8611380906755
 20
26.699836406787622
 30
0.0
 40
6.7106338785129491
 50
22.799249772319211
 51
73.841024038773142
  0
LINE
  5
5B4
  8
DRG
 62
     7
 10
171.0922846938046
 20
29.95929893143915
 30
0.0
 11
171.0922846938046
 21
27.861637324670479
 31
0.0
  0
LINE
  5
5B5
  8
DRG
 62
     7
 10
171.0912486890569
 20
45.21828747592599
 30
0.0
 11
160.04745823702251
 21
45.21828747592599
 31
0.0
  0
ARC
  5
5B6
  8
DRG
 62
     7
 10
159.0922846938046
 20
45.06060729124669
 30
0.0
 40
12.0
 50
0.7528890912800703
 51
90.0
  0
LINE
  5
5B7
  8
DRG
 62
     7
 10
161.3332883364622
 20
62.115696081838678
 30
0.0
 11
171.78072804963571
 21
62.115696081838678
 31
0.0
  0
ARC
  5
5B8
  8
DRG
 62
     7
 10
156.18625891463009
 20
46.421288526219307
 30
0.0
 40
3.8611993223923942
 50
0.0
 51
161.4735686305323
  0
ARC
  5
5B9
  8
DRG
 62
     7
 10
155.35373214152469
 20
46.850626662257177
 30
0.0
 40
2.938857360854815
 50
164.25399710017811
 51
230.4135202949499
  0
LINE
  5
5BA
  8
DRG
 62
     7
 10
160.04745823702251
 20
46.421288526219307
 30
0.0
 11
160.04745823702251
 21
45.21828747592599
 31
0.0
  0
LINE
  5
5BB
  8
DRG
 62
     7
 10
153.28023066635379
 20
57.06060729124669
 30
0.0
 11
159.0922846938046
 21
57.06060729124669
 31
0.0
  0
LINE
  5
5BC
  8
DRG
 62
     7
 10
142.11987082690661
 20
102.0369718403326
 30
0.0
 11
153.2899770207527
 21
102.0369718403326
 31
0.0
  0
ARC
  5
5BD
  8
DRG
 62
     7
 10
138.05101171535759
 20
85.569427875032716
 30
0.0
 40
8.0
 50
90.0
 51
180.0
  0
ARC
  5
5BE
  8
DRG
 62
     7
 10
-7.66193824129624
 20
81.496816718755667
 30
0.0
 40
123.62323904739679
 50
356.01116722839038
 51
3.9888327716095779
  0
ARC
  5
5BF
  8
DRG
 62
     7
 10
138.3127044990861
 20
91.844139685506775
 30
0.0
 40
10.2528691067876
 50
83.7965056449153
 51
143.68693404466879
  0
LINE
  5
5C0
  8
DRG
 62
     7
 10
119.0096173095521
 20
102.0369718403326
 30
0.0
 11
130.05101171535759
 21
102.0369718403326
 31
0.0
  0
LINE
  5
5C1
  8
DRG
 62
     7
 10
130.05101171535759
 20
97.915857504065855
 30
0.0
 11
130.05101171535759
 21
102.0369718403326
 31
0.0
  0
LINE
  5
5C2
  8
DRG
 62
     7
 10
139.4206293992797
 20
102.0369718403326
 30
0.0
 11
139.4206293992797
 21
93.569427875032716
 31
0.0
  0
LINE
  5
5C3
  8
DRG
 62
     7
 10
139.4206293992797
 20
93.569427875032716
 30
0.0
 11
138.05101171535759
 21
93.569427875032716
 31
0.0
  0
LINE
  5
5C4
  8
DRG
 62
     7
 10
153.2899770207527
 20
82.583583780839604
 30
0.0
 11
160.9346181585602
 21
102.0369718403326
 31
0.0
  0
LINE
  5
5C5
  8
DRG
 62
     7
 10
176.9709164189357
 20
78.31140447718235
 30
0.0
 11
176.9709164189357
 21
86.855763084496857
 31
0.0
  0
LINE
  5
5C6
  8
DRG
 62
     7
 10
176.9709164189357
 20
78.31140447718235
 30
0.0
 11
165.4162645291251
 21
78.31140447718235
 31
0.0
  0
LINE
  5
5C7
  8
DRG
 62
     7
 10
160.9346181585602
 20
102.0369718403326
 30
0.0
 11
171.38205787173379
 21
102.0369718403326
 31
0.0
  0
LINE
  5
5C8
  8
DRG
 62
     7
 10
165.4162645291251
 20
86.855763084496857
 30
0.0
 11
171.38205787173379
 21
102.0369718403326
 31
0.0
  0
LINE
  5
5C9
  8
DRG
 62
     7
 10
176.9709164189357
 20
86.855763084496857
 30
0.0
 11
165.4162645291251
 21
86.855763084496857
 31
0.0
  0
ENDBLK
  5
5CB
  8
0
  0
BLOCK
  8
0
  2
ROTORK_GEARS_LOGO
 70
     0
 10
0.0
 20
0.0
 30
0.0
  3
ROTORK_GEARS_LOGO
  1

  0
INSERT
  5
5CD
  8
0
  2
LOGO
 10
16.592937132437999
 20
3.1720898939720419
 30
0.0
  0
ENDBLK
  5
5CF
  8
0
  0
BLOCK
  8
0
  2
*U3
 70
     1
 10
0.0
 20
0.0
 30
0.0
  3
*U3
  1

  0
SOLID
  5
5F1
  8
DRG
  6
CONTINUOUS
 62
     7
 10
28.521311246702879
 20
3.7920749005575649
 30
0.0
 11
18.100585347853119
 21
3.392610111620797
 31
0.0
 12
25.69916102541524
 22
3.392610111620797
 32
0.0
 13
25.69916102541524
 23
3.392610111620797
 33
0.0
210
0.0
220
0.0
230
1.0
  0
SOLID
  5
5F2
  8
DRG
  6
CONTINUOUS
 62
     7
 10
15.253275093427559
 20
3.825466506601944
 30
0.0
 11
18.100585347853119
 21
3.392610111620797
 31
0.0
 12
28.521311246702879
 22
3.7920749005575649
 32
0.0
 13
28.521311246702879
 23
3.7920749005575649
 33
0.0
210
0.0
220
0.0
230
1.0
  0
SOLID
  5
5F3
  8
DRG
  6
CONTINUOUS
 62
     7
 10
31.178312160316999
 20
4.8237968273226679
 30
0.0
 11
15.253275093427559
 21
3.825466506601944
 31
0.0
 12
28.521311246702879
 22
3.7920749005575649
 32
0.0
 13
28.521311246702879
 23
3.7920749005575649
 33
0.0
210
0.0
220
0.0
230
1.0
  0
SOLID
  5
5F4
  8
DRG
  6
CONTINUOUS
 62
     7
 10
12.628832942518519
 20
5.011570945580659
 30
0.0
 11
15.253275093427559
 21
3.825466506601944
 31
0.0
 12
31.178312160316999
 22
4.8237968273226679
 32
0.0
 13
31.178312160316999
 23
4.8237968273226679
 33
0.0
  0
SOLID
  5
5F5
  8
DRG
  6
CONTINUOUS
 62
     7
 10
33.5305051013693
 20
6.4335459870298406
 30
0.0
 11
12.628832942518519
 21
5.011570945580659
 31
0.0
 12
31.178312160316999
 22
4.8237968273226679
 32
0.0
 13
31.178312160316999
 23
4.8237968273226679
 33
0.0
210
0.0
220
0.0
230
1.0
  0
SOLID
  5
5F6
  8
DRG
  6
CONTINUOUS
 62
     7
 10
10.42249809221936
 20
6.8626859803606264
 30
0.0
 11
12.628832942518519
 21
5.011570945580659
 31
0.0
 12
33.5305051013693
 22
6.4335459870298406
 32
0.0
 13
33.5305051013693
 23
6.4335459870298406
 33
0.0
210
0.0
220
0.0
230
1.0
  0
SOLID
  5
5F7
  8
DRG
  6
CONTINUOUS
 62
     7
 10
35.454252880266083
 20
8.5367099065339431
 30
0.0
 11
10.42249809221936
 21
6.8626859803606264
 31
0.0
 12
33.5305051013693
 22
6.4335459870298406
 32
0.0
 13
33.5305051013693
 23
6.4335459870298406
 33
0.0
210
0.0
220
0.0
230
1.0
  0
SOLID
  5
5F8
  8
DRG
  6
CONTINUOUS
 62
     7
 10
8.7984056310258474
 20
9.2411022645984033
 30
0.0
 11
10.42249809221936
 21
6.8626859803606264
 31
0.0
 12
35.454252880266083
 22
8.5367099065339431
 32
0.0
 13
35.454252880266083
 23
8.5367099065339431
 33
0.0
210
0.0
220
0.0
230
1.0
  0
SOLID
  5
5F9
  8
DRG
  6
CONTINUOUS
 62
     7
 10
23.40592258650463
 20
9.658646647821115
 30
0.0
 11
8.7984056310258474
 21
9.2411022645984033
 31
0.0
 12
35.454252880266083
 22
8.5367099065339431
 32
0.0
 13
35.454252880266083
 23
8.5367099065339431
 33
0.0
210
0.0
220
0.0
230
1.0
  0
SOLID
  5
5FA
  8
DRG
  6
CONTINUOUS
 62
     7
 10
21.928305576765752
 20
9.9525629453087276
 30
0.0
 11
8.7984056310258474
 21
9.2411022645984033
 31
0.0
 12
23.40592258650463
 22
9.658646647821115
 32
0.0
 13
23.40592258650463
 23
9.658646647821115
 33
0.0
210
0.0
220
0.0
230
1.0
  0
SOLID
  5
5FB
  8
DRG
  6
CONTINUOUS
 62
     7
 10
24.883539596243509
 20
9.9525629453087276
 30
0.0
 11
23.40592258650463
 21
9.658646647821115
 31
0.0
 12
35.454252880266083
 22
8.5367099065339431
 32
0.0
 13
35.454252880266083
 23
8.5367099065339431
 33
0.0
210
0.0
220
0.0
230
1.0
  0
SOLID
  5
5FC
  8
DRG
  6
CONTINUOUS
 62
     7
 10
20.675642362128059
 20
10.78956574583694
 30
0.0
 11
8.7984056310258474
 21
9.2411022645984033
 31
0.0
 12
21.928305576765752
 22
9.9525629453087276
 32
0.0
 13
21.928305576765752
 23
9.9525629453087276
 33
0.0
210
0.0
220
0.0
230
1.0
  0
SOLID
  5
5FD
  8
DRG
  6
CONTINUOUS
 62
     7
 10
26.136202810881191
 20
10.78956574583694
 30
0.0
 11
24.883539596243509
 21
9.9525629453087276
 31
0.0
 12
35.454252880266083
 22
8.5367099065339431
 32
0.0
 13
35.454252880266083
 23
8.5367099065339431
 33
0.0
210
0.0
220
0.0
230
1.0
  0
SOLID
  5
5FE
  8
DRG
  6
CONTINUOUS
 62
     7
 10
36.848438465016159
 20
11.022740989281949
 30
0.0
 11
26.136202810881191
 21
10.78956574583694
 31
0.0
 12
35.454252880266083
 22
8.5367099065339431
 32
0.0
 13
35.454252880266083
 23
8.5367099065339431
 33
0.0
210
0.0
220
0.0
230
1.0
  0
SOLID
  5
5FF
  8
DRG
  6
CONTINUOUS
 62
     7
 10
7.8773760952256326
 20
11.969883116520499
 30
0.0
 11
8.7984056310258474
 21
9.2411022645984033
 31
0.0
 12
20.675642362128059
 22
10.78956574583694
 32
0.0
 13
20.675642362128059
 23
10.78956574583694
 33
0.0
210
0.0
220
0.0
230
1.0
  0
SOLID
  5
600
  8
DRG
  6
CONTINUOUS
 62
     7
 10
19.838639561599841
 20
12.042228960474629
 30
0.0
 11
7.8773760952256326
 21
11.969883116520499
 31
0.0
 12
20.675642362128059
 22
10.78956574583694
 32
0.0
 13
20.675642362128059
 23
10.78956574583694
 33
0.0
210
0.0
220
0.0
230
1.0
  0
SOLID
  5
601
  8
DRG
  6
CONTINUOUS
 62
     7
 10
26.973205611409409
 20
12.042228960474629
 30
0.0
 11
26.136202810881191
 21
10.78956574583694
 31
0.0
 12
36.848438465016159
 22
11.022740989281949
 32
0.0
 13
36.848438465016159
 23
11.022740989281949
 33
0.0
210
0.0
220
0.0
230
1.0
  0
SOLID
  5
602
  8
DRG
  6
CONTINUOUS
 62
     7
 10
19.544723264112228
 20
13.51984597021351
 30
0.0
 11
7.8773760952256326
 21
11.969883116520499
 31
0.0
 12
19.838639561599841
 22
12.042228960474629
 32
0.0
 13
19.838639561599841
 23
12.042228960474629
 33
0.0
210
0.0
220
0.0
230
1.0
  0
SOLID
  5
603
  8
DRG
  6
CONTINUOUS
 62
     7
 10
27.267121908897021
 20
13.51984597021351
 30
0.0
 11
26.973205611409409
 21
12.042228960474629
 31
0.0
 12
36.848438465016159
 22
11.022740989281949
 32
0.0
 13
36.848438465016159
 23
11.022740989281949
 33
0.0
210
0.0
220
0.0
230
1.0
  0
SOLID
  5
604
  8
DRG
  6
CONTINUOUS
 62
     7
 10
37.639779947293839
 20
13.760967175618781
 30
0.0
 11
27.267121908897021
 21
13.51984597021351
 31
0.0
 12
36.848438465016159
 22
11.022740989281949
 32
0.0
 13
36.848438465016159
 23
11.022740989281949
 33
0.0
  0
SOLID
  5
605
  8
DRG
  6
CONTINUOUS
 62
     7
 10
19.544723264112228
 20
13.51984597021351
 30
0.0
 11
19.544723264112239
 21
14.846027306936771
 31
0.0
 12
7.7279273094568479
 22
14.846027306936771
 32
0.0
 13
7.7279273094568479
 23
14.846027306936771
 33
0.0
210
0.0
220
0.0
230
1.0
  0
SOLID
  5
606
  8
DRG
  6
CONTINUOUS
 62
     7
 10
7.7279273094568479
 20
14.846027306936771
 30
0.0
 11
7.8773760952256326
 21
11.969883116520499
 31
0.0
 12
19.544723264112228
 22
13.51984597021351
 32
0.0
 13
19.544723264112228
 23
13.51984597021351
 33
0.0
210
0.0
220
0.0
230
1.0
  0
SOLID
  5
607
  8
DRG
  6
CONTINUOUS
 62
     7
 10
161.76253590128039
 20
16.16250237848859
 30
0.0
 11
153.28023066635379
 21
15.861637324670481
 31
0.0
 12
159.0922846938046
 22
15.861637324670481
 32
0.0
 13
159.0922846938046
 23
15.861637324670481
 33
0.0
210
0.0
220
0.0
230
1.0
  0
SOLID
  5
608
  8
DRG
  6
CONTINUOUS
 62
     7
 10
64.950787629014954
 20
16.16250237848859
 30
0.0
 11
56.468482394088369
 21
15.861637324670481
 31
0.0
 12
62.280536421539182
 22
15.861637324670481
 32
0.0
 13
62.280536421539182
 23
15.861637324670481
 33
0.0
210
0.0
220
0.0
230
1.0
  0
SOLID
  5
609
  8
DRG
  6
CONTINUOUS
 62
     7
 10
53.798231186612632
 20
16.16250237848859
 30
0.0
 11
56.468482394088369
 21
15.861637324670481
 31
0.0
 12
64.950787629014954
 22
16.16250237848859
 32
0.0
 13
64.950787629014954
 23
16.16250237848859
 33
0.0
210
0.0
220
0.0
230
1.0
  0
SOLID
  5
60A
  8
DRG
  6
CONTINUOUS
 62
     7
 10
150.609979458878
 20
16.16250237848859
 30
0.0
 11
153.28023066635379
 21
15.861637324670481
 31
0.0
 12
161.76253590128039
 22
16.16250237848859
 32
0.0
 13
161.76253590128039
 23
16.16250237848859
 33
0.0
210
0.0
220
0.0
230
1.0
  0
SOLID
  5
60B
  8
DRG
  6
CONTINUOUS
 62
     7
 10
51.261877524677722
 20
17.050010909841429
 30
0.0
 11
53.798231186612632
 21
16.16250237848859
 31
0.0
 12
64.950787629014954
 22
16.16250237848859
 32
0.0
 13
64.950787629014954
 23
16.16250237848859
 33
0.0
210
0.0
220
0.0
230
1.0
  0
SOLID
  5
60C
  8
DRG
  6
CONTINUOUS
 62
     7
 10
67.487141290949879
 20
17.050010909841451
 30
0.0
 11
51.261877524677722
 21
17.050010909841429
 31
0.0
 12
64.950787629014954
 22
16.16250237848859
 32
0.0
 13
64.950787629014954
 23
16.16250237848859
 33
0.0
210
0.0
220
0.0
230
1.0
  0
SOLID
  5
60D
  8
DRG
  6
CONTINUOUS
 62
     7
 10
164.29888956321531
 20
17.050010909841451
 30
0.0
 11
150.609979458878
 21
16.16250237848859
 31
0.0
 12
161.76253590128039
 22
16.16250237848859
 32
0.0
 13
161.76253590128039
 23
16.16250237848859
 33
0.0
210
0.0
220
0.0
230
1.0
  0
SOLID
  5
60E
  8
DRG
  6
CONTINUOUS
 62
     7
 10
148.07362579694311
 20
17.050010909841451
 30
0.0
 11
150.609979458878
 21
16.16250237848859
 31
0.0
 12
164.29888956321531
 22
17.050010909841451
 32
0.0
 13
164.29888956321531
 23
17.050010909841451
 33
0.0
210
0.0
220
0.0
230
1.0
  0
SOLID
  5
60F
  8
DRG
  6
CONTINUOUS
 62
     7
 10
87.597152072902304
 20
17.71482672944132
 30
0.0
 11
90.043755964704772
 21
17.09444119032354
 31
0.0
 12
92.567432060215296
 22
17.13695925093587
 32
0.0
 13
92.567432060215296
 23
17.13695925093587
 33
0.0
210
0.0
220
0.0
230
1.0
  0
SOLID
  5
610
  8
DRG
  6
CONTINUOUS
 62
     7
 10
94.991749269489972
 20
17.839408458597301
 30
0.0
 11
87.597152072902304
 21
17.71482672944132
 31
0.0
 12
92.567432060215296
 22
17.13695925093587
 32
0.0
 13
92.567432060215296
 23
17.13695925093587
 33
0.0
210
0.0
220
0.0
230
1.0
  0
SOLID
  5
611
  8
DRG
  6
CONTINUOUS
 62
     7
 10
48.986604771783632
 20
18.479659535054068
 30
0.0
 11
51.261877524677722
 21
17.050010909841429
 31
0.0
 12
67.487141290949879
 22
17.050010909841451
 32
0.0
 13
67.487141290949879
 23
17.050010909841451
 33
0.0
210
0.0
220
0.0
230
1.0
  0
SOLID
  5
612
  8
DRG
  6
CONTINUOUS
 62
     7
 10
69.762414043843989
 20
18.479659535054122
 30
0.0
 11
48.986604771783632
 21
18.479659535054068
 31
0.0
 12
67.487141290949879
 22
17.050010909841451
 32
0.0
 13
67.487141290949879
 23
17.050010909841451
 33
0.0
210
0.0
220
0.0
230
1.0
  0
SOLID
  5
613
  8
DRG
  6
CONTINUOUS
 62
     7
 10
166.57416231610941
 20
18.479659535054122
 30
0.0
 11
148.07362579694311
 21
17.050010909841451
 31
0.0
 12
164.29888956321531
 22
17.050010909841451
 32
0.0
 13
164.29888956321531
 23
17.050010909841451
 33
0.0
210
0.0
220
0.0
230
1.0
  0
SOLID
  5
614
  8
DRG
  6
CONTINUOUS
 62
     7
 10
145.79835304404901
 20
18.479659535054122
 30
0.0
 11
148.07362579694311
 21
17.050010909841451
 31
0.0
 12
166.57416231610941
 22
18.479659535054122
 32
0.0
 13
166.57416231610941
 23
18.479659535054122
 33
0.0
210
0.0
220
0.0
230
1.0
  0
SOLID
  5
615
  8
DRG
  6
CONTINUOUS
 62
     7
 10
85.398663329684837
 20
18.95474449545469
 30
0.0
 11
87.597152072902304
 21
17.71482672944132
 31
0.0
 12
94.991749269489972
 22
17.839408458597301
 32
0.0
 13
94.991749269489972
 23
17.839408458597301
 33
0.0
210
0.0
220
0.0
230
1.0
  0
SOLID
  5
616
  8
DRG
  6
CONTINUOUS
 62
     7
 10
97.893803852853168
 20
19.013301104321851
 30
0.0
 11
85.398663329684837
 21
18.95474449545469
 31
0.0
 12
94.991749269489972
 22
17.839408458597301
 32
0.0
 13
94.991749269489972
 23
17.839408458597301
 33
0.0
210
0.0
220
0.0
230
1.0
  0
SOLID
  5
617
  8
DRG
  6
CONTINUOUS
 62
     7
 10
15.68821754148445
 20
19.434178489748358
 30
0.0
 11
18.58303542025671
 21
18.945146626805109
 31
0.0
 12
20.932030560438331
 22
19.29078972041172
 32
0.0
 13
20.932030560438331
 23
19.29078972041172
 33
0.0
210
0.0
220
0.0
230
1.0
  0
SOLID
  5
618
  8
DRG
  6
CONTINUOUS
 62
     7
 10
102.3181837587821
 20
19.484710699009419
 30
0.0
 11
102.6710305977499
 21
17.89352120355198
 31
0.0
 12
111.8021775281067
 22
17.893521203552009
 32
0.0
 13
111.8021775281067
 23
17.893521203552009
 33
0.0
210
0.0
220
0.0
230
1.0
  0
SOLID
  5
619
  8
DRG
  6
CONTINUOUS
 62
     7
 10
23.111648298363178
 20
20.232338356053141
 30
0.0
 11
15.68821754148445
 21
19.434178489748358
 31
0.0
 12
20.932030560438331
 22
19.29078972041172
 32
0.0
 13
20.932030560438331
 23
19.29078972041172
 33
0.0
210
0.0
220
0.0
230
1.0
  0
SOLID
  5
61A
  8
DRG
  6
CONTINUOUS
 62
     7
 10
47.086504604472083
 20
20.37975970236559
 30
0.0
 11
48.986604771783632
 21
18.479659535054068
 31
0.0
 12
69.762414043843989
 22
18.479659535054122
 32
0.0
 13
69.762414043843989
 23
18.479659535054122
 33
0.0
210
0.0
220
0.0
230
1.0
  0
SOLID
  5
61B
  8
DRG
  6
CONTINUOUS
 62
     7
 10
168.474262483421
 20
20.379759702365671
 30
0.0
 11
145.79835304404901
 21
18.479659535054122
 31
0.0
 12
166.57416231610941
 22
18.479659535054122
 32
0.0
 13
166.57416231610941
 23
18.479659535054122
 33
0.0
210
0.0
220
0.0
230
1.0
  0
SOLID
  5
61C
  8
DRG
  6
CONTINUOUS
 62
     7
 10
71.662514211155525
 20
20.379759702365671
 30
0.0
 11
47.086504604472083
 21
20.37975970236559
 31
0.0
 12
69.762414043843989
 22
18.479659535054122
 32
0.0
 13
69.762414043843989
 23
18.479659535054122
 33
0.0
210
0.0
220
0.0
230
1.0
  0
SOLID
  5
61D
  8
DRG
  6
CONTINUOUS
 62
     7
 10
143.89825287673739
 20
20.379759702365678
 30
0.0
 11
145.79835304404901
 21
18.479659535054122
 31
0.0
 12
168.474262483421
 22
20.379759702365671
 32
0.0
 13
168.474262483421
 23
20.379759702365671
 33
0.0
  0
SOLID
  5
61E
  8
DRG
  6
CONTINUOUS
 62
     7
 10
12.996201983781489
 20
20.605577205523002
 30
0.0
 11
15.68821754148445
 21
19.434178489748358
 31
0.0
 12
23.111648298363178
 22
20.232338356053141
 32
0.0
 13
23.111648298363178
 23
20.232338356053141
 33
0.0
210
0.0
220
0.0
230
1.0
  0
SOLID
  5
61F
  8
DRG
  6
CONTINUOUS
 62
     7
 10
111.2870334115631
 20
20.69438210209054
 30
0.0
 11
102.3181837587821
 21
19.484710699009419
 31
0.0
 12
111.8021775281067
 22
17.893521203552009
 32
0.0
 13
111.8021775281067
 23
17.893521203552009
 33
0.0
210
0.0
220
0.0
230
1.0
  0
SOLID
  5
620
  8
DRG
  6
CONTINUOUS
 62
     7
 10
83.724920350627414
 20
20.818044783243639
 30
0.0
 11
85.398663329684837
 21
18.95474449545469
 31
0.0
 12
97.893803852853168
 22
19.013301104321851
 32
0.0
 13
97.893803852853168
 23
19.013301104321851
 33
0.0
  0
SOLID
  5
621
  8
DRG
  6
CONTINUOUS
 62
     7
 10
100.3384587128772
 20
20.968705759084241
 30
0.0
 11
83.724920350627414
 21
20.818044783243639
 31
0.0
 12
97.893803852853168
 22
19.013301104321851
 32
0.0
 13
97.893803852853168
 23
19.013301104321851
 33
0.0
210
0.0
220
0.0
230
1.0
  0
SOLID
  5
622
  8
DRG
  6
CONTINUOUS
 62
     7
 10
102.1211660476033
 20
21.102600968374279
 30
0.0
 11
102.3181837587821
 21
19.484710699009419
 31
0.0
 12
111.2870334115631
 22
20.69438210209054
 32
0.0
 13
111.2870334115631
 23
20.69438210209054
 33
0.0
210
0.0
220
0.0
230
1.0
  0
SOLID
  5
623
  8
DRG
  6
CONTINUOUS
 62
     7
 10
24.97349704072932
 20
21.705690512635009
 30
0.0
 11
12.996201983781489
 21
20.605577205523002
 31
0.0
 12
23.111648298363178
 22
20.232338356053141
 32
0.0
 13
23.111648298363178
 23
20.232338356053141
 33
0.0
210
0.0
220
0.0
230
1.0
  0
SOLID
  5
624
  8
DRG
  6
CONTINUOUS
 62
     7
 10
10.665263297999569
 20
22.390471476161601
 30
0.0
 11
12.996201983781489
 21
20.605577205523002
 31
0.0
 12
24.97349704072932
 22
21.705690512635009
 32
0.0
 13
24.97349704072932
 23
21.705690512635009
 33
0.0
210
0.0
220
0.0
230
1.0
  0
SOLID
  5
625
  8
DRG
  6
CONTINUOUS
 62
     7
 10
45.656855979259397
 20
22.655032455259661
 30
0.0
 11
47.086504604472083
 21
20.37975970236559
 31
0.0
 12
71.662514211155525
 22
20.379759702365671
 32
0.0
 13
71.662514211155525
 23
20.379759702365671
 33
0.0
  0
SOLID
  5
626
  8
DRG
  6
CONTINUOUS
 62
     7
 10
73.092162836368203
 20
22.655032455259779
 30
0.0
 11
45.656855979259397
 21
22.655032455259661
 31
0.0
 12
71.662514211155525
 22
20.379759702365671
 32
0.0
 13
71.662514211155525
 23
20.379759702365671
 33
0.0
210
0.0
220
0.0
230
1.0
  0
SOLID
  5
627
  8
DRG
  6
CONTINUOUS
 62
     7
 10
169.90391110863371
 20
22.655032455259779
 30
0.0
 11
143.89825287673739
 21
20.379759702365678
 31
0.0
 12
168.474262483421
 22
20.379759702365671
 32
0.0
 13
168.474262483421
 23
20.379759702365671
 33
0.0
  0
SOLID
  5
628
  8
DRG
  6
CONTINUOUS
 62
     7
 10
142.46860425152479
 20
22.655032455259779
 30
0.0
 11
143.89825287673739
 21
20.379759702365678
 31
0.0
 12
169.90391110863371
 22
22.655032455259779
 32
0.0
 13
169.90391110863371
 23
22.655032455259779
 33
0.0
  0
SOLID
  5
629
  8
DRG
  6
CONTINUOUS
 62
     7
 10
82.474422287265327
 20
22.98819641756462
 30
0.0
 11
83.724920350627414
 21
20.818044783243639
 31
0.0
 12
100.3384587128772
 22
20.968705759084241
 32
0.0
 13
100.3384587128772
 23
20.968705759084241
 33
0.0
210
0.0
220
0.0
230
1.0
  0
SOLID
  5
62A
  8
DRG
  6
CONTINUOUS
 62
     7
 10
111.2523129779601
 20
23.54201089202471
 30
0.0
 11
102.1211660476033
 21
21.102600968374279
 31
0.0
 12
111.2870334115631
 22
20.69438210209054
 32
0.0
 13
111.2870334115631
 23
20.69438210209054
 33
0.0
210
0.0
220
0.0
230
1.0
  0
SOLID
  5
62B
  8
DRG
  6
CONTINUOUS
 62
     7
 10
102.1211660476033
 20
23.542010892025001
 30
0.0
 11
82.474422287265327
 21
22.98819641756462
 31
0.0
 12
100.3384587128772
 22
20.968705759084241
 32
0.0
 13
100.3384587128772
 23
20.968705759084241
 33
0.0
210
0.0
220
0.0
230
1.0
  0
SOLID
  5
62C
  8
DRG
  6
CONTINUOUS
 62
     7
 10
102.1211660476033
 20
23.542010892025001
 30
0.0
 11
102.1211660476033
 21
21.102600968374279
 31
0.0
 12
111.2523129779601
 22
23.54201089202471
 32
0.0
 13
111.2523129779601
 23
23.54201089202471
 33
0.0
210
0.0
220
0.0
230
1.0
  0
SOLID
  5
62D
  8
DRG
  6
CONTINUOUS
 62
     7
 10
26.390819376565261
 20
23.61053820027184
 30
0.0
 11
10.665263297999569
 21
22.390471476161601
 31
0.0
 12
24.97349704072932
 22
21.705690512635009
 32
0.0
 13
24.97349704072932
 23
21.705690512635009
 33
0.0
210
0.0
220
0.0
230
1.0
  0
SOLID
  5
62E
  8
DRG
  6
CONTINUOUS
 62
     7
 10
95.863486513980718
 20
23.758749615986972
 30
0.0
 11
102.1211660476033
 21
23.542010892025001
 31
0.0
 12
111.2523129779601
 22
23.54201089202471
 32
0.0
 13
111.2523129779601
 23
23.54201089202471
 33
0.0
210
0.0
220
0.0
230
1.0
  0
SOLID
  5
62F
  8
DRG
  6
CONTINUOUS
 62
     7
 10
95.863486513980718
 20
23.758749615986972
 30
0.0
 11
82.474422287265327
 21
22.98819641756462
 31
0.0
 12
102.1211660476033
 22
23.542010892025001
 32
0.0
 13
102.1211660476033
 23
23.542010892025001
 33
0.0
210
0.0
220
0.0
230
1.0
  0
SOLID
  5
630
  8
DRG
  6
CONTINUOUS
 62
     7
 10
156.18625891463009
 20
23.758749615986972
 30
0.0
 11
142.46860425152479
 21
22.655032455259779
 31
0.0
 12
169.90391110863371
 22
22.655032455259779
 32
0.0
 13
169.90391110863371
 23
22.655032455259779
 33
0.0
210
0.0
220
0.0
230
1.0
  0
SOLID
  5
631
  8
DRG
  6
CONTINUOUS
 62
     7
 10
59.374510642364612
 20
23.758749615986979
 30
0.0
 11
45.656855979259397
 21
22.655032455259661
 31
0.0
 12
73.092162836368203
 22
22.655032455259779
 32
0.0
 13
73.092162836368203
 23
22.655032455259779
 33
0.0
210
0.0
220
0.0
230
1.0
  0
SOLID
  5
632
  8
DRG
  6
CONTINUOUS
 62
     7
 10
154.70864190489121
 20
24.052665913474581
 30
0.0
 11
142.46860425152479
 21
22.655032455259779
 31
0.0
 12
156.18625891463009
 22
23.758749615986972
 32
0.0
 13
156.18625891463009
 23
23.758749615986972
 33
0.0
210
0.0
220
0.0
230
1.0
  0
SOLID
  5
633
  8
DRG
  6
CONTINUOUS
 62
     7
 10
157.66387592436891
 20
24.052665913474581
 30
0.0
 11
156.18625891463009
 21
23.758749615986972
 31
0.0
 12
169.90391110863371
 22
22.655032455259779
 32
0.0
 13
169.90391110863371
 23
22.655032455259779
 33
0.0
210
0.0
220
0.0
230
1.0
  0
SOLID
  5
634
  8
DRG
  6
CONTINUOUS
 62
     7
 10
57.896893632625734
 20
24.052665913474591
 30
0.0
 11
45.656855979259397
 21
22.655032455259661
 31
0.0
 12
59.374510642364612
 22
23.758749615986979
 32
0.0
 13
59.374510642364612
 23
23.758749615986979
 33
0.0
210
0.0
220
0.0
230
1.0
  0
SOLID
  5
635
  8
DRG
  6
CONTINUOUS
 62
     7
 10
60.852127652103491
 20
24.052665913474591
 30
0.0
 11
59.374510642364612
 21
23.758749615986979
 31
0.0
 12
73.092162836368203
 22
22.655032455259779
 32
0.0
 13
73.092162836368203
 23
22.655032455259779
 33
0.0
210
0.0
220
0.0
230
1.0
  0
SOLID
  5
636
  8
DRG
  6
CONTINUOUS
 62
     7
 10
94.385869504241896
 20
24.05266591347463
 30
0.0
 11
82.474422287265327
 21
22.98819641756462
 31
0.0
 12
95.863486513980718
 22
23.758749615986972
 32
0.0
 13
95.863486513980718
 23
23.758749615986972
 33
0.0
210
0.0
220
0.0
230
1.0
  0
SOLID
  5
637
  8
DRG
  6
CONTINUOUS
 62
     7
 10
97.67821582604607
 20
24.148284466582719
 30
0.0
 11
95.863486513980718
 21
23.758749615986972
 31
0.0
 12
111.2523129779601
 22
23.54201089202471
 32
0.0
 13
111.2523129779601
 23
23.54201089202471
 33
0.0
210
0.0
220
0.0
230
1.0
  0
SOLID
  5
638
  8
DRG
  6
CONTINUOUS
 62
     7
 10
8.8324468561460741
 20
24.6839201031652
 30
0.0
 11
10.665263297999569
 21
22.390471476161601
 31
0.0
 12
26.390819376565261
 22
23.61053820027184
 32
0.0
 13
26.390819376565261
 23
23.61053820027184
 33
0.0
210
0.0
220
0.0
230
1.0
  0
SOLID
  5
639
  8
DRG
  6
CONTINUOUS
 62
     7
 10
153.45597869025349
 20
24.889668714002799
 30
0.0
 11
142.46860425152479
 21
22.655032455259779
 31
0.0
 12
154.70864190489121
 22
24.052665913474581
 32
0.0
 13
154.70864190489121
 23
24.052665913474581
 33
0.0
210
0.0
220
0.0
230
1.0
  0
SOLID
  5
63A
  8
DRG
  6
CONTINUOUS
 62
     7
 10
158.9165391390066
 20
24.889668714002799
 30
0.0
 11
157.66387592436891
 21
24.052665913474581
 31
0.0
 12
169.90391110863371
 22
22.655032455259779
 32
0.0
 13
169.90391110863371
 23
22.655032455259779
 33
0.0
210
0.0
220
0.0
230
1.0
  0
SOLID
  5
63B
  8
DRG
  6
CONTINUOUS
 62
     7
 10
56.644230417988048
 20
24.889668714002809
 30
0.0
 11
45.656855979259397
 21
22.655032455259661
 31
0.0
 12
57.896893632625734
 22
24.052665913474591
 32
0.0
 13
57.896893632625734
 23
24.052665913474591
 33
0.0
210
0.0
220
0.0
230
1.0
  0
SOLID
  5
63C
  8
DRG
  6
CONTINUOUS
 62
     7
 10
62.104790866741169
 20
24.889668714002809
 30
0.0
 11
60.852127652103491
 21
24.052665913474591
 31
0.0
 12
73.092162836368203
 22
22.655032455259779
 32
0.0
 13
73.092162836368203
 23
22.655032455259779
 33
0.0
210
0.0
220
0.0
230
1.0
  0
SOLID
  5
63D
  8
DRG
  6
CONTINUOUS
 62
     7
 10
93.13320628960426
 20
24.889668714002859
 30
0.0
 11
82.474422287265327
 21
22.98819641756462
 31
0.0
 12
94.385869504241896
 22
24.05266591347463
 32
0.0
 13
94.385869504241896
 23
24.05266591347463
 33
0.0
210
0.0
220
0.0
230
1.0
  0
SOLID
  5
63E
  8
DRG
  6
CONTINUOUS
 62
     7
 10
99.286329246363479
 20
25.075080616387432
 30
0.0
 11
97.67821582604607
 21
24.148284466582719
 31
0.0
 12
111.2523129779601
 22
23.54201089202471
 32
0.0
 13
111.2523129779601
 23
23.54201089202471
 33
0.0
210
0.0
220
0.0
230
1.0
  0
SOLID
  5
63F
  8
DRG
  6
CONTINUOUS
 62
     7
 10
44.769347447906519
 20
25.191386117194551
 30
0.0
 11
45.656855979259397
 21
22.655032455259661
 31
0.0
 12
56.644230417988048
 22
24.889668714002809
 32
0.0
 13
56.644230417988048
 23
24.889668714002809
 33
0.0
210
0.0
220
0.0
230
1.0
  0
SOLID
  5
640
  8
DRG
  6
CONTINUOUS
 62
     7
 10
170.79141963998649
 20
25.1913861171947
 30
0.0
 11
158.9165391390066
 21
24.889668714002799
 31
0.0
 12
169.90391110863371
 22
22.655032455259779
 32
0.0
 13
169.90391110863371
 23
22.655032455259779
 33
0.0
210
0.0
220
0.0
230
1.0
  0
SOLID
  5
641
  8
DRG
  6
CONTINUOUS
 62
     7
 10
73.979671367721053
 20
25.1913861171947
 30
0.0
 11
62.104790866741169
 21
24.889668714002809
 31
0.0
 12
73.092162836368203
 22
22.655032455259779
 32
0.0
 13
73.092162836368203
 23
22.655032455259779
 33
0.0
210
0.0
220
0.0
230
1.0
  0
SOLID
  5
642
  8
DRG
  6
CONTINUOUS
 62
     7
 10
141.5810957201719
 20
25.19138611719471
 30
0.0
 11
142.46860425152479
 21
22.655032455259779
 31
0.0
 12
153.45597869025349
 22
24.889668714002799
 32
0.0
 13
153.45597869025349
 23
24.889668714002799
 33
0.0
  0
SOLID
  5
643
  8
DRG
  6
CONTINUOUS
 62
     7
 10
81.701646597276806
 20
25.370657593613689
 30
0.0
 11
82.474422287265327
 21
22.98819641756462
 31
0.0
 12
93.13320628960426
 22
24.889668714002859
 32
0.0
 13
93.13320628960426
 23
24.889668714002859
 33
0.0
210
0.0
220
0.0
230
1.0
  0
SOLID
  5
644
  8
DRG
  6
CONTINUOUS
 62
     7
 10
22.683854862926161
 20
25.455509253088579
 30
0.0
 11
8.8324468561460741
 21
24.6839201031652
 31
0.0
 12
26.390819376565261
 22
23.61053820027184
 32
0.0
 13
26.390819376565261
 23
23.61053820027184
 33
0.0
210
0.0
220
0.0
230
1.0
  0
SOLID
  5
645
  8
DRG
  6
CONTINUOUS
 62
     7
 10
21.06007747620443
 20
25.668921983045841
 30
0.0
 11
8.8324468561460741
 21
24.6839201031652
 31
0.0
 12
22.683854862926161
 22
25.455509253088579
 32
0.0
 13
22.683854862926161
 23
25.455509253088579
 33
0.0
210
0.0
220
0.0
230
1.0
  0
SOLID
  5
646
  8
DRG
  6
CONTINUOUS
 62
     7
 10
27.267121908897021
 20
25.817196576320061
 30
0.0
 11
22.683854862926161
 21
25.455509253088579
 31
0.0
 12
26.390819376565261
 22
23.61053820027184
 32
0.0
 13
26.390819376565261
 23
23.61053820027184
 33
0.0
210
0.0
220
0.0
230
1.0
  0
SOLID
  5
647
  8
DRG
  6
CONTINUOUS
 62
     7
 10
27.267121908897021
 20
25.817196576320061
 30
0.0
 11
27.267121908897021
 21
13.51984597021351
 31
0.0
 12
37.639779947293839
 22
13.760967175618781
 32
0.0
 13
37.639779947293839
 23
13.760967175618781
 33
0.0
  0
SOLID
  5
648
  8
DRG
  6
CONTINUOUS
 62
     7
 10
152.61897588972531
 20
26.14233192864048
 30
0.0
 11
141.5810957201719
 21
25.19138611719471
 31
0.0
 12
153.45597869025349
 22
24.889668714002799
 32
0.0
 13
153.45597869025349
 23
24.889668714002799
 33
0.0
210
0.0
220
0.0
230
1.0
  0
SOLID
  5
649
  8
DRG
  6
CONTINUOUS
 62
     7
 10
159.7535419395349
 20
26.14233192864048
 30
0.0
 11
158.9165391390066
 21
24.889668714002799
 31
0.0
 12
170.79141963998649
 22
25.1913861171947
 32
0.0
 13
170.79141963998649
 23
25.1913861171947
 33
0.0
210
0.0
220
0.0
230
1.0
  0
SOLID
  5
64A
  8
DRG
  6
CONTINUOUS
 62
     7
 10
55.80722761745983
 20
26.142331928640491
 30
0.0
 11
44.769347447906519
 21
25.191386117194551
 31
0.0
 12
56.644230417988048
 22
24.889668714002809
 32
0.0
 13
56.644230417988048
 23
24.889668714002809
 33
0.0
210
0.0
220
0.0
230
1.0
  0
SOLID
  5
64B
  8
DRG
  6
CONTINUOUS
 62
     7
 10
62.941793667269401
 20
26.142331928640491
 30
0.0
 11
62.104790866741169
 21
24.889668714002809
 31
0.0
 12
73.979671367721053
 22
25.1913861171947
 32
0.0
 13
73.979671367721053
 23
25.1913861171947
 33
0.0
210
0.0
220
0.0
230
1.0
  0
SOLID
  5
64C
  8
DRG
  6
CONTINUOUS
 62
     7
 10
92.296203489076092
 20
26.14233192864052
 30
0.0
 11
81.701646597276806
 21
25.370657593613689
 31
0.0
 12
93.13320628960426
 22
24.889668714002859
 32
0.0
 13
93.13320628960426
 23
24.889668714002859
 33
0.0
210
0.0
220
0.0
230
1.0
  0
SOLID
  5
64D
  8
DRG
  6
CONTINUOUS
 62
     7
 10
19.578817635304372
 20
26.367540103819518
 30
0.0
 11
8.8324468561460741
 21
24.6839201031652
 31
0.0
 12
21.06007747620443
 22
25.668921983045841
 32
0.0
 13
21.06007747620443
 23
25.668921983045841
 33
0.0
210
0.0
220
0.0
230
1.0
  0
SOLID
  5
64E
  8
DRG
  6
CONTINUOUS
 62
     7
 10
24.679246464695101
 20
26.372355404399901
 30
0.0
 11
22.683854862926161
 21
25.455509253088579
 31
0.0
 12
27.267121908897021
 22
25.817196576320061
 32
0.0
 13
27.267121908897021
 23
25.817196576320061
 33
0.0
210
0.0
220
0.0
230
1.0
  0
SOLID
  5
64F
  8
DRG
  6
CONTINUOUS
 62
     7
 10
100.5331576485324
 20
26.449998363542679
 30
0.0
 11
99.286329246363479
 21
25.075080616387432
 31
0.0
 12
111.2523129779601
 22
23.54201089202471
 32
0.0
 13
111.2523129779601
 23
23.54201089202471
 33
0.0
  0
SOLID
  5
650
  8
DRG
  6
CONTINUOUS
 62
     7
 10
7.6055113962037586
 20
27.351081907662518
 30
0.0
 11
8.8324468561460741
 21
24.6839201031652
 31
0.0
 12
19.578817635304372
 22
26.367540103819518
 32
0.0
 13
19.578817635304372
 23
26.367540103819518
 33
0.0
210
0.0
220
0.0
230
1.0
  0
SOLID
  5
651
  8
DRG
  6
CONTINUOUS
 62
     7
 10
18.3813068076863
 20
27.48475351793256
 30
0.0
 11
7.6055113962037586
 21
27.351081907662518
 31
0.0
 12
19.578817635304372
 22
26.367540103819518
 32
0.0
 13
19.578817635304372
 23
26.367540103819518
 33
0.0
  0
SOLID
  5
652
  8
DRG
  6
CONTINUOUS
 62
     7
 10
152.32505959223769
 20
27.619948938379359
 30
0.0
 11
141.5810957201719
 21
25.19138611719471
 31
0.0
 12
152.61897588972531
 22
26.14233192864048
 32
0.0
 13
152.61897588972531
 23
26.14233192864048
 33
0.0
210
0.0
220
0.0
230
1.0
  0
SOLID
  5
653
  8
DRG
  6
CONTINUOUS
 62
     7
 10
92.002287191588479
 20
27.619948938379359
 30
0.0
 11
81.701646597276806
 21
25.370657593613689
 31
0.0
 12
92.296203489076092
 22
26.14233192864052
 32
0.0
 13
92.296203489076092
 23
26.14233192864052
 33
0.0
210
0.0
220
0.0
230
1.0
  0
SOLID
  5
654
  8
DRG
  6
CONTINUOUS
 62
     7
 10
160.04745823702251
 20
27.619948938379359
 30
0.0
 11
159.7535419395349
 21
26.14233192864048
 31
0.0
 12
170.79141963998649
 22
25.1913861171947
 32
0.0
 13
170.79141963998649
 23
25.1913861171947
 33
0.0
210
0.0
220
0.0
230
1.0
  0
SOLID
  5
655
  8
DRG
  6
CONTINUOUS
 62
     7
 10
55.513311319972217
 20
27.61994893837937
 30
0.0
 11
44.769347447906519
 21
25.191386117194551
 31
0.0
 12
55.80722761745983
 22
26.142331928640491
 32
0.0
 13
55.80722761745983
 23
26.142331928640491
 33
0.0
210
0.0
220
0.0
230
1.0
  0
SOLID
  5
656
  8
DRG
  6
CONTINUOUS
 62
     7
 10
63.235709964757007
 20
27.61994893837937
 30
0.0
 11
62.941793667269401
 21
26.142331928640491
 31
0.0
 12
73.979671367721053
 22
25.1913861171947
 32
0.0
 13
73.979671367721053
 23
25.1913861171947
 33
0.0
210
0.0
220
0.0
230
1.0
  0
SOLID
  5
657
  8
DRG
  6
CONTINUOUS
 62
     7
 10
44.468482394088362
 20
27.861637324670291
 30
0.0
 11
44.769347447906519
 21
25.191386117194551
 31
0.0
 12
55.513311319972217
 22
27.61994893837937
 32
0.0
 13
55.513311319972217
 23
27.61994893837937
 33
0.0
210
0.0
220
0.0
230
1.0
  0
SOLID
  5
658
  8
DRG
  6
CONTINUOUS
 62
     7
 10
171.0922846938046
 20
27.861637324670479
 30
0.0
 11
160.04745823702251
 21
27.619948938379359
 31
0.0
 12
170.79141963998649
 22
25.1913861171947
 32
0.0
 13
170.79141963998649
 23
25.1913861171947
 33
0.0
  0
SOLID
  5
659
  8
DRG
  6
CONTINUOUS
 62
     7
 10
74.280536421539182
 20
27.861637324670479
 30
0.0
 11
63.235709964757007
 21
27.61994893837937
 31
0.0
 12
73.979671367721053
 22
25.1913861171947
 32
0.0
 13
73.979671367721053
 23
25.1913861171947
 33
0.0
210
0.0
220
0.0
230
1.0
  0
SOLID
  5
65A
  8
DRG
  6
CONTINUOUS
 62
     7
 10
141.28023066635379
 20
27.861637324670479
 30
0.0
 11
141.5810957201719
 21
25.19138611719471
 31
0.0
 12
152.32505959223769
 22
27.619948938379359
 32
0.0
 13
152.32505959223769
 23
27.619948938379359
 33
0.0
  0
SOLID
  5
65B
  8
DRG
  6
CONTINUOUS
 62
     7
 10
81.440258950509346
 20
27.861637324670479
 30
0.0
 11
81.701646597276806
 21
25.370657593613689
 31
0.0
 12
92.002287191588479
 22
27.619948938379359
 32
0.0
 13
92.002287191588479
 23
27.619948938379359
 33
0.0
210
0.0
220
0.0
230
1.0
  0
SOLID
  5
65C
  8
DRG
  6
CONTINUOUS
 62
     7
 10
26.241246459003619
 20
27.915841888747771
 30
0.0
 11
24.679246464695101
 21
26.372355404399901
 31
0.0
 12
27.267121908897021
 22
25.817196576320061
 32
0.0
 13
27.267121908897021
 23
25.817196576320061
 33
0.0
210
0.0
220
0.0
230
1.0
  0
SOLID
  5
65D
  8
DRG
  6
CONTINUOUS
 62
     7
 10
26.241246459003619
 20
27.915841888747771
 30
0.0
 11
27.267121908897021
 21
25.817196576320061
 31
0.0
 12
37.639779947293839
 22
13.760967175618781
 32
0.0
 13
37.639779947293839
 23
13.760967175618781
 33
0.0
210
0.0
220
0.0
230
1.0
  0
SOLID
  5
65E
  8
DRG
  6
CONTINUOUS
 62
     7
 10
101.2987804739044
 20
28.140797454259019
 30
0.0
 11
100.5331576485324
 21
26.449998363542679
 31
0.0
 12
111.2523129779601
 22
23.54201089202471
 32
0.0
 13
111.2523129779601
 23
23.54201089202471
 33
0.0
210
0.0
220
0.0
230
1.0
  0
SOLID
  5
65F
  8
DRG
  6
CONTINUOUS
 62
     7
 10
17.581722267866311
 20
28.914040948303899
 30
0.0
 11
7.6055113962037586
 21
27.351081907662518
 31
0.0
 12
18.3813068076863
 22
27.48475351793256
 32
0.0
 13
18.3813068076863
 23
27.48475351793256
 33
0.0
210
0.0
220
0.0
230
1.0
  0
SOLID
  5
660
  8
DRG
  6
CONTINUOUS
 62
     7
 10
160.04745823702251
 20
29.300230626583549
 30
0.0
 11
160.04745823702251
 21
27.619948938379359
 31
0.0
 12
171.0922846938046
 22
27.861637324670479
 32
0.0
 13
171.0922846938046
 23
27.861637324670479
 33
0.0
210
0.0
220
0.0
230
1.0
  0
SOLID
  5
661
  8
DRG
  6
CONTINUOUS
 62
     7
 10
27.181817847379151
 20
29.900160404751109
 30
0.0
 11
26.241246459003619
 21
27.915841888747771
 31
0.0
 12
37.639779947293839
 22
13.760967175618781
 32
0.0
 13
37.639779947293839
 23
13.760967175618781
 33
0.0
210
0.0
220
0.0
230
1.0
  0
SOLID
  5
662
  8
DRG
  6
CONTINUOUS
 62
     7
 10
152.32505959223769
 20
29.959298931438969
 30
0.0
 11
141.28023066635379
 21
27.861637324670479
 31
0.0
 12
152.32505959223769
 22
27.619948938379359
 32
0.0
 13
152.32505959223769
 23
27.619948938379359
 33
0.0
210
0.0
220
0.0
230
1.0
  0
SOLID
  5
663
  8
DRG
  6
CONTINUOUS
 62
     7
 10
141.28023066635379
 20
29.95929893143898
 30
0.0
 11
141.28023066635379
 21
27.861637324670479
 31
0.0
 12
152.32505959223769
 22
29.959298931438969
 32
0.0
 13
152.32505959223769
 23
29.959298931438969
 33
0.0
210
0.0
220
0.0
230
1.0
  0
SOLID
  5
664
  8
DRG
  6
CONTINUOUS
 62
     7
 10
171.0922846938046
 20
29.95929893143904
 30
0.0
 11
160.04745823702251
 21
29.300230626583549
 31
0.0
 12
171.0922846938046
 22
27.861637324670479
 32
0.0
 13
171.0922846938046
 23
27.861637324670479
 33
0.0
210
0.0
220
0.0
230
1.0
  0
SOLID
  5
665
  8
DRG
  6
CONTINUOUS
 62
     7
 10
101.5095597489034
 20
29.984856014372749
 30
0.0
 11
101.2987804739044
 21
28.140797454259019
 31
0.0
 12
111.2523129779601
 22
23.54201089202471
 32
0.0
 13
111.2523129779601
 23
23.54201089202471
 33
0.0
210
0.0
220
0.0
230
1.0
  0
SOLID
  5
666
  8
DRG
  6
CONTINUOUS
 62
     7
 10
7.0565934473582743
 20
30.23514359210488
 30
0.0
 11
7.6055113962037586
 21
27.351081907662518
 31
0.0
 12
17.581722267866311
 22
28.914040948303899
 32
0.0
 13
17.581722267866311
 23
28.914040948303899
 33
0.0
210
0.0
220
0.0
230
1.0
  0
SOLID
  5
667
  8
DRG
  6
CONTINUOUS
 62
     7
 10
17.256300807526252
 20
30.5191262631974
 30
0.0
 11
7.0565934473582743
 21
30.23514359210488
 31
0.0
 12
17.581722267866311
 22
28.914040948303899
 32
0.0
 13
17.581722267866311
 23
28.914040948303899
 33
0.0
210
0.0
220
0.0
230
1.0
  0
SOLID
  5
668
  8
DRG
  6
CONTINUOUS
 62
     7
 10
63.235709964757
 20
30.81688778835381
 30
0.0
 11
63.235709964757007
 21
27.61994893837937
 31
0.0
 12
74.280536421539182
 22
27.861637324670479
 32
0.0
 13
74.280536421539182
 23
27.861637324670479
 33
0.0
210
0.0
220
0.0
230
1.0
  0
SOLID
  5
669
  8
DRG
  6
CONTINUOUS
 62
     7
 10
74.280536421539196
 20
30.816887788353831
 30
0.0
 11
63.235709964757
 21
30.81688778835381
 31
0.0
 12
74.280536421539182
 22
27.861637324670479
 32
0.0
 13
74.280536421539182
 23
27.861637324670479
 33
0.0
210
0.0
220
0.0
230
1.0
  0
SOLID
  5
66A
  8
DRG
  6
CONTINUOUS
 62
     7
 10
159.01581968400799
 20
30.996563617445211
 30
0.0
 11
160.04745823702251
 21
29.300230626583549
 31
0.0
 12
171.0922846938046
 22
29.95929893143904
 32
0.0
 13
171.0922846938046
 23
29.95929893143904
 33
0.0
210
0.0
220
0.0
230
1.0
  0
SOLID
  5
66B
  8
DRG
  6
CONTINUOUS
 62
     7
 10
27.387732575171409
 20
32.086434320449378
 30
0.0
 11
27.181817847379151
 21
29.900160404751109
 31
0.0
 12
37.639779947293839
 22
13.760967175618781
 32
0.0
 13
37.639779947293839
 23
13.760967175618781
 33
0.0
210
0.0
220
0.0
230
1.0
  0
SOLID
  5
66C
  8
DRG
  6
CONTINUOUS
 62
     7
 10
157.53297815821909
 20
32.316792661720299
 30
0.0
 11
159.01581968400799
 21
30.996563617445211
 31
0.0
 12
171.0922846938046
 22
29.95929893143904
 32
0.0
 13
171.0922846938046
 23
29.95929893143904
 33
0.0
210
0.0
220
0.0
230
1.0
  0
SOLID
  5
66D
  8
DRG
  6
CONTINUOUS
 62
     7
 10
81.440258950509346
 20
32.349374231810209
 30
0.0
 11
81.440258950509346
 21
27.861637324670479
 31
0.0
 12
92.002287191588479
 22
27.619948938379359
 32
0.0
 13
92.002287191588479
 23
27.619948938379359
 33
0.0
210
0.0
220
0.0
230
1.0
  0
SOLID
  5
66E
  8
DRG
  6
CONTINUOUS
 62
     7
 10
170.47732661026529
 20
32.356132664391282
 30
0.0
 11
157.53297815821909
 21
32.316792661720299
 31
0.0
 12
171.0922846938046
 22
29.95929893143904
 32
0.0
 13
171.0922846938046
 23
29.95929893143904
 33
0.0
210
0.0
220
0.0
230
1.0
  0
SOLID
  5
66F
  8
DRG
  6
CONTINUOUS
 62
     7
 10
92.002287191588479
 20
33.041326503689838
 30
0.0
 11
81.440258950509346
 21
32.349374231810209
 31
0.0
 12
92.002287191588479
 22
27.619948938379359
 32
0.0
 13
92.002287191588479
 23
27.619948938379359
 33
0.0
210
0.0
220
0.0
230
1.0
  0
SOLID
  5
670
  8
DRG
  6
CONTINUOUS
 62
     7
 10
155.72873071743231
 20
33.145354604103439
 30
0.0
 11
157.53297815821909
 21
32.316792661720299
 31
0.0
 12
170.47732661026529
 22
32.356132664391282
 32
0.0
 13
170.47732661026529
 23
32.356132664391282
 33
0.0
210
0.0
220
0.0
230
1.0
  0
SOLID
  5
671
  8
DRG
  6
CONTINUOUS
 62
     7
 10
152.4516822959568
 20
34.180717875305689
 30
0.0
 11
155.72873071743231
 21
33.145354604103439
 31
0.0
 12
170.47732661026529
 22
32.356132664391282
 32
0.0
 13
170.47732661026529
 23
32.356132664391282
 33
0.0
210
0.0
220
0.0
230
1.0
  0
SOLID
  5
672
  8
DRG
  6
CONTINUOUS
 62
     7
 10
169.3838362766385
 20
34.575876856453249
 30
0.0
 11
152.4516822959568
 21
34.180717875305689
 31
0.0
 12
170.47732661026529
 22
32.356132664391282
 32
0.0
 13
170.47732661026529
 23
32.356132664391282
 33
0.0
210
0.0
220
0.0
230
1.0
  0
SOLID
  5
673
  8
DRG
  6
CONTINUOUS
 62
     7
 10
92.821309573647781
 20
34.855023452224977
 30
0.0
 11
81.440258950509346
 21
32.349374231810209
 31
0.0
 12
92.002287191588479
 22
33.041326503689838
 32
0.0
 13
92.002287191588479
 23
33.041326503689838
 33
0.0
210
0.0
220
0.0
230
1.0
  0
SOLID
  5
674
  8
DRG
  6
CONTINUOUS
 62
     7
 10
82.124565023344857
 20
35.167915353955507
 30
0.0
 11
81.440258950509346
 21
32.349374231810209
 31
0.0
 12
92.821309573647781
 22
34.855023452224977
 32
0.0
 13
92.821309573647781
 23
34.855023452224977
 33
0.0
210
0.0
220
0.0
230
1.0
  0
SOLID
  5
675
  8
DRG
  6
CONTINUOUS
 62
     7
 10
55.513311319972232
 20
35.629722934820848
 30
0.0
 11
44.468482394088362
 21
27.861637324670291
 31
0.0
 12
55.513311319972217
 22
27.61994893837937
 32
0.0
 13
55.513311319972217
 23
27.61994893837937
 33
0.0
210
0.0
220
0.0
230
1.0
  0
SOLID
  5
676
  8
DRG
  6
CONTINUOUS
 62
     7
 10
149.39175196581581
 20
35.745278463692301
 30
0.0
 11
152.4516822959568
 21
34.180717875305689
 31
0.0
 12
169.3838362766385
 22
34.575876856453249
 32
0.0
 13
169.3838362766385
 23
34.575876856453249
 33
0.0
  0
SOLID
  5
677
  8
DRG
  6
CONTINUOUS
 62
     7
 10
94.205364320613299
 20
36.284948884141627
 30
0.0
 11
82.124565023344857
 21
35.167915353955507
 31
0.0
 12
92.821309573647781
 22
34.855023452224977
 32
0.0
 13
92.821309573647781
 23
34.855023452224977
 33
0.0
210
0.0
220
0.0
230
1.0
  0
SOLID
  5
678
  8
DRG
  6
CONTINUOUS
 62
     7
 10
44.169020821240288
 20
36.461122307958632
 30
0.0
 11
55.513311319972232
 21
35.629722934820848
 31
0.0
 12
74.280536421539182
 22
35.629722934820848
 32
0.0
 13
74.280536421539182
 23
35.629722934820848
 33
0.0
210
0.0
220
0.0
230
1.0
  0
SOLID
  5
679
  8
DRG
  6
CONTINUOUS
 62
     7
 10
44.169020821240288
 20
36.461122307958632
 30
0.0
 11
44.468482394088362
 21
27.861637324670291
 31
0.0
 12
55.513311319972232
 22
35.629722934820848
 32
0.0
 13
55.513311319972232
 23
35.629722934820848
 33
0.0
210
0.0
220
0.0
230
1.0
  0
SOLID
  5
67A
  8
DRG
  6
CONTINUOUS
 62
     7
 10
167.85830970219251
 20
36.524146360035118
 30
0.0
 11
149.39175196581581
 21
35.745278463692301
 31
0.0
 12
169.3838362766385
 22
34.575876856453249
 32
0.0
 13
169.3838362766385
 23
34.575876856453249
 33
0.0
  0
SOLID
  5
67B
  8
DRG
  6
CONTINUOUS
 62
     7
 10
95.991402974049976
 20
37.162650548643818
 30
0.0
 11
82.124565023344857
 21
35.167915353955507
 31
0.0
 12
94.205364320613299
 22
36.284948884141627
 32
0.0
 13
94.205364320613299
 23
36.284948884141627
 33
0.0
210
0.0
220
0.0
230
1.0
  0
SOLID
  5
67C
  8
DRG
  6
CONTINUOUS
 62
     7
 10
101.5095597489034
 20
37.384730871555568
 30
0.0
 11
101.5095597489034
 21
29.984856014372749
 31
0.0
 12
111.2523129779601
 22
23.54201089202471
 32
0.0
 13
111.2523129779601
 23
23.54201089202471
 33
0.0
210
0.0
220
0.0
230
1.0
  0
SOLID
  5
67D
  8
DRG
  6
CONTINUOUS
 62
     7
 10
83.465136107217845
 20
37.739941408961009
 30
0.0
 11
95.991402974049976
 21
37.162650548643818
 31
0.0
 12
97.969021393668683
 22
37.384730871555568
 32
0.0
 13
97.969021393668683
 23
37.384730871555568
 33
0.0
210
0.0
220
0.0
230
1.0
  0
SOLID
  5
67E
  8
DRG
  6
CONTINUOUS
 62
     7
 10
83.465136107217845
 20
37.739941408961009
 30
0.0
 11
82.124565023344857
 21
35.167915353955507
 31
0.0
 12
95.991402974049976
 22
37.162650548643818
 32
0.0
 13
95.991402974049976
 23
37.162650548643818
 33
0.0
210
0.0
220
0.0
230
1.0
  0
SOLID
  5
67F
  8
DRG
  6
CONTINUOUS
 62
     7
 10
146.63370620049619
 20
37.795694766898073
 30
0.0
 11
149.39175196581581
 21
35.745278463692301
 31
0.0
 12
167.85830970219251
 22
36.524146360035118
 32
0.0
 13
167.85830970219251
 23
36.524146360035118
 33
0.0
210
0.0
220
0.0
230
1.0
  0
SOLID
  5
680
  8
DRG
  6
CONTINUOUS
 62
     7
 10
165.96561339334559
 20
38.118099329982897
 30
0.0
 11
146.63370620049619
 21
37.795694766898073
 31
0.0
 12
167.85830970219251
 22
36.524146360035118
 32
0.0
 13
167.85830970219251
 23
36.524146360035118
 33
0.0
210
0.0
220
0.0
230
1.0
  0
SOLID
  5
681
  8
DRG
  6
CONTINUOUS
 62
     7
 10
6.7865631049779154
 20
38.202265524009427
 30
0.0
 11
7.0565934473582743
 21
30.23514359210488
 31
0.0
 12
17.256300807526252
 22
30.5191262631974
 32
0.0
 13
17.256300807526252
 23
30.5191262631974
 33
0.0
210
0.0
220
0.0
230
1.0
  0
SOLID
  5
682
  8
DRG
  6
CONTINUOUS
 62
     7
 10
163.78622618233979
 20
39.289959719462992
 30
0.0
 11
146.63370620049619
 21
37.795694766898073
 31
0.0
 12
165.96561339334559
 22
38.118099329982897
 32
0.0
 13
165.96561339334559
 23
38.118099329982897
 33
0.0
210
0.0
220
0.0
230
1.0
  0
SOLID
  5
683
  8
DRG
  6
CONTINUOUS
 62
     7
 10
85.383656329320502
 20
39.915195190919967
 30
0.0
 11
83.465136107217845
 21
37.739941408961009
 31
0.0
 12
97.969021393668683
 22
37.384730871555568
 32
0.0
 13
97.969021393668683
 23
37.384730871555568
 33
0.0
210
0.0
220
0.0
230
1.0
  0
SOLID
  5
684
  8
DRG
  6
CONTINUOUS
 62
     7
 10
85.383656329320502
 20
39.915195190919967
 30
0.0
 11
97.969021393668683
 21
37.384730871555568
 31
0.0
 12
101.5095597489034
 22
37.384730871555568
 32
0.0
 13
101.5095597489034
 23
37.384730871555568
 33
0.0
210
0.0
220
0.0
230
1.0
  0
SOLID
  5
685
  8
DRG
  6
CONTINUOUS
 62
     7
 10
161.4128172083947
 20
39.98989916707626
 30
0.0
 11
146.63370620049619
 21
37.795694766898073
 31
0.0
 12
163.78622618233979
 22
39.289959719462992
 32
0.0
 13
163.78622618233979
 23
39.289959719462992
 33
0.0
210
0.0
220
0.0
230
1.0
  0
SOLID
  5
686
  8
DRG
  6
CONTINUOUS
 62
     7
 10
144.25394863930259
 20
40.275165962534743
 30
0.0
 11
146.63370620049619
 21
37.795694766898073
 31
0.0
 12
161.4128172083947
 22
39.98989916707626
 32
0.0
 13
161.4128172083947
 23
39.98989916707626
 33
0.0
  0
SOLID
  5
687
  8
DRG
  6
CONTINUOUS
 62
     7
 10
127.2345352189994
 20
40.740104065808097
 30
0.0
 11
116.19314081319391
 21
17.28637227261407
 31
0.0
 12
127.2345352189994
 22
17.28637227261407
 32
0.0
 13
127.2345352189994
 23
17.28637227261407
 33
0.0
210
0.0
220
0.0
230
1.0
  0
SOLID
  5
688
  8
DRG
  6
CONTINUOUS
 62
     7
 10
158.4712923481795
 20
40.965125441240623
 30
0.0
 11
144.25394863930259
 21
40.275165962534743
 31
0.0
 12
161.4128172083947
 22
39.98989916707626
 32
0.0
 13
161.4128172083947
 23
39.98989916707626
 33
0.0
210
0.0
220
0.0
230
1.0
  0
SOLID
  5
689
  8
DRG
  6
CONTINUOUS
 62
     7
 10
87.768046153177011
 20
41.566598844310953
 30
0.0
 11
85.383656329320502
 21
39.915195190919967
 31
0.0
 12
101.5095597489034
 22
37.384730871555568
 32
0.0
 13
101.5095597489034
 23
37.384730871555568
 33
0.0
210
0.0
220
0.0
230
1.0
  0
SOLID
  5
68A
  8
DRG
  6
CONTINUOUS
 62
     7
 10
55.51331131997221
 20
41.923431282527638
 30
0.0
 11
44.169020821240288
 21
36.461122307958632
 31
0.0
 12
74.280536421539182
 22
35.629722934820848
 32
0.0
 13
74.280536421539182
 23
35.629722934820848
 33
0.0
210
0.0
220
0.0
230
1.0
  0
SOLID
  5
68B
  8
DRG
  6
CONTINUOUS
 62
     7
 10
63.235709964756971
 20
41.923431282527652
 30
0.0
 11
55.51331131997221
 21
41.923431282527638
 31
0.0
 12
74.280536421539182
 22
35.629722934820848
 32
0.0
 13
74.280536421539182
 23
35.629722934820848
 33
0.0
210
0.0
220
0.0
230
1.0
  0
SOLID
  5
68C
  8
DRG
  6
CONTINUOUS
 62
     7
 10
155.7899070018324
 20
42.518768712226482
 30
0.0
 11
144.25394863930259
 21
40.275165962534743
 31
0.0
 12
158.4712923481795
 22
40.965125441240623
 32
0.0
 13
158.4712923481795
 23
40.965125441240623
 33
0.0
210
0.0
220
0.0
230
1.0
  0
SOLID
  5
68D
  8
DRG
  6
CONTINUOUS
 62
     7
 10
90.479010040926084
 20
42.597677724835599
 30
0.0
 11
87.768046153177011
 21
41.566598844310953
 31
0.0
 12
101.5095597489034
 22
37.384730871555568
 32
0.0
 13
101.5095597489034
 23
37.384730871555568
 33
0.0
210
0.0
220
0.0
230
1.0
  0
SOLID
  5
68E
  8
DRG
  6
CONTINUOUS
 62
     7
 10
127.5071286086868
 20
42.810656426628263
 30
0.0
 11
116.19314081319391
 21
17.28637227261407
 31
0.0
 12
127.2345352189994
 22
40.740104065808097
 32
0.0
 13
127.2345352189994
 23
40.740104065808097
 33
0.0
  0
SOLID
  5
68F
  8
DRG
  6
CONTINUOUS
 62
     7
 10
93.358174068518778
 20
42.948196427274922
 30
0.0
 11
90.479010040926084
 21
42.597677724835599
 31
0.0
 12
101.5095597489034
 22
37.384730871555568
 32
0.0
 13
101.5095597489034
 23
37.384730871555568
 33
0.0
210
0.0
220
0.0
230
1.0
  0
SOLID
  5
690
  8
DRG
  6
CONTINUOUS
 62
     7
 10
101.5095597489034
 20
37.384730871555568
 30
0.0
 11
100.207486521178
 21
42.948196427274922
 31
0.0
 12
93.358174068518778
 22
42.948196427274922
 32
0.0
 13
93.358174068518778
 23
42.948196427274922
 33
0.0
  0
SOLID
  5
691
  8
DRG
  6
CONTINUOUS
 62
     7
 10
100.207486521178
 20
42.948196427274922
 30
0.0
 11
101.5095597489034
 21
37.384730871555568
 31
0.0
 12
111.2523129779601
 22
23.54201089202471
 32
0.0
 13
111.2523129779601
 23
23.54201089202471
 33
0.0
  0
SOLID
  5
692
  8
DRG
  6
CONTINUOUS
 62
     7
 10
142.3184035466634
 20
43.11500550983493
 30
0.0
 11
144.25394863930259
 21
40.275165962534743
 31
0.0
 12
155.7899070018324
 22
42.518768712226482
 32
0.0
 13
155.7899070018324
 23
42.518768712226482
 33
0.0
210
0.0
220
0.0
230
1.0
  0
SOLID
  5
693
  8
DRG
  6
CONTINUOUS
 62
     7
 10
153.4809683549079
 20
44.585756161105429
 30
0.0
 11
142.3184035466634
 21
43.11500550983493
 31
0.0
 12
155.7899070018324
 22
42.518768712226482
 32
0.0
 13
155.7899070018324
 23
42.518768712226482
 33
0.0
210
0.0
220
0.0
230
1.0
  0
SOLID
  5
694
  8
DRG
  6
CONTINUOUS
 62
     7
 10
128.30633198872391
 20
44.740104065808097
 30
0.0
 11
116.19314081319391
 21
17.28637227261407
 31
0.0
 12
127.5071286086868
 22
42.810656426628263
 32
0.0
 13
127.5071286086868
 23
42.810656426628263
 33
0.0
210
0.0
220
0.0
230
1.0
  0
SOLID
  5
695
  8
DRG
  6
CONTINUOUS
 62
     7
 10
27.387732575171409
 20
44.745475926535612
 30
0.0
 11
27.387732575171409
 21
32.086434320449378
 31
0.0
 12
37.639779947293839
 22
13.760967175618781
 32
0.0
 13
37.639779947293839
 23
13.760967175618781
 33
0.0
210
0.0
220
0.0
230
1.0
  0
SOLID
  5
696
  8
DRG
  6
CONTINUOUS
 62
     7
 10
111.2523129779601
 20
45.06060729124669
 30
0.0
 11
100.207486521178
 21
42.948196427274922
 31
0.0
 12
111.2523129779601
 22
23.54201089202471
 32
0.0
 13
111.2523129779601
 23
23.54201089202471
 33
0.0
  0
SOLID
  5
697
  8
DRG
  6
CONTINUOUS
 62
     7
 10
74.280536421539182
 20
45.06060729124669
 30
0.0
 11
63.235709964756971
 21
41.923431282527652
 31
0.0
 12
74.280536421539182
 22
35.629722934820848
 32
0.0
 13
74.280536421539182
 23
35.629722934820848
 33
0.0
  0
SOLID
  5
698
  8
DRG
  6
CONTINUOUS
 62
     7
 10
44.468482394088362
 20
45.06060729124696
 30
0.0
 11
44.169020821240288
 21
36.461122307958632
 31
0.0
 12
55.51331131997221
 22
41.923431282527638
 32
0.0
 13
55.51331131997221
 23
41.923431282527638
 33
0.0
210
0.0
220
0.0
230
1.0
  0
SOLID
  5
699
  8
DRG
  6
CONTINUOUS
 62
     7
 10
141.54546826268481
 20
45.937122787892669
 30
0.0
 11
142.3184035466634
 21
43.11500550983493
 31
0.0
 12
153.4809683549079
 22
44.585756161105429
 32
0.0
 13
153.4809683549079
 23
44.585756161105429
 33
0.0
210
0.0
220
0.0
230
1.0
  0
SOLID
  5
69A
  8
DRG
  6
CONTINUOUS
 62
     7
 10
152.54834175226111
 20
45.975031235545693
 30
0.0
 11
141.54546826268481
 21
45.937122787892669
 31
0.0
 12
153.4809683549079
 22
44.585756161105429
 32
0.0
 13
153.4809683549079
 23
44.585756161105429
 33
0.0
210
0.0
220
0.0
230
1.0
  0
SOLID
  5
69B
  8
DRG
  6
CONTINUOUS
 62
     7
 10
7.0305774038875759
 20
46.17022669896302
 30
0.0
 11
6.7865631049779154
 21
38.202265524009427
 31
0.0
 12
17.256300807526252
 22
30.5191262631974
 32
0.0
 13
17.256300807526252
 23
30.5191262631974
 33
0.0
  0
SOLID
  5
69C
  8
DRG
  6
CONTINUOUS
 62
     7
 10
17.256300807526252
 20
46.312783983787632
 30
0.0
 11
7.0305774038875759
 21
46.17022669896302
 31
0.0
 12
17.256300807526252
 22
30.5191262631974
 32
0.0
 13
17.256300807526252
 23
30.5191262631974
 33
0.0
210
0.0
220
0.0
230
1.0
  0
SOLID
  5
69D
  8
DRG
  6
CONTINUOUS
 62
     7
 10
160.04745823702251
 20
46.421288526219293
 30
0.0
 11
160.04745823702251
 21
45.21828747592599
 31
0.0
 12
171.0912486890569
 22
45.21828747592599
 32
0.0
 13
171.0912486890569
 23
45.21828747592599
 33
0.0
210
0.0
220
0.0
230
1.0
  0
SOLID
  5
69E
  8
DRG
  6
CONTINUOUS
 62
     7
 10
63.235709964757007
 20
46.690614073903127
 30
0.0
 11
63.235709964756971
 21
41.923431282527652
 31
0.0
 12
74.280536421539182
 22
45.06060729124669
 32
0.0
 13
74.280536421539182
 23
45.06060729124669
 33
0.0
210
0.0
220
0.0
230
1.0
  0
SOLID
  5
69F
  8
DRG
  6
CONTINUOUS
 62
     7
 10
55.513311319972217
 20
46.690614073903141
 30
0.0
 11
44.468482394088362
 21
45.06060729124696
 31
0.0
 12
55.51331131997221
 22
41.923431282527638
 32
0.0
 13
55.51331131997221
 23
41.923431282527638
 33
0.0
210
0.0
220
0.0
230
1.0
  0
SOLID
  5
6A0
  8
DRG
  6
CONTINUOUS
 62
     7
 10
27.181817847379161
 20
46.931749842233849
 30
0.0
 11
27.387732575171409
 21
44.745475926535612
 31
0.0
 12
37.639779947293839
 22
13.760967175618781
 32
0.0
 13
37.639779947293839
 23
13.760967175618781
 33
0.0
210
0.0
220
0.0
230
1.0
  0
SOLID
  5
6A1
  8
DRG
  6
CONTINUOUS
 62
     7
 10
92.485087876393209
 20
47.313129977668268
 30
0.0
 11
81.470405744524527
 21
45.910674481046733
 31
0.0
 12
92.485087876393209
 22
45.910674481046733
 32
0.0
 13
92.485087876393209
 23
45.910674481046733
 33
0.0
210
0.0
220
0.0
230
1.0
  0
SOLID
  5
6A2
  8
DRG
  6
CONTINUOUS
 62
     7
 10
100.2074865211779
 20
47.313129977668268
 30
0.0
 11
100.207486521178
 21
42.948196427274922
 31
0.0
 12
111.2523129779601
 22
45.06060729124669
 32
0.0
 13
111.2523129779601
 23
45.06060729124669
 33
0.0
210
0.0
220
0.0
230
1.0
  0
SOLID
  5
6A3
  8
DRG
  6
CONTINUOUS
 62
     7
 10
152.52515784094209
 20
47.648154099737518
 30
0.0
 11
141.54546826268481
 21
45.937122787892669
 31
0.0
 12
152.54834175226111
 22
45.975031235545693
 32
0.0
 13
152.54834175226111
 23
45.975031235545693
 33
0.0
210
0.0
220
0.0
230
1.0
  0
SOLID
  5
6A4
  8
DRG
  6
CONTINUOUS
 62
     7
 10
110.951447924142
 20
47.730858498722469
 30
0.0
 11
100.2074865211779
 21
47.313129977668268
 31
0.0
 12
111.2523129779601
 22
45.06060729124669
 32
0.0
 13
111.2523129779601
 23
45.06060729124669
 33
0.0
210
0.0
220
0.0
230
1.0
  0
SOLID
  5
6A5
  8
DRG
  6
CONTINUOUS
 62
     7
 10
73.979671367721053
 20
47.730858498722469
 30
0.0
 11
63.235709964757007
 21
46.690614073903127
 31
0.0
 12
74.280536421539182
 22
45.06060729124669
 32
0.0
 13
74.280536421539182
 23
45.06060729124669
 33
0.0
210
0.0
220
0.0
230
1.0
  0
SOLID
  5
6A6
  8
DRG
  6
CONTINUOUS
 62
     7
 10
44.769347447906533
 20
47.730858498722682
 30
0.0
 11
44.468482394088362
 21
45.06060729124696
 31
0.0
 12
55.513311319972217
 22
46.690614073903141
 32
0.0
 13
55.513311319972217
 23
46.690614073903141
 33
0.0
210
0.0
220
0.0
230
1.0
  0
SOLID
  5
6A7
  8
DRG
  6
CONTINUOUS
 62
     7
 10
170.76060265160129
 20
47.862455973056527
 30
0.0
 11
160.04745823702251
 21
46.421288526219293
 31
0.0
 12
171.0912486890569
 22
45.21828747592599
 32
0.0
 13
171.0912486890569
 23
45.21828747592599
 33
0.0
210
0.0
220
0.0
230
1.0
  0
SOLID
  5
6A8
  8
DRG
  6
CONTINUOUS
 62
     7
 10
17.581722267866329
 20
47.917869298681147
 30
0.0
 11
7.0305774038875759
 21
46.17022669896302
 31
0.0
 12
17.256300807526252
 22
46.312783983787632
 32
0.0
 13
17.256300807526252
 23
46.312783983787632
 33
0.0
210
0.0
220
0.0
230
1.0
  0
SOLID
  5
6A9
  8
DRG
  6
CONTINUOUS
 62
     7
 10
159.7387277495244
 20
47.934174967545289
 30
0.0
 11
160.04745823702251
 21
46.421288526219293
 31
0.0
 12
170.76060265160129
 22
47.862455973056527
 32
0.0
 13
170.76060265160129
 23
47.862455973056527
 33
0.0
210
0.0
220
0.0
230
1.0
  0
SOLID
  5
6AA
  8
DRG
  6
CONTINUOUS
 62
     7
 10
62.941793667269401
 20
48.168231083642013
 30
0.0
 11
63.235709964757007
 21
46.690614073903127
 31
0.0
 12
73.979671367721053
 22
47.730858498722469
 32
0.0
 13
73.979671367721053
 23
47.730858498722469
 33
0.0
  0
SOLID
  5
6AB
  8
DRG
  6
CONTINUOUS
 62
     7
 10
55.80722761745983
 20
48.16823108364202
 30
0.0
 11
44.769347447906533
 21
47.730858498722682
 31
0.0
 12
55.513311319972217
 22
46.690614073903141
 32
0.0
 13
55.513311319972217
 23
46.690614073903141
 33
0.0
210
0.0
220
0.0
230
1.0
  0
SOLID
  5
6AC
  8
DRG
  6
CONTINUOUS
 62
     7
 10
81.924891017256186
 20
48.4364481289943
 30
0.0
 11
81.470405744524527
 21
45.910674481046733
 31
0.0
 12
92.485087876393209
 22
47.313129977668268
 32
0.0
 13
92.485087876393209
 23
47.313129977668268
 33
0.0
210
0.0
220
0.0
230
1.0
  0
SOLID
  5
6AD
  8
DRG
  6
CONTINUOUS
 62
     7
 10
7.3420010674428831
 20
48.764604957189498
 30
0.0
 11
7.0305774038875759
 21
46.17022669896302
 31
0.0
 12
17.581722267866329
 22
47.917869298681147
 32
0.0
 13
17.581722267866329
 23
47.917869298681147
 33
0.0
210
0.0
220
0.0
230
1.0
  0
SOLID
  5
6AE
  8
DRG
  6
CONTINUOUS
 62
     7
 10
92.779004173880821
 20
48.790746987407147
 30
0.0
 11
81.924891017256186
 21
48.4364481289943
 31
0.0
 12
92.485087876393209
 22
47.313129977668268
 32
0.0
 13
92.485087876393209
 23
47.313129977668268
 33
0.0
210
0.0
220
0.0
230
1.0
  0
SOLID
  5
6AF
  8
DRG
  6
CONTINUOUS
 62
     7
 10
99.913570223690385
 20
48.790746987407147
 30
0.0
 11
100.2074865211779
 21
47.313129977668268
 31
0.0
 12
110.951447924142
 22
47.730858498722469
 32
0.0
 13
110.951447924142
 23
47.730858498722469
 33
0.0
210
0.0
220
0.0
230
1.0
  0
SOLID
  5
6B0
  8
DRG
  6
CONTINUOUS
 62
     7
 10
141.8917942032017
 20
48.84260609145101
 30
0.0
 11
141.54546826268481
 21
45.937122787892669
 31
0.0
 12
152.52515784094209
 22
47.648154099737518
 32
0.0
 13
152.52515784094209
 23
47.648154099737518
 33
0.0
210
0.0
220
0.0
230
1.0
  0
SOLID
  5
6B1
  8
DRG
  6
CONTINUOUS
 62
     7
 10
153.29859675497221
 20
48.984541822115588
 30
0.0
 11
141.8917942032017
 21
48.84260609145101
 31
0.0
 12
152.52515784094209
 22
47.648154099737518
 32
0.0
 13
152.52515784094209
 23
47.648154099737518
 33
0.0
210
0.0
220
0.0
230
1.0
  0
SOLID
  5
6B2
  8
DRG
  6
CONTINUOUS
 62
     7
 10
158.8619067058832
 20
49.205129237252457
 30
0.0
 11
159.7387277495244
 21
47.934174967545289
 31
0.0
 12
170.76060265160129
 22
47.862455973056527
 32
0.0
 13
170.76060265160129
 23
47.862455973056527
 33
0.0
210
0.0
220
0.0
230
1.0
  0
SOLID
  5
6B3
  8
DRG
  6
CONTINUOUS
 62
     7
 10
18.38130680768635
 20
49.347156729052493
 30
0.0
 11
7.3420010674428831
 21
48.764604957189498
 31
0.0
 12
17.581722267866329
 22
47.917869298681147
 32
0.0
 13
17.581722267866329
 23
47.917869298681147
 33
0.0
210
0.0
220
0.0
230
1.0
  0
SOLID
  5
6B4
  8
DRG
  6
CONTINUOUS
 62
     7
 10
62.104790866741169
 20
49.420894298279691
 30
0.0
 11
62.941793667269401
 21
48.168231083642013
 31
0.0
 12
73.979671367721053
 22
47.730858498722469
 32
0.0
 13
73.979671367721053
 23
47.730858498722469
 33
0.0
210
0.0
220
0.0
230
1.0
  0
SOLID
  5
6B5
  8
DRG
  6
CONTINUOUS
 62
     7
 10
56.644230417988048
 20
49.420894298279698
 30
0.0
 11
44.769347447906533
 21
47.730858498722682
 31
0.0
 12
55.80722761745983
 22
48.16823108364202
 32
0.0
 13
55.80722761745983
 23
48.16823108364202
 33
0.0
210
0.0
220
0.0
230
1.0
  0
SOLID
  5
6B6
  8
DRG
  6
CONTINUOUS
 62
     7
 10
154.5338141330721
 20
49.911028695794251
 30
0.0
 11
141.8917942032017
 21
48.84260609145101
 31
0.0
 12
153.29859675497221
 22
48.984541822115588
 32
0.0
 13
153.29859675497221
 23
48.984541822115588
 33
0.0
210
0.0
220
0.0
230
1.0
  0
SOLID
  5
6B7
  8
DRG
  6
CONTINUOUS
 62
     7
 10
157.5572113268374
 20
50.030907576854183
 30
0.0
 11
158.8619067058832
 21
49.205129237252457
 31
0.0
 12
170.76060265160129
 22
47.862455973056527
 32
0.0
 13
170.76060265160129
 23
47.862455973056527
 33
0.0
210
0.0
220
0.0
230
1.0
  0
SOLID
  5
6B8
  8
DRG
  6
CONTINUOUS
 62
     7
 10
93.616006974409046
 20
50.043410202044832
 30
0.0
 11
81.924891017256186
 21
48.4364481289943
 31
0.0
 12
92.779004173880821
 22
48.790746987407147
 32
0.0
 13
92.779004173880821
 23
48.790746987407147
 33
0.0
  0
SOLID
  5
6B9
  8
DRG
  6
CONTINUOUS
 62
     7
 10
99.07656742316216
 20
50.043410202044832
 30
0.0
 11
99.913570223690385
 21
48.790746987407147
 31
0.0
 12
110.951447924142
 22
47.730858498722469
 32
0.0
 13
110.951447924142
 23
47.730858498722469
 33
0.0
210
0.0
220
0.0
230
1.0
  0
SOLID
  5
6BA
  8
DRG
  6
CONTINUOUS
 62
     7
 10
57.896893632625734
 20
50.257897098807909
 30
0.0
 11
44.769347447906533
 21
47.730858498722682
 31
0.0
 12
56.644230417988048
 22
49.420894298279698
 32
0.0
 13
56.644230417988048
 23
49.420894298279698
 33
0.0
  0
SOLID
  5
6BB
  8
DRG
  6
CONTINUOUS
 62
     7
 10
60.852127652103498
 20
50.257897098807909
 30
0.0
 11
62.104790866741169
 21
49.420894298279691
 31
0.0
 12
73.979671367721053
 22
47.730858498722469
 32
0.0
 13
73.979671367721053
 23
47.730858498722469
 33
0.0
  0
SOLID
  5
6BC
  8
DRG
  6
CONTINUOUS
 62
     7
 10
73.092162836368203
 20
50.267212160657387
 30
0.0
 11
60.852127652103498
 21
50.257897098807909
 31
0.0
 12
73.979671367721053
 22
47.730858498722469
 32
0.0
 13
73.979671367721053
 23
47.730858498722469
 33
0.0
210
0.0
220
0.0
230
1.0
  0
SOLID
  5
6BD
  8
DRG
  6
CONTINUOUS
 62
     7
 10
110.06393939278919
 20
50.267212160657387
 30
0.0
 11
99.07656742316216
 21
50.043410202044832
 31
0.0
 12
110.951447924142
 22
47.730858498722469
 32
0.0
 13
110.951447924142
 23
47.730858498722469
 33
0.0
  0
SOLID
  5
6BE
  8
DRG
  6
CONTINUOUS
 62
     7
 10
45.656855979259412
 20
50.26721216065755
 30
0.0
 11
44.769347447906533
 21
47.730858498722682
 31
0.0
 12
57.896893632625734
 22
50.257897098807909
 32
0.0
 13
57.896893632625734
 23
50.257897098807909
 33
0.0
210
0.0
220
0.0
230
1.0
  0
SOLID
  5
6BF
  8
DRG
  6
CONTINUOUS
 62
     7
 10
156.0332810566515
 20
50.279456223742521
 30
0.0
 11
141.8917942032017
 21
48.84260609145101
 31
0.0
 12
154.5338141330721
 22
49.911028695794251
 32
0.0
 13
154.5338141330721
 23
49.911028695794251
 33
0.0
210
0.0
220
0.0
230
1.0
  0
SOLID
  5
6C0
  8
DRG
  6
CONTINUOUS
 62
     7
 10
169.85456642492841
 20
50.368459205149207
 30
0.0
 11
156.0332810566515
 21
50.279456223742521
 31
0.0
 12
157.5572113268374
 22
50.030907576854183
 32
0.0
 13
157.5572113268374
 23
50.030907576854183
 33
0.0
210
0.0
220
0.0
230
1.0
  0
SOLID
  5
6C1
  8
DRG
  6
CONTINUOUS
 62
     7
 10
169.85456642492841
 20
50.368459205149207
 30
0.0
 11
157.5572113268374
 21
50.030907576854183
 31
0.0
 12
170.76060265160129
 22
47.862455973056527
 32
0.0
 13
170.76060265160129
 23
47.862455973056527
 33
0.0
210
0.0
220
0.0
230
1.0
  0
SOLID
  5
6C2
  8
DRG
  6
CONTINUOUS
 62
     7
 10
19.57881763530445
 20
50.464370143165517
 30
0.0
 11
7.3420010674428831
 21
48.764604957189498
 31
0.0
 12
18.38130680768635
 22
49.347156729052493
 32
0.0
 13
18.38130680768635
 23
49.347156729052493
 33
0.0
210
0.0
220
0.0
230
1.0
  0
SOLID
  5
6C3
  8
DRG
  6
CONTINUOUS
 62
     7
 10
59.374510642364612
 20
50.551813396295529
 30
0.0
 11
45.656855979259412
 21
50.26721216065755
 31
0.0
 12
57.896893632625734
 22
50.257897098807909
 32
0.0
 13
57.896893632625734
 23
50.257897098807909
 33
0.0
210
0.0
220
0.0
230
1.0
  0
SOLID
  5
6C4
  8
DRG
  6
CONTINUOUS
 62
     7
 10
59.374510642364612
 20
50.551813396295529
 30
0.0
 11
60.852127652103498
 21
50.257897098807909
 31
0.0
 12
73.092162836368203
 22
50.267212160657387
 32
0.0
 13
73.092162836368203
 23
50.267212160657387
 33
0.0
210
0.0
220
0.0
230
1.0
  0
SOLID
  5
6C5
  8
DRG
  6
CONTINUOUS
 62
     7
 10
82.906051585096932
 20
50.807821849838582
 30
0.0
 11
81.924891017256186
 21
48.4364481289943
 31
0.0
 12
93.616006974409046
 22
50.043410202044832
 32
0.0
 13
93.616006974409046
 23
50.043410202044832
 33
0.0
210
0.0
220
0.0
230
1.0
  0
SOLID
  5
6C6
  8
DRG
  6
CONTINUOUS
 62
     7
 10
94.868670189046725
 20
50.88041300257305
 30
0.0
 11
82.906051585096932
 21
50.807821849838582
 31
0.0
 12
93.616006974409046
 22
50.043410202044832
 32
0.0
 13
93.616006974409046
 23
50.043410202044832
 33
0.0
210
0.0
220
0.0
230
1.0
  0
SOLID
  5
6C7
  8
DRG
  6
CONTINUOUS
 62
     7
 10
97.823904208524496
 20
50.88041300257305
 30
0.0
 11
99.07656742316216
 21
50.043410202044832
 31
0.0
 12
110.06393939278919
 22
50.267212160657387
 32
0.0
 13
110.06393939278919
 23
50.267212160657387
 33
0.0
210
0.0
220
0.0
230
1.0
  0
SOLID
  5
6C8
  8
DRG
  6
CONTINUOUS
 62
     7
 10
142.920441326131
 20
51.116576646040869
 30
0.0
 11
156.0332810566515
 21
50.279456223742521
 31
0.0
 12
169.85456642492841
 22
50.368459205149207
 32
0.0
 13
169.85456642492841
 23
50.368459205149207
 33
0.0
210
0.0
220
0.0
230
1.0
  0
SOLID
  5
6C9
  8
DRG
  6
CONTINUOUS
 62
     7
 10
142.920441326131
 20
51.116576646040869
 30
0.0
 11
141.8917942032017
 21
48.84260609145101
 31
0.0
 12
156.0332810566515
 22
50.279456223742521
 32
0.0
 13
156.0332810566515
 23
50.279456223742521
 33
0.0
210
0.0
220
0.0
230
1.0
  0
SOLID
  5
6CA
  8
DRG
  6
CONTINUOUS
 62
     7
 10
21.06007747620454
 20
51.162988263939191
 30
0.0
 11
7.3420010674428831
 21
48.764604957189498
 31
0.0
 12
19.57881763530445
 22
50.464370143165517
 32
0.0
 13
19.57881763530445
 23
50.464370143165517
 33
0.0
  0
SOLID
  5
6CB
  8
DRG
  6
CONTINUOUS
 62
     7
 10
96.346287198785603
 20
51.174329300060663
 30
0.0
 11
82.906051585096932
 21
50.807821849838582
 31
0.0
 12
94.868670189046725
 22
50.88041300257305
 32
0.0
 13
94.868670189046725
 23
50.88041300257305
 33
0.0
210
0.0
220
0.0
230
1.0
  0
SOLID
  5
6CC
  8
DRG
  6
CONTINUOUS
 62
     7
 10
96.346287198785603
 20
51.174329300060663
 30
0.0
 11
97.823904208524496
 21
50.88041300257305
 31
0.0
 12
110.06393939278919
 22
50.267212160657387
 32
0.0
 13
110.06393939278919
 23
50.267212160657387
 33
0.0
  0
SOLID
  5
6CD
  8
DRG
  6
CONTINUOUS
 62
     7
 10
8.2028006413352372
 20
51.231750542388589
 30
0.0
 11
7.3420010674428831
 21
48.764604957189498
 31
0.0
 12
21.06007747620454
 22
51.162988263939191
 32
0.0
 13
21.06007747620454
 23
51.162988263939191
 33
0.0
  0
SOLID
  5
6CE
  8
DRG
  6
CONTINUOUS
 62
     7
 10
27.267121908897021
 20
51.255838552818979
 30
0.0
 11
24.679246464695179
 21
50.459554842585071
 31
0.0
 12
26.241246459003669
 22
48.91606835823719
 32
0.0
 13
26.241246459003669
 23
48.91606835823719
 33
0.0
210
0.0
220
0.0
230
1.0
  0
SOLID
  5
6CF
  8
DRG
  6
CONTINUOUS
 62
     7
 10
27.267121908897021
 20
51.255838552818979
 30
0.0
 11
26.241246459003669
 21
48.91606835823719
 31
0.0
 12
27.181817847379161
 22
46.931749842233849
 32
0.0
 13
27.181817847379161
 23
46.931749842233849
 33
0.0
210
0.0
220
0.0
230
1.0
  0
SOLID
  5
6D0
  8
DRG
  6
CONTINUOUS
 62
     7
 10
27.267121908897021
 20
51.255838552818979
 30
0.0
 11
27.181817847379161
 21
46.931749842233849
 31
0.0
 12
37.639779947293839
 22
13.760967175618781
 32
0.0
 13
37.639779947293839
 23
13.760967175618781
 33
0.0
210
0.0
220
0.0
230
1.0
  0
SOLID
  5
6D1
  8
DRG
  6
CONTINUOUS
 62
     7
 10
22.683854862926282
 20
51.376400993896397
 30
0.0
 11
8.2028006413352372
 21
51.231750542388589
 31
0.0
 12
21.06007747620454
 22
51.162988263939191
 32
0.0
 13
21.06007747620454
 23
51.162988263939191
 33
0.0
  0
SOLID
  5
6D2
  8
DRG
  6
CONTINUOUS
 62
     7
 10
22.683854862926282
 20
51.376400993896397
 30
0.0
 11
24.679246464695179
 21
50.459554842585071
 31
0.0
 12
27.267121908897021
 22
51.255838552818979
 32
0.0
 13
27.267121908897021
 23
51.255838552818979
 33
0.0
210
0.0
220
0.0
230
1.0
  0
SOLID
  5
6D3
  8
DRG
  6
CONTINUOUS
 62
     7
 10
108.6342907675765
 20
52.54248491355149
 30
0.0
 11
96.346287198785603
 21
51.174329300060663
 31
0.0
 12
110.06393939278919
 22
50.267212160657387
 32
0.0
 13
110.06393939278919
 23
50.267212160657387
 33
0.0
210
0.0
220
0.0
230
1.0
  0
SOLID
  5
6D4
  8
DRG
  6
CONTINUOUS
 62
     7
 10
71.662514211155525
 20
52.54248491355149
 30
0.0
 11
59.374510642364612
 21
50.551813396295529
 31
0.0
 12
73.092162836368203
 22
50.267212160657387
 32
0.0
 13
73.092162836368203
 23
50.267212160657387
 33
0.0
210
0.0
220
0.0
230
1.0
  0
SOLID
  5
6D5
  8
DRG
  6
CONTINUOUS
 62
     7
 10
47.08650460447209
 20
52.542484913551611
 30
0.0
 11
59.374510642364612
 21
50.551813396295529
 31
0.0
 12
71.662514211155525
 22
52.54248491355149
 32
0.0
 13
71.662514211155525
 23
52.54248491355149
 33
0.0
210
0.0
220
0.0
230
1.0
  0
SOLID
  5
6D6
  8
DRG
  6
CONTINUOUS
 62
     7
 10
47.08650460447209
 20
52.542484913551611
 30
0.0
 11
45.656855979259412
 21
50.26721216065755
 31
0.0
 12
59.374510642364612
 22
50.551813396295529
 32
0.0
 13
59.374510642364612
 23
50.551813396295529
 33
0.0
210
0.0
220
0.0
230
1.0
  0
SOLID
  5
6D7
  8
DRG
  6
CONTINUOUS
 62
     7
 10
168.4178186300519
 20
52.612720691077257
 30
0.0
 11
142.920441326131
 21
51.116576646040869
 31
0.0
 12
169.85456642492841
 22
50.368459205149207
 32
0.0
 13
169.85456642492841
 23
50.368459205149207
 33
0.0
210
0.0
220
0.0
230
1.0
  0
SOLID
  5
6D8
  8
DRG
  6
CONTINUOUS
 62
     7
 10
84.369012370271378
 20
52.916336759636032
 30
0.0
 11
96.346287198785603
 21
51.174329300060663
 31
0.0
 12
108.6342907675765
 22
52.54248491355149
 32
0.0
 13
108.6342907675765
 23
52.54248491355149
 33
0.0
210
0.0
220
0.0
230
1.0
  0
SOLID
  5
6D9
  8
DRG
  6
CONTINUOUS
 62
     7
 10
84.369012370271378
 20
52.916336759636032
 30
0.0
 11
82.906051585096932
 21
50.807821849838582
 31
0.0
 12
96.346287198785603
 22
51.174329300060663
 32
0.0
 13
96.346287198785603
 23
51.174329300060663
 33
0.0
  0
SOLID
  5
6DA
  8
DRG
  6
CONTINUOUS
 62
     7
 10
127.2345352189994
 20
53.086533694841222
 30
0.0
 11
135.23453521899941
 21
48.740104065808111
 31
0.0
 12
136.6041529029215
 22
48.740104065808111
 32
0.0
 13
136.6041529029215
 23
48.740104065808111
 33
0.0
210
0.0
220
0.0
230
1.0
  0
SOLID
  5
6DB
  8
DRG
  6
CONTINUOUS
 62
     7
 10
127.2345352189994
 20
53.086533694841222
 30
0.0
 11
133.1639828581792
 21
48.467510676120646
 31
0.0
 12
135.23453521899941
 22
48.740104065808111
 32
0.0
 13
135.23453521899941
 23
48.740104065808111
 33
0.0
210
0.0
220
0.0
230
1.0
  0
SOLID
  5
6DC
  8
DRG
  6
CONTINUOUS
 62
     7
 10
127.2345352189994
 20
53.086533694841222
 30
0.0
 11
131.23453521899941
 21
47.668307296083611
 31
0.0
 12
133.1639828581792
 22
48.467510676120646
 32
0.0
 13
133.1639828581792
 23
48.467510676120646
 33
0.0
210
0.0
220
0.0
230
1.0
  0
SOLID
  5
6DD
  8
DRG
  6
CONTINUOUS
 62
     7
 10
127.2345352189994
 20
53.086533694841222
 30
0.0
 11
129.57768096950701
 21
46.396958315300481
 31
0.0
 12
131.23453521899941
 22
47.668307296083611
 32
0.0
 13
131.23453521899941
 23
47.668307296083611
 33
0.0
210
0.0
220
0.0
230
1.0
  0
SOLID
  5
6DE
  8
DRG
  6
CONTINUOUS
 62
     7
 10
127.2345352189994
 20
53.086533694841222
 30
0.0
 11
128.30633198872391
 21
44.740104065808097
 31
0.0
 12
129.57768096950701
 22
46.396958315300481
 32
0.0
 13
129.57768096950701
 23
46.396958315300481
 33
0.0
210
0.0
220
0.0
230
1.0
  0
SOLID
  5
6DF
  8
DRG
  6
CONTINUOUS
 62
     7
 10
127.2345352189994
 20
53.086533694841222
 30
0.0
 11
116.19314081319391
 21
17.28637227261407
 31
0.0
 12
128.30633198872391
 22
44.740104065808097
 32
0.0
 13
128.30633198872391
 23
44.740104065808097
 33
0.0
210
0.0
220
0.0
230
1.0
  0
SOLID
  5
6E0
  8
DRG
  6
CONTINUOUS
 62
     7
 10
144.39722538079619
 20
53.12858207409991
 30
0.0
 11
142.920441326131
 21
51.116576646040869
 31
0.0
 12
168.4178186300519
 22
52.612720691077257
 32
0.0
 13
168.4178186300519
 23
52.612720691077257
 33
0.0
210
0.0
220
0.0
230
1.0
  0
SOLID
  5
6E1
  8
DRG
  6
CONTINUOUS
 62
     7
 10
9.5728846326008892
 20
53.456756857403953
 30
0.0
 11
8.2028006413352372
 21
51.231750542388589
 31
0.0
 12
22.683854862926282
 22
51.376400993896397
 32
0.0
 13
22.683854862926282
 23
51.376400993896397
 33
0.0
210
0.0
220
0.0
230
1.0
  0
SOLID
  5
6E2
  8
DRG
  6
CONTINUOUS
 62
     7
 10
26.390819376565261
 20
53.462496928867189
 30
0.0
 11
9.5728846326008892
 21
53.456756857403953
 31
0.0
 12
22.683854862926282
 22
51.376400993896397
 32
0.0
 13
22.683854862926282
 23
51.376400993896397
 33
0.0
210
0.0
220
0.0
230
1.0
  0
SOLID
  5
6E3
  8
DRG
  6
CONTINUOUS
 62
     7
 10
26.390819376565261
 20
53.462496928867189
 30
0.0
 11
22.683854862926282
 21
51.376400993896397
 31
0.0
 12
27.267121908897021
 22
51.255838552818979
 32
0.0
 13
27.267121908897021
 23
51.255838552818979
 33
0.0
210
0.0
220
0.0
230
1.0
  0
SOLID
  5
6E4
  8
DRG
  6
CONTINUOUS
 62
     7
 10
106.7341906002649
 20
54.442585080863047
 30
0.0
 11
84.369012370271378
 21
52.916336759636032
 31
0.0
 12
108.6342907675765
 22
52.54248491355149
 32
0.0
 13
108.6342907675765
 23
52.54248491355149
 33
0.0
  0
SOLID
  5
6E5
  8
DRG
  6
CONTINUOUS
 62
     7
 10
69.762414043843989
 20
54.442585080863047
 30
0.0
 11
47.08650460447209
 21
52.542484913551611
 31
0.0
 12
71.662514211155525
 22
52.54248491355149
 32
0.0
 13
71.662514211155525
 23
52.54248491355149
 33
0.0
210
0.0
220
0.0
230
1.0
  0
SOLID
  5
6E6
  8
DRG
  6
CONTINUOUS
 62
     7
 10
48.986604771783639
 20
54.442585080863132
 30
0.0
 11
47.08650460447209
 21
52.542484913551611
 31
0.0
 12
69.762414043843989
 22
54.442585080863047
 32
0.0
 13
69.762414043843989
 23
54.442585080863047
 33
0.0
  0
SOLID
  5
6E7
  8
DRG
  6
CONTINUOUS
 62
     7
 10
166.52120843208201
 20
54.484571005674873
 30
0.0
 11
144.39722538079619
 21
53.12858207409991
 31
0.0
 12
168.4178186300519
 22
52.612720691077257
 32
0.0
 13
168.4178186300519
 23
52.612720691077257
 33
0.0
210
0.0
220
0.0
230
1.0
  0
SOLID
  5
6E8
  8
DRG
  6
CONTINUOUS
 62
     7
 10
86.246862327667387
 20
54.665556277393662
 30
0.0
 11
84.369012370271378
 21
52.916336759636032
 31
0.0
 12
106.7341906002649
 22
54.442585080863047
 32
0.0
 13
106.7341906002649
 23
54.442585080863047
 33
0.0
  0
SOLID
  5
6E9
  8
DRG
  6
CONTINUOUS
 62
     7
 10
146.2582646169646
 20
54.791588372372388
 30
0.0
 11
144.39722538079619
 21
53.12858207409991
 31
0.0
 12
166.52120843208201
 22
54.484571005674873
 32
0.0
 13
166.52120843208201
 23
54.484571005674873
 33
0.0
210
0.0
220
0.0
230
1.0
  0
SOLID
  5
6EA
  8
DRG
  6
CONTINUOUS
 62
     7
 10
129.0836962561232
 20
55.014863471122233
 30
0.0
 11
127.2345352189994
 21
53.086533694841222
 31
0.0
 12
136.6041529029215
 22
48.740104065808111
 32
0.0
 13
136.6041529029215
 23
48.740104065808111
 33
0.0
210
0.0
220
0.0
230
1.0
  0
SOLID
  5
6EB
  8
DRG
  6
CONTINUOUS
 62
     7
 10
11.388441772784841
 20
55.335994872054471
 30
0.0
 11
9.5728846326008892
 21
53.456756857403953
 31
0.0
 12
26.390819376565261
 22
53.462496928867189
 32
0.0
 13
26.390819376565261
 23
53.462496928867189
 33
0.0
210
0.0
220
0.0
230
1.0
  0
SOLID
  5
6EC
  8
DRG
  6
CONTINUOUS
 62
     7
 10
24.97349704072932
 20
55.367344616504027
 30
0.0
 11
11.388441772784841
 21
55.335994872054471
 31
0.0
 12
26.390819376565261
 22
53.462496928867189
 32
0.0
 13
26.390819376565261
 23
53.462496928867189
 33
0.0
210
0.0
220
0.0
230
1.0
  0
SOLID
  5
6ED
  8
DRG
  6
CONTINUOUS
 62
     7
 10
104.4589178473708
 20
55.872233706075718
 30
0.0
 11
86.246862327667387
 21
54.665556277393662
 31
0.0
 12
106.7341906002649
 22
54.442585080863047
 32
0.0
 13
106.7341906002649
 23
54.442585080863047
 33
0.0
210
0.0
220
0.0
230
1.0
  0
SOLID
  5
6EE
  8
DRG
  6
CONTINUOUS
 62
     7
 10
67.487141290949879
 20
55.872233706075718
 30
0.0
 11
48.986604771783639
 21
54.442585080863132
 31
0.0
 12
69.762414043843989
 22
54.442585080863047
 32
0.0
 13
69.762414043843989
 23
54.442585080863047
 33
0.0
210
0.0
220
0.0
230
1.0
  0
SOLID
  5
6EF
  8
DRG
  6
CONTINUOUS
 62
     7
 10
51.261877524677743
 20
55.872233706075761
 30
0.0
 11
48.986604771783639
 21
54.442585080863132
 31
0.0
 12
67.487141290949879
 22
55.872233706075718
 32
0.0
 13
67.487141290949879
 23
55.872233706075718
 33
0.0
210
0.0
220
0.0
230
1.0
  0
SOLID
  5
6F0
  8
DRG
  6
CONTINUOUS
 62
     7
 10
164.25826181348069
 20
55.891705130292529
 30
0.0
 11
146.2582646169646
 21
54.791588372372388
 31
0.0
 12
166.52120843208201
 22
54.484571005674873
 32
0.0
 13
166.52120843208201
 23
54.484571005674873
 33
0.0
210
0.0
220
0.0
230
1.0
  0
SOLID
  5
6F1
  8
DRG
  6
CONTINUOUS
 62
     7
 10
88.453714737362944
 20
55.975476819112622
 30
0.0
 11
86.246862327667387
 21
54.665556277393662
 31
0.0
 12
104.4589178473708
 22
55.872233706075718
 32
0.0
 13
104.4589178473708
 23
55.872233706075718
 33
0.0
210
0.0
220
0.0
230
1.0
  0
SOLID
  5
6F2
  8
DRG
  6
CONTINUOUS
 62
     7
 10
148.42305542729969
 20
56.033658311683958
 30
0.0
 11
146.2582646169646
 21
54.791588372372388
 31
0.0
 12
164.25826181348069
 22
55.891705130292529
 32
0.0
 13
164.25826181348069
 23
55.891705130292529
 33
0.0
  0
SOLID
  5
6F3
  8
DRG
  6
CONTINUOUS
 62
     7
 10
131.36827517159969
 20
56.399981316747272
 30
0.0
 11
129.0836962561232
 21
55.014863471122233
 31
0.0
 12
136.6041529029215
 22
48.740104065808111
 32
0.0
 13
136.6041529029215
 23
48.740104065808111
 33
0.0
  0
SOLID
  5
6F4
  8
DRG
  6
CONTINUOUS
 62
     7
 10
101.9225641854359
 20
56.759742237428583
 30
0.0
 11
88.453714737362944
 21
55.975476819112622
 31
0.0
 12
104.4589178473708
 22
55.872233706075718
 32
0.0
 13
104.4589178473708
 23
55.872233706075718
 33
0.0
210
0.0
220
0.0
230
1.0
  0
SOLID
  5
6F5
  8
DRG
  6
CONTINUOUS
 62
     7
 10
64.950787629014954
 20
56.759742237428583
 30
0.0
 11
51.261877524677743
 21
55.872233706075761
 31
0.0
 12
67.487141290949879
 22
55.872233706075718
 32
0.0
 13
67.487141290949879
 23
55.872233706075718
 33
0.0
210
0.0
220
0.0
230
1.0
  0
SOLID
  5
6F6
  8
DRG
  6
CONTINUOUS
 62
     7
 10
53.798231186612632
 20
56.759742237428583
 30
0.0
 11
51.261877524677743
 21
55.872233706075761
 31
0.0
 12
64.950787629014954
 22
56.759742237428583
 32
0.0
 13
64.950787629014954
 23
56.759742237428583
 33
0.0
210
0.0
220
0.0
230
1.0
  0
SOLID
  5
6F7
  8
DRG
  6
CONTINUOUS
 62
     7
 10
161.7405696040295
 20
56.76473421444242
 30
0.0
 11
148.42305542729969
 21
56.033658311683958
 31
0.0
 12
164.25826181348069
 22
55.891705130292529
 32
0.0
 13
164.25826181348069
 23
55.891705130292529
 33
0.0
210
0.0
220
0.0
230
1.0
  0
SOLID
  5
6F8
  8
DRG
  6
CONTINUOUS
 62
     7
 10
13.56491300944491
 20
56.781939615456523
 30
0.0
 11
11.388441772784841
 21
55.335994872054471
 31
0.0
 12
24.97349704072932
 22
55.367344616504027
 32
0.0
 13
24.97349704072932
 23
55.367344616504027
 33
0.0
210
0.0
220
0.0
230
1.0
  0
SOLID
  5
6F9
  8
DRG
  6
CONTINUOUS
 62
     7
 10
90.888635382503196
 20
56.786186900255167
 30
0.0
 11
88.453714737362944
 21
55.975476819112622
 31
0.0
 12
101.9225641854359
 22
56.759742237428583
 32
0.0
 13
101.9225641854359
 23
56.759742237428583
 33
0.0
210
0.0
220
0.0
230
1.0
  0
SOLID
  5
6FA
  8
DRG
  6
CONTINUOUS
 62
     7
 10
150.79795471928901
 20
56.801063250136181
 30
0.0
 11
148.42305542729969
 21
56.033658311683958
 31
0.0
 12
161.7405696040295
 22
56.76473421444242
 32
0.0
 13
161.7405696040295
 23
56.76473421444242
 33
0.0
210
0.0
220
0.0
230
1.0
  0
SOLID
  5
6FB
  8
DRG
  6
CONTINUOUS
 62
     7
 10
23.111648298363178
 20
56.840696773085902
 30
0.0
 11
13.56491300944491
 21
56.781939615456523
 31
0.0
 12
24.97349704072932
 22
55.367344616504027
 32
0.0
 13
24.97349704072932
 23
55.367344616504027
 33
0.0
210
0.0
220
0.0
230
1.0
  0
SOLID
  5
6FC
  8
DRG
  6
CONTINUOUS
 62
     7
 10
90.888635382503196
 20
56.786186900255167
 30
0.0
 11
99.252312977960173
 21
57.06060729124669
 31
0.0
 12
93.440258950509346
 22
57.06060729124669
 32
0.0
 13
93.440258950509346
 23
57.06060729124669
 33
0.0
210
0.0
220
0.0
230
1.0
  0
SOLID
  5
6FD
  8
DRG
  6
CONTINUOUS
 62
     7
 10
99.252312977960173
 20
57.06060729124669
 30
0.0
 11
90.888635382503196
 21
56.786186900255167
 31
0.0
 12
101.9225641854359
 22
56.759742237428583
 32
0.0
 13
101.9225641854359
 23
56.759742237428583
 33
0.0
210
0.0
220
0.0
230
1.0
  0
SOLID
  5
6FE
  8
DRG
  6
CONTINUOUS
 62
     7
 10
150.79795471928901
 20
56.801063250136181
 30
0.0
 11
159.0922846938046
 21
57.06060729124669
 31
0.0
 12
153.28023066635379
 22
57.06060729124669
 32
0.0
 13
153.28023066635379
 23
57.06060729124669
 33
0.0
210
0.0
220
0.0
230
1.0
  0
SOLID
  5
6FF
  8
DRG
  6
CONTINUOUS
 62
     7
 10
159.0922846938046
 20
57.06060729124669
 30
0.0
 11
150.79795471928901
 21
56.801063250136181
 31
0.0
 12
161.7405696040295
 22
56.76473421444242
 32
0.0
 13
161.7405696040295
 23
56.76473421444242
 33
0.0
210
0.0
220
0.0
230
1.0
  0
SOLID
  5
700
  8
DRG
  6
CONTINUOUS
 62
     7
 10
53.798231186612632
 20
56.759742237428583
 30
0.0
 11
62.280536421539182
 21
57.06060729124669
 31
0.0
 12
56.468482394088369
 22
57.06060729124669
 32
0.0
 13
56.468482394088369
 23
57.06060729124669
 33
0.0
210
0.0
220
0.0
230
1.0
  0
SOLID
  5
701
  8
DRG
  6
CONTINUOUS
 62
     7
 10
62.280536421539182
 20
57.06060729124669
 30
0.0
 11
53.798231186612632
 21
56.759742237428583
 31
0.0
 12
64.950787629014954
 22
56.759742237428583
 32
0.0
 13
64.950787629014954
 23
56.759742237428583
 33
0.0
210
0.0
220
0.0
230
1.0
  0
SOLID
  5
702
  8
DRG
  6
CONTINUOUS
 62
     7
 10
27.267121908897021
 20
51.255838552818979
 30
0.0
 11
37.639779947293832
 21
57.06060729124669
 31
0.0
 12
27.267121908897028
 22
57.06060729124669
 32
0.0
 13
27.267121908897028
 23
57.06060729124669
 33
0.0
210
0.0
220
0.0
230
1.0
  0
SOLID
  5
703
  8
DRG
  6
CONTINUOUS
 62
     7
 10
37.639779947293832
 20
57.06060729124669
 30
0.0
 11
27.267121908897021
 21
51.255838552818979
 31
0.0
 12
37.639779947293839
 22
13.760967175618781
 32
0.0
 13
37.639779947293839
 23
13.760967175618781
 33
0.0
  0
SOLID
  5
704
  8
DRG
  6
CONTINUOUS
 62
     7
 10
133.93314657289841
 20
57.147836223870669
 30
0.0
 11
131.36827517159969
 21
56.399981316747272
 31
0.0
 12
136.6041529029215
 22
48.740104065808111
 32
0.0
 13
136.6041529029215
 23
48.740104065808111
 33
0.0
210
0.0
220
0.0
230
1.0
  0
SOLID
  5
705
  8
DRG
  6
CONTINUOUS
 62
     7
 10
127.2345352189994
 20
53.086533694841222
 30
0.0
 11
127.2345352189994
 21
57.207648031108022
 31
0.0
 12
116.19314081319391
 22
57.207648031108022
 32
0.0
 13
116.19314081319391
 23
57.207648031108022
 33
0.0
210
0.0
220
0.0
230
1.0
  0
SOLID
  5
706
  8
DRG
  6
CONTINUOUS
 62
     7
 10
116.19314081319391
 20
57.207648031108022
 30
0.0
 11
116.19314081319391
 21
17.28637227261407
 31
0.0
 12
127.2345352189994
 22
53.086533694841222
 32
0.0
 13
127.2345352189994
 23
53.086533694841222
 33
0.0
210
0.0
220
0.0
230
1.0
  0
SOLID
  5
707
  8
DRG
  6
CONTINUOUS
 62
     7
 10
136.6041529029215
 20
57.207648031108022
 30
0.0
 11
133.93314657289841
 21
57.147836223870669
 31
0.0
 12
136.6041529029215
 22
48.740104065808111
 32
0.0
 13
136.6041529029215
 23
48.740104065808111
 33
0.0
210
0.0
220
0.0
230
1.0
  0
SOLID
  5
708
  8
DRG
  6
CONTINUOUS
 62
     7
 10
16.000929819736889
 20
57.7272466264088
 30
0.0
 11
13.56491300944491
 21
56.781939615456523
 31
0.0
 12
23.111648298363178
 22
56.840696773085902
 32
0.0
 13
23.111648298363178
 23
56.840696773085902
 33
0.0
210
0.0
220
0.0
230
1.0
  0
SOLID
  5
709
  8
DRG
  6
CONTINUOUS
 62
     7
 10
20.932030560438331
 20
57.78224540872732
 30
0.0
 11
16.000929819736889
 21
57.7272466264088
 31
0.0
 12
23.111648298363178
 22
56.840696773085902
 32
0.0
 13
23.111648298363178
 23
56.840696773085902
 33
0.0
210
0.0
220
0.0
230
1.0
  0
SOLID
  5
70A
  8
DRG
  6
CONTINUOUS
 62
     7
 10
18.58303542025671
 20
58.127888502333931
 30
0.0
 11
16.000929819736889
 21
57.7272466264088
 31
0.0
 12
20.932030560438331
 22
57.78224540872732
 32
0.0
 13
20.932030560438331
 23
57.78224540872732
 33
0.0
210
0.0
220
0.0
230
1.0
  0
SOLID
  5
70B
  8
DRG
  6
CONTINUOUS
 62
     7
 10
73.260638849331514
 20
61.169925125155011
 30
0.0
 11
75.331191210151701
 21
60.89733173546756
 31
0.0
 12
80.675802928262684
 22
60.89733173546756
 32
0.0
 13
80.675802928262684
 23
60.89733173546756
 33
0.0
210
0.0
220
0.0
230
1.0
  0
SOLID
  5
70C
  8
DRG
  6
CONTINUOUS
 62
     7
 10
50.320443202898318
 20
61.198195663659767
 30
0.0
 11
41.838142899665847
 21
60.89733173546756
 31
0.0
 12
47.650196927116667
 22
60.89733173546756
 32
0.0
 13
47.650196927116667
 23
60.89733173546756
 33
0.0
  0
SOLID
  5
70D
  8
DRG
  6
CONTINUOUS
 62
     7
 10
106.3320830399325
 20
61.198195663659767
 30
0.0
 11
97.849782736700035
 21
60.89733173546756
 31
0.0
 12
103.66183676415081
 22
60.89733173546756
 32
0.0
 13
103.66183676415081
 23
60.89733173546756
 33
0.0
210
0.0
220
0.0
230
1.0
  0
SOLID
  5
70E
  8
DRG
  6
CONTINUOUS
 62
     7
 10
39.167891692190118
 20
61.19819678928566
 30
0.0
 11
41.838142899665847
 21
60.89733173546756
 31
0.0
 12
50.320443202898318
 22
61.198195663659767
 32
0.0
 13
50.320443202898318
 23
61.198195663659767
 33
0.0
210
0.0
220
0.0
230
1.0
  0
SOLID
  5
70F
  8
DRG
  6
CONTINUOUS
 62
     7
 10
95.179531529224278
 20
61.198196789285682
 30
0.0
 11
97.849782736700035
 21
60.89733173546756
 31
0.0
 12
106.3320830399325
 22
61.198195663659767
 32
0.0
 13
106.3320830399325
 23
61.198195663659767
 33
0.0
210
0.0
220
0.0
230
1.0
  0
SOLID
  5
710
  8
DRG
  6
CONTINUOUS
 62
     7
 10
82.673677075028507
 20
61.207576574819242
 30
0.0
 11
73.260638849331514
 21
61.169925125155011
 31
0.0
 12
80.675802928262684
 22
60.89733173546756
 32
0.0
 13
80.675802928262684
 23
60.89733173546756
 33
0.0
210
0.0
220
0.0
230
1.0
  0
SOLID
  5
711
  8
DRG
  6
CONTINUOUS
 62
     7
 10
71.331191210151701
 20
61.969128505192053
 30
0.0
 11
73.260638849331514
 21
61.169925125155011
 31
0.0
 12
82.673677075028507
 22
61.207576574819242
 32
0.0
 13
82.673677075028507
 23
61.207576574819242
 33
0.0
210
0.0
220
0.0
230
1.0
  0
SOLID
  5
712
  8
DRG
  6
CONTINUOUS
 62
     7
 10
84.501142256151084
 20
62.072518178885289
 30
0.0
 11
71.331191210151701
 21
61.969128505192053
 31
0.0
 12
82.673677075028507
 22
61.207576574819242
 32
0.0
 13
82.673677075028507
 23
61.207576574819242
 33
0.0
  0
SOLID
  5
713
  8
DRG
  6
CONTINUOUS
 62
     7
 10
52.856792681384597
 20
62.085700931021869
 30
0.0
 11
39.167891692190118
 21
61.19819678928566
 31
0.0
 12
50.320443202898318
 22
61.198195663659767
 32
0.0
 13
50.320443202898318
 23
61.198195663659767
 33
0.0
210
0.0
220
0.0
230
1.0
  0
SOLID
  5
714
  8
DRG
  6
CONTINUOUS
 62
     7
 10
108.8684325184187
 20
62.085700931021869
 30
0.0
 11
95.179531529224278
 21
61.198196789285682
 31
0.0
 12
106.3320830399325
 22
61.198195663659767
 32
0.0
 13
106.3320830399325
 23
61.198195663659767
 33
0.0
210
0.0
220
0.0
230
1.0
  0
SOLID
  5
715
  8
DRG
  6
CONTINUOUS
 62
     7
 10
36.63153803025525
 20
62.085705320638482
 30
0.0
 11
39.167891692190118
 21
61.19819678928566
 31
0.0
 12
52.856792681384597
 22
62.085700931021869
 32
0.0
 13
52.856792681384597
 23
62.085700931021869
 33
0.0
  0
SOLID
  5
716
  8
DRG
  6
CONTINUOUS
 62
     7
 10
92.643177867289367
 20
62.085705320638517
 30
0.0
 11
95.179531529224278
 21
61.198196789285682
 31
0.0
 12
108.8684325184187
 22
62.085700931021869
 32
0.0
 13
108.8684325184187
 23
62.085700931021869
 33
0.0
210
0.0
220
0.0
230
1.0
  0
SOLID
  5
717
  8
DRG
  6
CONTINUOUS
 62
     7
 10
69.674336960659303
 20
63.240477485975177
 30
0.0
 11
71.331191210151701
 21
61.969128505192053
 31
0.0
 12
84.501142256151084
 22
62.072518178885289
 32
0.0
 13
84.501142256151084
 23
62.072518178885289
 33
0.0
210
0.0
220
0.0
230
1.0
  0
SOLID
  5
718
  8
DRG
  6
CONTINUOUS
 62
     7
 10
111.1437025217154
 20
63.515344484048867
 30
0.0
 11
92.643177867289367
 21
62.085705320638517
 31
0.0
 12
108.8684325184187
 22
62.085700931021869
 32
0.0
 13
108.8684325184187
 23
62.085700931021869
 33
0.0
210
0.0
220
0.0
230
1.0
  0
SOLID
  5
719
  8
DRG
  6
CONTINUOUS
 62
     7
 10
55.13206268468123
 20
63.515344484048867
 30
0.0
 11
36.63153803025525
 21
62.085705320638482
 31
0.0
 12
52.856792681384597
 22
62.085700931021869
 32
0.0
 13
52.856792681384597
 23
62.085700931021869
 33
0.0
  0
SOLID
  5
71A
  8
DRG
  6
CONTINUOUS
 62
     7
 10
34.356265277361167
 20
63.515353945851103
 30
0.0
 11
36.63153803025525
 21
62.085705320638482
 31
0.0
 12
55.13206268468123
 22
63.515344484048867
 32
0.0
 13
55.13206268468123
 23
63.515344484048867
 33
0.0
210
0.0
220
0.0
230
1.0
  0
SOLID
  5
71B
  8
DRG
  6
CONTINUOUS
 62
     7
 10
90.367905114395256
 20
63.515353945851182
 30
0.0
 11
92.643177867289367
 21
62.085705320638517
 31
0.0
 12
111.1437025217154
 22
63.515344484048867
 32
0.0
 13
111.1437025217154
 23
63.515344484048867
 33
0.0
210
0.0
220
0.0
230
1.0
  0
SOLID
  5
71C
  8
DRG
  6
CONTINUOUS
 62
     7
 10
68.402987979876187
 20
64.89733173546756
 30
0.0
 11
69.674336960659303
 21
63.240477485975177
 31
0.0
 12
84.501142256151084
 22
62.072518178885289
 32
0.0
 13
84.501142256151084
 23
62.072518178885289
 33
0.0
210
0.0
220
0.0
230
1.0
  0
SOLID
  5
71D
  8
DRG
  6
CONTINUOUS
 62
     7
 10
57.032162100973231
 20
65.415438293527714
 30
0.0
 11
34.356265277361167
 21
63.515353945851103
 31
0.0
 12
55.13206268468123
 22
63.515344484048867
 32
0.0
 13
55.13206268468123
 23
63.515344484048867
 33
0.0
210
0.0
220
0.0
230
1.0
  0
SOLID
  5
71E
  8
DRG
  6
CONTINUOUS
 62
     7
 10
113.04380193800741
 20
65.415438293527714
 30
0.0
 11
90.367905114395256
 21
63.515353945851182
 31
0.0
 12
111.1437025217154
 22
63.515344484048867
 32
0.0
 13
111.1437025217154
 23
63.515344484048867
 33
0.0
  0
SOLID
  5
71F
  8
DRG
  6
CONTINUOUS
 62
     7
 10
32.456165110049618
 20
65.415454113162596
 30
0.0
 11
34.356265277361167
 21
63.515353945851103
 31
0.0
 12
57.032162100973231
 22
65.415438293527714
 32
0.0
 13
57.032162100973231
 23
65.415438293527714
 33
0.0
  0
SOLID
  5
720
  8
DRG
  6
CONTINUOUS
 62
     7
 10
88.467804947083707
 20
65.415454113162724
 30
0.0
 11
90.367905114395256
 21
63.515353945851182
 31
0.0
 12
113.04380193800741
 22
65.415438293527714
 32
0.0
 13
113.04380193800741
 23
65.415438293527714
 33
0.0
210
0.0
220
0.0
230
1.0
  0
SOLID
  5
721
  8
DRG
  6
CONTINUOUS
 62
     7
 10
67.603784599839159
 20
66.826779374647401
 30
0.0
 11
68.402987979876187
 21
64.89733173546756
 31
0.0
 12
84.501142256151084
 22
62.072518178885289
 32
0.0
 13
84.501142256151084
 23
62.072518178885289
 33
0.0
210
0.0
220
0.0
230
1.0
  0
SOLID
  5
722
  8
DRG
  6
CONTINUOUS
 62
     7
 10
58.461812367870422
 20
67.690704078216172
 30
0.0
 11
32.456165110049618
 21
65.415454113162596
 31
0.0
 12
57.032162100973231
 22
65.415438293527714
 32
0.0
 13
57.032162100973231
 23
65.415438293527714
 33
0.0
210
0.0
220
0.0
230
1.0
  0
SOLID
  5
723
  8
DRG
  6
CONTINUOUS
 62
     7
 10
114.4734522049045
 20
67.690704078216172
 30
0.0
 11
88.467804947083707
 21
65.415454113162724
 31
0.0
 12
113.04380193800741
 22
65.415438293527714
 32
0.0
 13
113.04380193800741
 23
65.415438293527714
 33
0.0
210
0.0
220
0.0
230
1.0
  0
SOLID
  5
724
  8
DRG
  6
CONTINUOUS
 62
     7
 10
31.026516484836939
 20
67.690726866056622
 30
0.0
 11
32.456165110049618
 21
65.415454113162596
 31
0.0
 12
58.461812367870422
 22
67.690704078216172
 32
0.0
 13
58.461812367870422
 23
67.690704078216172
 33
0.0
210
0.0
220
0.0
230
1.0
  0
SOLID
  5
725
  8
DRG
  6
CONTINUOUS
 62
     7
 10
87.038156321871028
 20
67.690726866056806
 30
0.0
 11
88.467804947083707
 21
65.415454113162724
 31
0.0
 12
114.4734522049045
 22
67.690704078216172
 32
0.0
 13
114.4734522049045
 23
67.690704078216172
 33
0.0
210
0.0
220
0.0
230
1.0
  0
SOLID
  5
726
  8
DRG
  6
CONTINUOUS
 62
     7
 10
44.744171147941039
 20
68.794444026784149
 30
0.0
 11
31.026516484836939
 21
67.690726866056622
 31
0.0
 12
58.461812367870422
 22
67.690704078216172
 32
0.0
 13
58.461812367870422
 23
67.690704078216172
 33
0.0
  0
SOLID
  5
727
  8
DRG
  6
CONTINUOUS
 62
     7
 10
100.7558109849752
 20
68.794444026784163
 30
0.0
 11
87.038156321871028
 21
67.690726866056806
 31
0.0
 12
114.4734522049045
 22
67.690704078216172
 32
0.0
 13
114.4734522049045
 23
67.690704078216172
 33
0.0
210
0.0
220
0.0
230
1.0
  0
SOLID
  5
728
  8
DRG
  6
CONTINUOUS
 62
     7
 10
67.331191210151701
 20
68.89733173546756
 30
0.0
 11
67.603784599839159
 21
66.826779374647401
 31
0.0
 12
84.501142256151084
 22
62.072518178885289
 32
0.0
 13
84.501142256151084
 23
62.072518178885289
 33
0.0
210
0.0
220
0.0
230
1.0
  0
SOLID
  5
729
  8
DRG
  6
CONTINUOUS
 62
     7
 10
46.221788157680002
 20
69.088360324271363
 30
0.0
 11
44.744171147941039
 21
68.794444026784149
 31
0.0
 12
58.461812367870422
 22
67.690704078216172
 32
0.0
 13
58.461812367870422
 23
67.690704078216172
 33
0.0
210
0.0
220
0.0
230
1.0
  0
SOLID
  5
72A
  8
DRG
  6
CONTINUOUS
 62
     7
 10
102.23342799471411
 20
69.088360324271378
 30
0.0
 11
100.7558109849752
 21
68.794444026784163
 31
0.0
 12
114.4734522049045
 22
67.690704078216172
 32
0.0
 13
114.4734522049045
 23
67.690704078216172
 33
0.0
210
0.0
220
0.0
230
1.0
  0
SOLID
  5
72B
  8
DRG
  6
CONTINUOUS
 62
     7
 10
43.266554138202238
 20
69.088360324272159
 30
0.0
 11
31.026516484836939
 21
67.690726866056622
 31
0.0
 12
44.744171147941039
 22
68.794444026784149
 32
0.0
 13
44.744171147941039
 23
68.794444026784149
 33
0.0
210
0.0
220
0.0
230
1.0
  0
SOLID
  5
72C
  8
DRG
  6
CONTINUOUS
 62
     7
 10
99.278193975236434
 20
69.088360324272173
 30
0.0
 11
87.038156321871028
 21
67.690726866056806
 31
0.0
 12
100.7558109849752
 22
68.794444026784163
 32
0.0
 13
100.7558109849752
 23
68.794444026784163
 33
0.0
210
0.0
220
0.0
230
1.0
  0
SOLID
  5
72D
  8
DRG
  6
CONTINUOUS
 62
     7
 10
80.482556033578916
 20
69.876055965300111
 30
0.0
 11
67.331191210151701
 21
68.89733173546756
 31
0.0
 12
84.501142256151084
 22
62.072518178885289
 32
0.0
 13
84.501142256151084
 23
62.072518178885289
 33
0.0
210
0.0
220
0.0
230
1.0
  0
SOLID
  5
72E
  8
DRG
  6
CONTINUOUS
 62
     7
 10
84.501142256151084
 20
62.072518178885289
 30
0.0
 11
83.501142256151255
 21
69.876055965300111
 31
0.0
 12
80.482556033578916
 22
69.876055965300111
 32
0.0
 13
80.482556033578916
 23
69.876055965300111
 33
0.0
210
0.0
220
0.0
230
1.0
  0
SOLID
  5
72F
  8
DRG
  6
CONTINUOUS
 62
     7
 10
47.474451372317922
 20
69.925363124799233
 30
0.0
 11
46.221788157680002
 21
69.088360324271363
 31
0.0
 12
58.461812367870422
 22
67.690704078216172
 32
0.0
 13
58.461812367870422
 23
67.690704078216172
 33
0.0
210
0.0
220
0.0
230
1.0
  0
SOLID
  5
730
  8
DRG
  6
CONTINUOUS
 62
     7
 10
103.4860912093521
 20
69.925363124799233
 30
0.0
 11
102.23342799471411
 21
69.088360324271378
 31
0.0
 12
114.4734522049045
 22
67.690704078216172
 32
0.0
 13
114.4734522049045
 23
67.690704078216172
 33
0.0
210
0.0
220
0.0
230
1.0
  0
SOLID
  5
731
  8
DRG
  6
CONTINUOUS
 62
     7
 10
42.01389092356478
 20
69.925363124800725
 30
0.0
 11
31.026516484836939
 21
67.690726866056622
 31
0.0
 12
43.266554138202238
 22
69.088360324272159
 32
0.0
 13
43.266554138202238
 23
69.088360324272159
 33
0.0
  0
SOLID
  5
732
  8
DRG
  6
CONTINUOUS
 62
     7
 10
98.025530760598997
 20
69.925363124800725
 30
0.0
 11
87.038156321871028
 21
67.690726866056806
 31
0.0
 12
99.278193975236434
 22
69.088360324272173
 32
0.0
 13
99.278193975236434
 23
69.088360324272173
 33
0.0
210
0.0
220
0.0
230
1.0
  0
SOLID
  5
733
  8
DRG
  6
CONTINUOUS
 62
     7
 10
84.015250681967487
 20
70.00375669518948
 30
0.0
 11
83.501142256151255
 21
69.876055965300111
 31
0.0
 12
84.501142256151084
 22
62.072518178885289
 32
0.0
 13
84.501142256151084
 23
62.072518178885289
 33
0.0
  0
SOLID
  5
734
  8
DRG
  6
CONTINUOUS
 62
     7
 10
79.334505736483663
 20
70.104417367766246
 30
0.0
 11
67.331191210151701
 21
68.89733173546756
 31
0.0
 12
80.482556033578916
 22
69.876055965300111
 32
0.0
 13
80.482556033578916
 23
69.876055965300111
 33
0.0
210
0.0
220
0.0
230
1.0
  0
SOLID
  5
735
  8
DRG
  6
CONTINUOUS
 62
     7
 10
84.501142256151084
 20
70.214764581409185
 30
0.0
 11
84.015250681967487
 21
70.00375669518948
 31
0.0
 12
84.501142256151084
 22
62.072518178885289
 32
0.0
 13
84.501142256151084
 23
62.072518178885289
 33
0.0
210
0.0
220
0.0
230
1.0
  0
SOLID
  5
736
  8
DRG
  6
CONTINUOUS
 62
     7
 10
115.36096495653361
 20
70.227050937837092
 30
0.0
 11
103.4860912093521
 21
69.925363124799233
 31
0.0
 12
114.4734522049045
 22
67.690704078216172
 32
0.0
 13
114.4734522049045
 23
67.690704078216172
 33
0.0
210
0.0
220
0.0
230
1.0
  0
SOLID
  5
737
  8
DRG
  6
CONTINUOUS
 62
     7
 10
59.349325119499461
 20
70.227050937837092
 30
0.0
 11
47.474451372317922
 21
69.925363124799233
 31
0.0
 12
58.461812367870422
 22
67.690704078216172
 32
0.0
 13
58.461812367870422
 23
67.690704078216172
 33
0.0
210
0.0
220
0.0
230
1.0
  0
SOLID
  5
738
  8
DRG
  6
CONTINUOUS
 62
     7
 10
30.13900795348404
 20
70.227080527991475
 30
0.0
 11
31.026516484836939
 21
67.690726866056622
 31
0.0
 12
42.01389092356478
 22
69.925363124800725
 32
0.0
 13
42.01389092356478
 23
69.925363124800725
 33
0.0
210
0.0
220
0.0
230
1.0
  0
SOLID
  5
739
  8
DRG
  6
CONTINUOUS
 62
     7
 10
86.150647790518164
 20
70.227080527991717
 30
0.0
 11
87.038156321871028
 21
67.690726866056806
 31
0.0
 12
98.025530760598997
 22
69.925363124800725
 32
0.0
 13
98.025530760598997
 23
69.925363124800725
 33
0.0
210
0.0
220
0.0
230
1.0
  0
SOLID
  5
73A
  8
DRG
  6
CONTINUOUS
 62
     7
 10
78.361235690019285
 20
70.754735621740465
 30
0.0
 11
67.331191210151701
 21
68.89733173546756
 31
0.0
 12
79.334505736483663
 22
70.104417367766246
 32
0.0
 13
79.334505736483663
 23
70.104417367766246
 33
0.0
210
0.0
220
0.0
230
1.0
  0
SOLID
  5
73B
  8
DRG
  6
CONTINUOUS
 62
     7
 10
48.311454172846467
 20
71.178026339436684
 30
0.0
 11
47.474451372317922
 21
69.925363124799233
 31
0.0
 12
59.349325119499461
 22
70.227050937837092
 32
0.0
 13
59.349325119499461
 23
70.227050937837092
 33
0.0
210
0.0
220
0.0
230
1.0
  0
SOLID
  5
73C
  8
DRG
  6
CONTINUOUS
 62
     7
 10
104.32309400988061
 20
71.178026339436713
 30
0.0
 11
103.4860912093521
 21
69.925363124799233
 31
0.0
 12
115.36096495653361
 22
70.227050937837092
 32
0.0
 13
115.36096495653361
 23
70.227050937837092
 33
0.0
210
0.0
220
0.0
230
1.0
  0
SOLID
  5
73D
  8
DRG
  6
CONTINUOUS
 62
     7
 10
41.17688812303691
 20
71.178026339438631
 30
0.0
 11
30.13900795348404
 21
70.227080527991475
 31
0.0
 12
42.01389092356478
 22
69.925363124800725
 32
0.0
 13
42.01389092356478
 23
69.925363124800725
 33
0.0
210
0.0
220
0.0
230
1.0
  0
SOLID
  5
73E
  8
DRG
  6
CONTINUOUS
 62
     7
 10
97.188527960071099
 20
71.178026339438631
 30
0.0
 11
86.150647790518164
 21
70.227080527991717
 31
0.0
 12
98.025530760598997
 22
69.925363124800725
 32
0.0
 13
98.025530760598997
 23
69.925363124800725
 33
0.0
  0
SOLID
  5
73F
  8
DRG
  6
CONTINUOUS
 62
     7
 10
77.710917436045065
 20
71.728005668204844
 30
0.0
 11
67.331191210151701
 21
68.89733173546756
 31
0.0
 12
78.361235690019285
 22
70.754735621740465
 32
0.0
 13
78.361235690019285
 23
70.754735621740465
 33
0.0
  0
SOLID
  5
740
  8
DRG
  6
CONTINUOUS
 62
     7
 10
48.605370470334492
 20
72.655643349175492
 30
0.0
 11
48.311454172846467
 21
71.178026339436684
 31
0.0
 12
59.349325119499461
 22
70.227050937837092
 32
0.0
 13
59.349325119499461
 23
70.227050937837092
 33
0.0
210
0.0
220
0.0
230
1.0
  0
SOLID
  5
741
  8
DRG
  6
CONTINUOUS
 62
     7
 10
104.6170103073686
 20
72.655643349175506
 30
0.0
 11
104.32309400988061
 21
71.178026339436713
 31
0.0
 12
115.36096495653361
 22
70.227050937837092
 32
0.0
 13
115.36096495653361
 23
70.227050937837092
 33
0.0
210
0.0
220
0.0
230
1.0
  0
SOLID
  5
742
  8
DRG
  6
CONTINUOUS
 62
     7
 10
40.882971825549703
 20
72.655643349177566
 30
0.0
 11
30.13900795348404
 21
70.227080527991475
 31
0.0
 12
41.17688812303691
 22
71.178026339438631
 32
0.0
 13
41.17688812303691
 23
71.178026339438631
 33
0.0
210
0.0
220
0.0
230
1.0
  0
SOLID
  5
743
  8
DRG
  6
CONTINUOUS
 62
     7
 10
96.894611662583884
 20
72.655643349177595
 30
0.0
 11
86.150647790518164
 21
70.227080527991717
 31
0.0
 12
97.188527960071099
 22
71.178026339438631
 32
0.0
 13
97.188527960071099
 23
71.178026339438631
 33
0.0
210
0.0
220
0.0
230
1.0
  0
SOLID
  5
744
  8
DRG
  6
CONTINUOUS
 62
     7
 10
77.482556033578931
 20
72.876055965300111
 30
0.0
 11
67.331191210151701
 21
68.89733173546756
 31
0.0
 12
77.710917436045065
 22
71.728005668204844
 32
0.0
 13
77.710917436045065
 23
71.728005668204844
 33
0.0
210
0.0
220
0.0
230
1.0
  0
SOLID
  5
745
  8
DRG
  6
CONTINUOUS
 62
     7
 10
115.6618367640986
 20
72.897296325816527
 30
0.0
 11
104.6170103073686
 21
72.655643349175506
 31
0.0
 12
115.36096495653361
 22
70.227050937837092
 32
0.0
 13
115.36096495653361
 23
70.227050937837092
 33
0.0
210
0.0
220
0.0
230
1.0
  0
SOLID
  5
746
  8
DRG
  6
CONTINUOUS
 62
     7
 10
59.650196927064421
 20
72.897296325816555
 30
0.0
 11
48.605370470334492
 21
72.655643349175492
 31
0.0
 12
59.349325119499461
 22
70.227050937837092
 32
0.0
 13
59.349325119499461
 23
70.227050937837092
 33
0.0
210
0.0
220
0.0
230
1.0
  0
SOLID
  5
747
  8
DRG
  6
CONTINUOUS
 62
     7
 10
29.838142899665851
 20
72.897331735467191
 30
0.0
 11
30.13900795348404
 21
70.227080527991475
 31
0.0
 12
40.882971825549703
 22
72.655643349177566
 32
0.0
 13
40.882971825549703
 23
72.655643349177566
 33
0.0
  0
SOLID
  5
748
  8
DRG
  6
CONTINUOUS
 62
     7
 10
85.849782736700035
 20
72.897331735467475
 30
0.0
 11
86.150647790518164
 21
70.227080527991717
 31
0.0
 12
96.894611662583884
 22
72.655643349177595
 32
0.0
 13
96.894611662583884
 23
72.655643349177595
 33
0.0
  0
SOLID
  5
749
  8
DRG
  6
CONTINUOUS
 62
     7
 10
165.4162645291251
 20
78.311404477182364
 30
0.0
 11
161.3332883364622
 21
62.115696081838678
 31
0.0
 12
171.78072804963571
 22
62.115696081838678
 32
0.0
 13
171.78072804963571
 23
62.115696081838678
 33
0.0
210
0.0
220
0.0
230
1.0
  0
SOLID
  5
74A
  8
DRG
  6
CONTINUOUS
 62
     7
 10
48.825355035771203
 20
81.496816718755184
 30
0.0
 11
48.605370470334492
 21
72.655643349175492
 31
0.0
 12
59.650196927064421
 22
72.897296325816555
 32
0.0
 13
59.650196927064421
 23
72.897296325816555
 33
0.0
210
0.0
220
0.0
230
1.0
  0
SOLID
  5
74B
  8
DRG
  6
CONTINUOUS
 62
     7
 10
104.83699487280531
 20
81.496816718755184
 30
0.0
 11
104.6170103073686
 21
72.655643349175506
 31
0.0
 12
115.6618367640986
 22
72.897296325816527
 32
0.0
 13
115.6618367640986
 23
72.897296325816527
 33
0.0
210
0.0
220
0.0
230
1.0
  0
SOLID
  5
74C
  8
DRG
  6
CONTINUOUS
 62
     7
 10
115.9613008061006
 20
81.496816718755412
 30
0.0
 11
104.83699487280531
 21
81.496816718755184
 31
0.0
 12
115.6618367640986
 22
72.897296325816527
 32
0.0
 13
115.6618367640986
 23
72.897296325816527
 33
0.0
210
0.0
220
0.0
230
1.0
  0
SOLID
  5
74D
  8
DRG
  6
CONTINUOUS
 62
     7
 10
59.9496609690664
 20
81.49681671875544
 30
0.0
 11
48.825355035771203
 21
81.496816718755184
 31
0.0
 12
59.650196927064421
 22
72.897296325816555
 32
0.0
 13
59.650196927064421
 23
72.897296325816555
 33
0.0
210
0.0
220
0.0
230
1.0
  0
SOLID
  5
74E
  8
DRG
  6
CONTINUOUS
 62
     7
 10
29.538681326817759
 20
81.496816718755596
 30
0.0
 11
29.838142899665851
 21
72.897331735467191
 31
0.0
 12
40.882971825549703
 22
72.655643349177566
 32
0.0
 13
40.882971825549703
 23
72.655643349177566
 33
0.0
  0
SOLID
  5
74F
  8
DRG
  6
CONTINUOUS
 62
     7
 10
85.550321163851976
 20
81.496816718755767
 30
0.0
 11
85.849782736700035
 21
72.897331735467475
 31
0.0
 12
96.894611662583884
 22
72.655643349177595
 32
0.0
 13
96.894611662583884
 23
72.655643349177595
 33
0.0
210
0.0
220
0.0
230
1.0
  0
SOLID
  5
750
  8
DRG
  6
CONTINUOUS
 62
     7
 10
40.662987260112992
 20
81.496816718755866
 30
0.0
 11
29.538681326817759
 21
81.496816718755596
 31
0.0
 12
40.882971825549703
 22
72.655643349177566
 32
0.0
 13
40.882971825549703
 23
72.655643349177566
 33
0.0
210
0.0
220
0.0
230
1.0
  0
SOLID
  5
751
  8
DRG
  6
CONTINUOUS
 62
     7
 10
96.674627097147194
 20
81.496816718756293
 30
0.0
 11
85.550321163851976
 21
81.496816718755767
 31
0.0
 12
96.894611662583884
 22
72.655643349177595
 32
0.0
 13
96.894611662583884
 23
72.655643349177595
 33
0.0
210
0.0
220
0.0
230
1.0
  0
SOLID
  5
752
  8
DRG
  6
CONTINUOUS
 62
     7
 10
153.2899770207527
 20
82.583583780839575
 30
0.0
 11
161.3332883364622
 21
62.115696081838678
 31
0.0
 12
165.4162645291251
 22
78.311404477182364
 32
0.0
 13
165.4162645291251
 23
78.311404477182364
 33
0.0
210
0.0
220
0.0
230
1.0
  0
SOLID
  5
753
  8
DRG
  6
CONTINUOUS
 62
     7
 10
18.821661727211438
 20
85.569427875032716
 30
0.0
 11
7.7802673214059723
 21
62.115696081838671
 31
0.0
 12
18.821661727211438
 22
62.115696081838678
 32
0.0
 13
18.821661727211438
 23
62.115696081838678
 33
0.0
  0
SOLID
  5
754
  8
DRG
  6
CONTINUOUS
 62
     7
 10
130.05101171535759
 20
85.569427875032716
 30
0.0
 11
119.0096173095521
 21
62.115696081838678
 31
0.0
 12
130.05101171535759
 22
62.115696081838671
 32
0.0
 13
130.05101171535759
 23
62.115696081838671
 33
0.0
210
0.0
220
0.0
230
1.0
  0
SOLID
  5
755
  8
DRG
  6
CONTINUOUS
 62
     7
 10
176.9709164189357
 20
86.855763084496857
 30
0.0
 11
153.2899770207527
 21
82.583583780839575
 31
0.0
 12
165.4162645291251
 22
78.311404477182364
 32
0.0
 13
165.4162645291251
 23
78.311404477182364
 33
0.0
210
0.0
220
0.0
230
1.0
  0
SOLID
  5
756
  8
DRG
  6
CONTINUOUS
 62
     7
 10
176.9709164189357
 20
86.855763084496857
 30
0.0
 11
165.4162645291251
 21
78.311404477182364
 31
0.0
 12
176.9709164189357
 22
78.31140447718235
 32
0.0
 13
176.9709164189357
 23
78.31140447718235
 33
0.0
210
0.0
220
0.0
230
1.0
  0
SOLID
  5
757
  8
DRG
  6
CONTINUOUS
 62
     7
 10
165.4162645291251
 20
86.855763084496886
 30
0.0
 11
153.2899770207527
 21
82.583583780839575
 31
0.0
 12
176.9709164189357
 22
86.855763084496857
 32
0.0
 13
176.9709164189357
 23
86.855763084496857
 33
0.0
210
0.0
220
0.0
230
1.0
  0
SOLID
  5
758
  8
DRG
  6
CONTINUOUS
 62
     7
 10
19.0942551168989
 20
87.639980235852875
 30
0.0
 11
7.7802673214059723
 21
62.115696081838671
 31
0.0
 12
18.821661727211438
 22
85.569427875032716
 32
0.0
 13
18.821661727211438
 23
85.569427875032716
 33
0.0
  0
SOLID
  5
759
  8
DRG
  6
CONTINUOUS
 62
     7
 10
130.323605105045
 20
87.639980235852889
 30
0.0
 11
119.0096173095521
 21
62.115696081838678
 31
0.0
 12
130.05101171535759
 22
85.569427875032716
 32
0.0
 13
130.05101171535759
 23
85.569427875032716
 33
0.0
210
0.0
220
0.0
230
1.0
  0
SOLID
  5
75A
  8
DRG
  6
CONTINUOUS
 62
     7
 10
131.12280848508209
 20
89.569427875032716
 30
0.0
 11
119.0096173095521
 21
62.115696081838678
 31
0.0
 12
130.323605105045
 22
87.639980235852889
 32
0.0
 13
130.323605105045
 23
87.639980235852889
 33
0.0
210
0.0
220
0.0
230
1.0
  0
SOLID
  5
75B
  8
DRG
  6
CONTINUOUS
 62
     7
 10
19.893458496935931
 20
89.569427875032716
 30
0.0
 11
7.7802673214059723
 21
62.115696081838671
 31
0.0
 12
19.0942551168989
 22
87.639980235852875
 32
0.0
 13
19.0942551168989
 23
87.639980235852875
 33
0.0
210
0.0
220
0.0
230
1.0
  0
SOLID
  5
75C
  8
DRG
  6
CONTINUOUS
 62
     7
 10
29.83814289966584
 20
90.096301702044016
 30
0.0
 11
29.538681326817759
 21
81.496816718755596
 31
0.0
 12
40.662987260112992
 22
81.496816718755866
 32
0.0
 13
40.662987260112992
 23
81.496816718755866
 33
0.0
210
0.0
220
0.0
230
1.0
  0
SOLID
  5
75D
  8
DRG
  6
CONTINUOUS
 62
     7
 10
85.849782736700035
 20
90.096301702044045
 30
0.0
 11
85.550321163851976
 21
81.496816718755767
 31
0.0
 12
96.674627097147194
 22
81.496816718756293
 32
0.0
 13
96.674627097147194
 23
81.496816718756293
 33
0.0
210
0.0
220
0.0
230
1.0
  0
SOLID
  5
75E
  8
DRG
  6
CONTINUOUS
 62
     7
 10
115.6618367640986
 20
90.096337111694325
 30
0.0
 11
104.83699487280531
 21
81.496816718755184
 31
0.0
 12
115.9613008061006
 22
81.496816718755412
 32
0.0
 13
115.9613008061006
 23
81.496816718755412
 33
0.0
210
0.0
220
0.0
230
1.0
  0
SOLID
  5
75F
  8
DRG
  6
CONTINUOUS
 62
     7
 10
59.650196927064421
 20
90.096337111694368
 30
0.0
 11
48.825355035771203
 21
81.496816718755184
 31
0.0
 12
59.9496609690664
 22
81.49681671875544
 32
0.0
 13
59.9496609690664
 23
81.49681671875544
 33
0.0
210
0.0
220
0.0
230
1.0
  0
SOLID
  5
760
  8
DRG
  6
CONTINUOUS
 62
     7
 10
40.882971825549703
 20
90.337990088334166
 30
0.0
 11
29.83814289966584
 21
90.096301702044016
 31
0.0
 12
40.662987260112992
 22
81.496816718755866
 32
0.0
 13
40.662987260112992
 23
81.496816718755866
 33
0.0
  0
SOLID
  5
761
  8
DRG
  6
CONTINUOUS
 62
     7
 10
104.6170103073686
 20
90.337990088334735
 30
0.0
 11
104.83699487280531
 21
81.496816718755184
 31
0.0
 12
115.6618367640986
 22
90.096337111694325
 32
0.0
 13
115.6618367640986
 23
90.096337111694325
 33
0.0
210
0.0
220
0.0
230
1.0
  0
SOLID
  5
762
  8
DRG
  6
CONTINUOUS
 62
     7
 10
48.605370470334456
 20
90.337990088334735
 30
0.0
 11
48.825355035771203
 21
81.496816718755184
 31
0.0
 12
59.650196927064421
 22
90.096337111694368
 32
0.0
 13
59.650196927064421
 23
90.096337111694368
 33
0.0
210
0.0
220
0.0
230
1.0
  0
SOLID
  5
763
  8
DRG
  6
CONTINUOUS
 62
     7
 10
96.894611662583884
 20
90.337990088335033
 30
0.0
 11
85.849782736700035
 21
90.096301702044045
 31
0.0
 12
96.674627097147194
 22
81.496816718756293
 32
0.0
 13
96.674627097147194
 23
81.496816718756293
 33
0.0
210
0.0
220
0.0
230
1.0
  0
SOLID
  5
764
  8
DRG
  6
CONTINUOUS
 62
     7
 10
41.176888123037209
 20
91.815607098073087
 30
0.0
 11
29.83814289966584
 21
90.096301702044016
 31
0.0
 12
40.882971825549703
 22
90.337990088334166
 32
0.0
 13
40.882971825549703
 23
90.337990088334166
 33
0.0
210
0.0
220
0.0
230
1.0
  0
SOLID
  5
765
  8
DRG
  6
CONTINUOUS
 62
     7
 10
48.311454172846773
 20
91.815607098073613
 30
0.0
 11
48.605370470334456
 21
90.337990088334735
 31
0.0
 12
59.650196927064421
 22
90.096337111694368
 32
0.0
 13
59.650196927064421
 23
90.096337111694368
 33
0.0
210
0.0
220
0.0
230
1.0
  0
SOLID
  5
766
  8
DRG
  6
CONTINUOUS
 62
     7
 10
104.3230940098811
 20
91.815607098073656
 30
0.0
 11
104.6170103073686
 21
90.337990088334735
 31
0.0
 12
115.6618367640986
 22
90.096337111694325
 32
0.0
 13
115.6618367640986
 23
90.096337111694325
 33
0.0
210
0.0
220
0.0
230
1.0
  0
SOLID
  5
767
  8
DRG
  6
CONTINUOUS
 62
     7
 10
97.188527960071553
 20
91.815607098073897
 30
0.0
 11
85.849782736700035
 21
90.096301702044045
 31
0.0
 12
96.894611662583884
 22
90.337990088335033
 32
0.0
 13
96.894611662583884
 23
90.337990088335033
 33
0.0
210
0.0
220
0.0
230
1.0
  0
SOLID
  5
768
  8
DRG
  6
CONTINUOUS
 62
     7
 10
30.139007953484011
 20
92.766552909519746
 30
0.0
 11
29.83814289966584
 21
90.096301702044016
 31
0.0
 12
41.176888123037209
 22
91.815607098073087
 32
0.0
 13
41.176888123037209
 23
91.815607098073087
 33
0.0
210
0.0
220
0.0
230
1.0
  0
SOLID
  5
769
  8
DRG
  6
CONTINUOUS
 62
     7
 10
86.150647790518178
 20
92.766552909519746
 30
0.0
 11
85.849782736700035
 21
90.096301702044045
 31
0.0
 12
97.188527960071553
 22
91.815607098073897
 32
0.0
 13
97.188527960071553
 23
91.815607098073897
 33
0.0
210
0.0
220
0.0
230
1.0
  0
SOLID
  5
76A
  8
DRG
  6
CONTINUOUS
 62
     7
 10
115.36096495653371
 20
92.766582499673873
 30
0.0
 11
104.3230940098811
 21
91.815607098073656
 31
0.0
 12
115.6618367640986
 22
90.096337111694325
 32
0.0
 13
115.6618367640986
 23
90.096337111694325
 33
0.0
210
0.0
220
0.0
230
1.0
  0
SOLID
  5
76B
  8
DRG
  6
CONTINUOUS
 62
     7
 10
59.349325119499539
 20
92.766582499673916
 30
0.0
 11
48.311454172846773
 21
91.815607098073613
 31
0.0
 12
59.650196927064421
 22
90.096337111694368
 32
0.0
 13
59.650196927064421
 23
90.096337111694368
 33
0.0
210
0.0
220
0.0
230
1.0
  0
SOLID
  5
76C
  8
DRG
  6
CONTINUOUS
 62
     7
 10
42.013890923565327
 20
93.068270312710808
 30
0.0
 11
30.139007953484011
 21
92.766552909519746
 31
0.0
 12
41.176888123037209
 22
91.815607098073087
 32
0.0
 13
41.176888123037209
 23
91.815607098073087
 33
0.0
210
0.0
220
0.0
230
1.0
  0
SOLID
  5
76D
  8
DRG
  6
CONTINUOUS
 62
     7
 10
47.474451372318462
 20
93.068270312711235
 30
0.0
 11
48.311454172846773
 21
91.815607098073613
 31
0.0
 12
59.349325119499539
 22
92.766582499673916
 32
0.0
 13
59.349325119499539
 23
92.766582499673916
 33
0.0
210
0.0
220
0.0
230
1.0
  0
SOLID
  5
76E
  8
DRG
  6
CONTINUOUS
 62
     7
 10
103.48609120935291
 20
93.068270312711363
 30
0.0
 11
104.3230940098811
 21
91.815607098073656
 31
0.0
 12
115.36096495653371
 22
92.766582499673873
 32
0.0
 13
115.36096495653371
 23
92.766582499673873
 33
0.0
  0
SOLID
  5
76F
  8
DRG
  6
CONTINUOUS
 62
     7
 10
98.025530760599821
 20
93.068270312711576
 30
0.0
 11
86.150647790518178
 21
92.766552909519746
 31
0.0
 12
97.188527960071553
 22
91.815607098073897
 32
0.0
 13
97.188527960071553
 23
91.815607098073897
 33
0.0
210
0.0
220
0.0
230
1.0
  0
SOLID
  5
770
  8
DRG
  6
CONTINUOUS
 62
     7
 10
43.266554138202949
 20
93.905273113239119
 30
0.0
 11
30.139007953484011
 21
92.766552909519746
 31
0.0
 12
42.013890923565327
 22
93.068270312710808
 32
0.0
 13
42.013890923565327
 23
93.068270312710808
 33
0.0
  0
SOLID
  5
771
  8
DRG
  6
CONTINUOUS
 62
     7
 10
46.221788157680713
 20
93.90527311323936
 30
0.0
 11
47.474451372318462
 21
93.068270312711235
 31
0.0
 12
59.349325119499539
 22
92.766582499673916
 32
0.0
 13
59.349325119499539
 23
92.766582499673916
 33
0.0
210
0.0
220
0.0
230
1.0
  0
SOLID
  5
772
  8
DRG
  6
CONTINUOUS
 62
     7
 10
102.2334279947152
 20
93.905273113239616
 30
0.0
 11
103.48609120935291
 21
93.068270312711363
 31
0.0
 12
115.36096495653371
 22
92.766582499673873
 32
0.0
 13
115.36096495653371
 23
92.766582499673873
 33
0.0
210
0.0
220
0.0
230
1.0
  0
SOLID
  5
773
  8
DRG
  6
CONTINUOUS
 62
     7
 10
99.278193975237528
 20
93.905273113239744
 30
0.0
 11
86.150647790518178
 21
92.766552909519746
 31
0.0
 12
98.025530760599821
 22
93.068270312711576
 32
0.0
 13
98.025530760599821
 23
93.068270312711576
 33
0.0
210
0.0
220
0.0
230
1.0
  0
SOLID
  5
774
  8
DRG
  6
CONTINUOUS
 62
     7
 10
44.744171147941813
 20
94.199189410726845
 30
0.0
 11
30.139007953484011
 21
92.766552909519746
 31
0.0
 12
43.266554138202949
 22
93.905273113239119
 32
0.0
 13
43.266554138202949
 23
93.905273113239119
 33
0.0
210
0.0
220
0.0
230
1.0
  0
SOLID
  5
775
  8
DRG
  6
CONTINUOUS
 62
     7
 10
44.744171147941813
 20
94.199189410726845
 30
0.0
 11
46.221788157680713
 21
93.90527311323936
 31
0.0
 12
59.349325119499539
 22
92.766582499673916
 32
0.0
 13
59.349325119499539
 23
92.766582499673916
 33
0.0
210
0.0
220
0.0
230
1.0
  0
SOLID
  5
776
  8
DRG
  6
CONTINUOUS
 62
     7
 10
100.75581098497641
 20
94.199189410727286
 30
0.0
 11
86.150647790518178
 21
92.766552909519746
 31
0.0
 12
99.278193975237528
 22
93.905273113239744
 32
0.0
 13
99.278193975237528
 23
93.905273113239744
 33
0.0
  0
SOLID
  5
777
  8
DRG
  6
CONTINUOUS
 62
     7
 10
100.75581098497641
 20
94.199189410727286
 30
0.0
 11
102.2334279947152
 21
93.905273113239616
 31
0.0
 12
115.36096495653371
 22
92.766582499673873
 32
0.0
 13
115.36096495653371
 23
92.766582499673873
 33
0.0
210
0.0
220
0.0
230
1.0
  0
SOLID
  5
778
  8
DRG
  6
CONTINUOUS
 62
     7
 10
77.482556033578931
 20
94.593352860836134
 30
0.0
 11
67.331191210151701
 21
68.89733173546756
 31
0.0
 12
77.482556033578931
 22
72.876055965300111
 32
0.0
 13
77.482556033578931
 23
72.876055965300111
 33
0.0
210
0.0
220
0.0
230
1.0
  0
SOLID
  5
779
  8
DRG
  6
CONTINUOUS
 62
     7
 10
67.331191210151687
 20
94.593352860836134
 30
0.0
 11
77.482556033578931
 21
94.593352860836134
 31
0.0
 12
84.553623006881026
 22
94.593352860836134
 32
0.0
 13
84.553623006881026
 23
94.593352860836134
 33
0.0
210
0.0
220
0.0
230
1.0
  0
SOLID
  5
77A
  8
DRG
  6
CONTINUOUS
 62
     7
 10
67.331191210151687
 20
94.593352860836134
 30
0.0
 11
67.331191210151701
 21
68.89733173546756
 31
0.0
 12
77.482556033578931
 22
94.593352860836134
 32
0.0
 13
77.482556033578931
 23
94.593352860836134
 33
0.0
210
0.0
220
0.0
230
1.0
  0
SOLID
  5
77B
  8
DRG
  6
CONTINUOUS
 62
     7
 10
87.038156321871057
 20
95.302906571454614
 30
0.0
 11
86.150647790518178
 21
92.766552909519746
 31
0.0
 12
100.75581098497641
 22
94.199189410727286
 32
0.0
 13
100.75581098497641
 23
94.199189410727286
 33
0.0
  0
SOLID
  5
77C
  8
DRG
  6
CONTINUOUS
 62
     7
 10
31.02651648483689
 20
95.302906571454614
 30
0.0
 11
30.139007953484011
 21
92.766552909519746
 31
0.0
 12
44.744171147941813
 22
94.199189410726845
 32
0.0
 13
44.744171147941813
 23
94.199189410726845
 33
0.0
210
0.0
220
0.0
230
1.0
  0
SOLID
  5
77D
  8
DRG
  6
CONTINUOUS
 62
     7
 10
114.4734522049047
 20
95.302929359294865
 30
0.0
 11
87.038156321871057
 21
95.302906571454614
 31
0.0
 12
100.75581098497641
 22
94.199189410727286
 32
0.0
 13
100.75581098497641
 23
94.199189410727286
 33
0.0
210
0.0
220
0.0
230
1.0
  0
SOLID
  5
77E
  8
DRG
  6
CONTINUOUS
 62
     7
 10
114.4734522049047
 20
95.302929359294865
 30
0.0
 11
100.75581098497641
 21
94.199189410727286
 31
0.0
 12
115.36096495653371
 22
92.766582499673873
 32
0.0
 13
115.36096495653371
 23
92.766582499673873
 33
0.0
210
0.0
220
0.0
230
1.0
  0
SOLID
  5
77F
  8
DRG
  6
CONTINUOUS
 62
     7
 10
58.461812367870529
 20
95.302929359294907
 30
0.0
 11
31.02651648483689
 21
95.302906571454614
 31
0.0
 12
44.744171147941813
 22
94.199189410726845
 32
0.0
 13
44.744171147941813
 23
94.199189410726845
 33
0.0
210
0.0
220
0.0
230
1.0
  0
SOLID
  5
780
  8
DRG
  6
CONTINUOUS
 62
     7
 10
58.461812367870529
 20
95.302929359294907
 30
0.0
 11
44.744171147941813
 21
94.199189410726845
 31
0.0
 12
59.349325119499539
 22
92.766582499673916
 32
0.0
 13
59.349325119499539
 23
92.766582499673916
 33
0.0
210
0.0
220
0.0
230
1.0
  0
SOLID
  5
781
  8
DRG
  6
CONTINUOUS
 62
     7
 10
88.467804947083764
 20
97.578179324348682
 30
0.0
 11
87.038156321871057
 21
95.302906571454614
 31
0.0
 12
114.4734522049047
 22
95.302929359294865
 32
0.0
 13
114.4734522049047
 23
95.302929359294865
 33
0.0
210
0.0
220
0.0
230
1.0
  0
SOLID
  5
782
  8
DRG
  6
CONTINUOUS
 62
     7
 10
32.456165110049582
 20
97.578179324348682
 30
0.0
 11
31.02651648483689
 21
95.302906571454614
 31
0.0
 12
58.461812367870529
 22
95.302929359294907
 32
0.0
 13
58.461812367870529
 23
95.302929359294907
 33
0.0
210
0.0
220
0.0
230
1.0
  0
SOLID
  5
783
  8
DRG
  6
CONTINUOUS
 62
     7
 10
113.0438019380075
 20
97.578195143983422
 30
0.0
 11
88.467804947083764
 21
97.578179324348682
 31
0.0
 12
114.4734522049047
 22
95.302929359294865
 32
0.0
 13
114.4734522049047
 23
95.302929359294865
 33
0.0
210
0.0
220
0.0
230
1.0
  0
SOLID
  5
784
  8
DRG
  6
CONTINUOUS
 62
     7
 10
57.03216210097338
 20
97.578195143983436
 30
0.0
 11
32.456165110049582
 21
97.578179324348682
 31
0.0
 12
58.461812367870529
 22
95.302929359294907
 32
0.0
 13
58.461812367870529
 23
95.302929359294907
 33
0.0
210
0.0
220
0.0
230
1.0
  0
SOLID
  5
785
  8
DRG
  6
CONTINUOUS
 62
     7
 10
130.05101171535759
 20
97.915857504065855
 30
0.0
 11
138.05101171535759
 21
93.569427875032716
 31
0.0
 12
139.4206293992797
 22
93.56942787503273
 32
0.0
 13
139.4206293992797
 23
93.56942787503273
 33
0.0
210
0.0
220
0.0
230
1.0
  0
SOLID
  5
786
  8
DRG
  6
CONTINUOUS
 62
     7
 10
130.05101171535759
 20
97.915857504065855
 30
0.0
 11
135.9804593545374
 21
93.296834485345258
 31
0.0
 12
138.05101171535759
 22
93.569427875032716
 32
0.0
 13
138.05101171535759
 23
93.569427875032716
 33
0.0
  0
SOLID
  5
787
  8
DRG
  6
CONTINUOUS
 62
     7
 10
130.05101171535759
 20
97.915857504065855
 30
0.0
 11
134.05101171535759
 21
92.49763110530823
 31
0.0
 12
135.9804593545374
 22
93.296834485345258
 32
0.0
 13
135.9804593545374
 23
93.296834485345258
 33
0.0
210
0.0
220
0.0
230
1.0
  0
SOLID
  5
788
  8
DRG
  6
CONTINUOUS
 62
     7
 10
130.05101171535759
 20
97.915857504065855
 30
0.0
 11
132.39415746586519
 21
91.226282124525085
 31
0.0
 12
134.05101171535759
 22
92.49763110530823
 32
0.0
 13
134.05101171535759
 23
92.49763110530823
 33
0.0
210
0.0
220
0.0
230
1.0
  0
SOLID
  5
789
  8
DRG
  6
CONTINUOUS
 62
     7
 10
130.05101171535759
 20
97.915857504065855
 30
0.0
 11
131.12280848508209
 21
89.569427875032716
 31
0.0
 12
132.39415746586519
 22
91.226282124525085
 32
0.0
 13
132.39415746586519
 23
91.226282124525085
 33
0.0
210
0.0
220
0.0
230
1.0
  0
SOLID
  5
78A
  8
DRG
  6
CONTINUOUS
 62
     7
 10
130.05101171535759
 20
97.915857504065855
 30
0.0
 11
119.0096173095521
 21
62.115696081838678
 31
0.0
 12
131.12280848508209
 22
89.569427875032716
 32
0.0
 13
131.12280848508209
 23
89.569427875032716
 33
0.0
  0
SOLID
  5
78B
  8
DRG
  6
CONTINUOUS
 62
     7
 10
18.821661727211438
 20
97.915857504065912
 30
0.0
 11
26.821661727211438
 21
93.569427875032716
 31
0.0
 12
28.191279411133561
 22
93.56942787503273
 32
0.0
 13
28.191279411133561
 23
93.56942787503273
 33
0.0
  0
SOLID
  5
78C
  8
DRG
  6
CONTINUOUS
 62
     7
 10
18.821661727211438
 20
97.915857504065912
 30
0.0
 11
24.751109366391269
 21
93.296834485345258
 31
0.0
 12
26.821661727211438
 22
93.569427875032716
 32
0.0
 13
26.821661727211438
 23
93.569427875032716
 33
0.0
210
0.0
220
0.0
230
1.0
  0
SOLID
  5
78D
  8
DRG
  6
CONTINUOUS
 62
     7
 10
18.821661727211438
 20
97.915857504065912
 30
0.0
 11
22.821661727211449
 21
92.49763110530823
 31
0.0
 12
24.751109366391269
 22
93.296834485345258
 32
0.0
 13
24.751109366391269
 23
93.296834485345258
 33
0.0
210
0.0
220
0.0
230
1.0
  0
SOLID
  5
78E
  8
DRG
  6
CONTINUOUS
 62
     7
 10
18.821661727211438
 20
97.915857504065912
 30
0.0
 11
21.164807477719059
 21
91.226282124525085
 31
0.0
 12
22.821661727211449
 22
92.49763110530823
 32
0.0
 13
22.821661727211449
 23
92.49763110530823
 33
0.0
210
0.0
220
0.0
230
1.0
  0
SOLID
  5
78F
  8
DRG
  6
CONTINUOUS
 62
     7
 10
18.821661727211438
 20
97.915857504065912
 30
0.0
 11
19.893458496935931
 21
89.569427875032716
 31
0.0
 12
21.164807477719059
 22
91.226282124525085
 32
0.0
 13
21.164807477719059
 23
91.226282124525085
 33
0.0
210
0.0
220
0.0
230
1.0
  0
SOLID
  5
790
  8
DRG
  6
CONTINUOUS
 62
     7
 10
18.821661727211438
 20
97.915857504065912
 30
0.0
 11
7.7802673214059723
 21
62.115696081838671
 31
0.0
 12
19.893458496935931
 22
89.569427875032716
 32
0.0
 13
19.893458496935931
 23
89.569427875032716
 33
0.0
210
0.0
220
0.0
230
1.0
  0
SOLID
  5
791
  8
DRG
  6
CONTINUOUS
 62
     7
 10
90.367905114395313
 20
99.478279491660203
 30
0.0
 11
88.467804947083764
 21
97.578179324348682
 31
0.0
 12
113.0438019380075
 22
97.578195143983422
 32
0.0
 13
113.0438019380075
 23
97.578195143983422
 33
0.0
210
0.0
220
0.0
230
1.0
  0
SOLID
  5
792
  8
DRG
  6
CONTINUOUS
 62
     7
 10
34.356265277361132
 20
99.478279491660203
 30
0.0
 11
32.456165110049582
 21
97.578179324348682
 31
0.0
 12
57.03216210097338
 22
97.578195143983436
 32
0.0
 13
57.03216210097338
 23
97.578195143983436
 33
0.0
210
0.0
220
0.0
230
1.0
  0
SOLID
  5
793
  8
DRG
  6
CONTINUOUS
 62
     7
 10
111.1437025217155
 20
99.478288953462325
 30
0.0
 11
90.367905114395313
 21
99.478279491660203
 31
0.0
 12
113.0438019380075
 22
97.578195143983422
 32
0.0
 13
113.0438019380075
 23
97.578195143983422
 33
0.0
210
0.0
220
0.0
230
1.0
  0
SOLID
  5
794
  8
DRG
  6
CONTINUOUS
 62
     7
 10
55.132062684681358
 20
99.478288953462354
 30
0.0
 11
34.356265277361132
 21
99.478279491660203
 31
0.0
 12
57.03216210097338
 22
97.578195143983436
 32
0.0
 13
57.03216210097338
 23
97.578195143983436
 33
0.0
210
0.0
220
0.0
230
1.0
  0
SOLID
  5
795
  8
DRG
  6
CONTINUOUS
 62
     7
 10
131.90017275248141
 20
99.844187280346816
 30
0.0
 11
130.05101171535759
 21
97.915857504065855
 31
0.0
 12
139.4206293992797
 22
93.56942787503273
 32
0.0
 13
139.4206293992797
 23
93.56942787503273
 33
0.0
210
0.0
220
0.0
230
1.0
  0
SOLID
  5
796
  8
DRG
  6
CONTINUOUS
 62
     7
 10
20.670822764335242
 20
99.844187280346901
 30
0.0
 11
18.821661727211438
 21
97.915857504065912
 31
0.0
 12
28.191279411133561
 22
93.56942787503273
 32
0.0
 13
28.191279411133561
 23
93.56942787503273
 33
0.0
  0
SOLID
  5
797
  8
DRG
  6
CONTINUOUS
 62
     7
 10
36.631538030255221
 20
100.9079281168728
 30
0.0
 11
34.356265277361132
 21
99.478279491660203
 31
0.0
 12
55.132062684681358
 22
99.478288953462354
 32
0.0
 13
55.132062684681358
 23
99.478288953462354
 33
0.0
210
0.0
220
0.0
230
1.0
  0
SOLID
  5
798
  8
DRG
  6
CONTINUOUS
 62
     7
 10
92.643177867289396
 20
100.9079281168728
 30
0.0
 11
90.367905114395313
 21
99.478279491660203
 31
0.0
 12
111.1437025217155
 22
99.478288953462325
 32
0.0
 13
111.1437025217155
 23
99.478288953462325
 33
0.0
  0
SOLID
  5
799
  8
DRG
  6
CONTINUOUS
 62
     7
 10
52.856792681384711
 20
100.9079325064894
 30
0.0
 11
36.631538030255221
 21
100.9079281168728
 31
0.0
 12
55.132062684681358
 22
99.478288953462354
 32
0.0
 13
55.132062684681358
 23
99.478288953462354
 33
0.0
  0
SOLID
  5
79A
  8
DRG
  6
CONTINUOUS
 62
     7
 10
108.8684325184189
 20
100.9079325064894
 30
0.0
 11
92.643177867289396
 21
100.9079281168728
 31
0.0
 12
111.1437025217155
 22
99.478288953462325
 32
0.0
 13
111.1437025217155
 23
99.478288953462325
 33
0.0
210
0.0
220
0.0
230
1.0
  0
SOLID
  5
79B
  8
DRG
  6
CONTINUOUS
 62
     7
 10
134.18475166795781
 20
101.22930512597181
 30
0.0
 11
131.90017275248141
 21
99.844187280346816
 31
0.0
 12
139.4206293992797
 22
93.56942787503273
 32
0.0
 13
139.4206293992797
 23
93.56942787503273
 33
0.0
210
0.0
220
0.0
230
1.0
  0
SOLID
  5
79C
  8
DRG
  6
CONTINUOUS
 62
     7
 10
22.955401679811722
 20
101.2293051259719
 30
0.0
 11
20.670822764335242
 21
99.844187280346901
 31
0.0
 12
28.191279411133561
 22
93.56942787503273
 32
0.0
 13
28.191279411133561
 23
93.56942787503273
 33
0.0
210
0.0
220
0.0
230
1.0
  0
SOLID
  5
79D
  8
DRG
  6
CONTINUOUS
 62
     7
 10
39.167891692190111
 20
101.7954366482256
 30
0.0
 11
36.631538030255221
 21
100.9079281168728
 31
0.0
 12
52.856792681384711
 22
100.9079325064894
 32
0.0
 13
52.856792681384711
 23
100.9079325064894
 33
0.0
210
0.0
220
0.0
230
1.0
  0
SOLID
  5
79E
  8
DRG
  6
CONTINUOUS
 62
     7
 10
95.179531529224278
 20
101.7954366482256
 30
0.0
 11
92.643177867289396
 21
100.9079281168728
 31
0.0
 12
108.8684325184189
 22
100.9079325064894
 32
0.0
 13
108.8684325184189
 23
100.9079325064894
 33
0.0
  0
SOLID
  5
79F
  8
DRG
  6
CONTINUOUS
 62
     7
 10
50.320443202898389
 20
101.7954377738515
 30
0.0
 11
39.167891692190111
 21
101.7954366482256
 31
0.0
 12
52.856792681384711
 22
100.9079325064894
 32
0.0
 13
52.856792681384711
 23
100.9079325064894
 33
0.0
210
0.0
220
0.0
230
1.0
  0
SOLID
  5
7A0
  8
DRG
  6
CONTINUOUS
 62
     7
 10
106.3320830399325
 20
101.7954377738515
 30
0.0
 11
95.179531529224278
 21
101.7954366482256
 31
0.0
 12
108.8684325184189
 22
100.9079325064894
 32
0.0
 13
108.8684325184189
 23
100.9079325064894
 33
0.0
210
0.0
220
0.0
230
1.0
  0
SOLID
  5
7A1
  8
DRG
  6
CONTINUOUS
 62
     7
 10
136.74962306925659
 20
101.9771600330952
 30
0.0
 11
134.18475166795781
 21
101.22930512597181
 31
0.0
 12
139.4206293992797
 22
93.56942787503273
 32
0.0
 13
139.4206293992797
 23
93.56942787503273
 33
0.0
210
0.0
220
0.0
230
1.0
  0
SOLID
  5
7A2
  8
DRG
  6
CONTINUOUS
 62
     7
 10
25.520273081110439
 20
101.9771600330952
 30
0.0
 11
22.955401679811722
 21
101.2293051259719
 31
0.0
 12
28.191279411133561
 22
93.56942787503273
 32
0.0
 13
28.191279411133561
 23
93.56942787503273
 33
0.0
210
0.0
220
0.0
230
1.0
  0
SOLID
  5
7A3
  8
DRG
  6
CONTINUOUS
 62
     7
 10
77.482556033578931
 20
101.9948050433795
 30
0.0
 11
62.478989637268569
 21
94.593352860836134
 31
0.0
 12
67.331191210151687
 22
94.593352860836134
 32
0.0
 13
67.331191210151687
 23
94.593352860836134
 33
0.0
210
0.0
220
0.0
230
1.0
  0
SOLID
  5
7A4
  8
DRG
  6
CONTINUOUS
 62
     7
 10
77.482556033578931
 20
101.9948050433795
 30
0.0
 11
67.331191210151687
 21
94.593352860836134
 31
0.0
 12
84.553623006881026
 22
94.593352860836134
 32
0.0
 13
84.553623006881026
 23
94.593352860836134
 33
0.0
210
0.0
220
0.0
230
1.0
  0
SOLID
  5
7A5
  8
DRG
  6
CONTINUOUS
 62
     7
 10
62.478989637268562
 20
101.9948050433795
 30
0.0
 11
62.478989637268569
 21
94.593352860836134
 31
0.0
 12
77.482556033578931
 22
101.9948050433795
 32
0.0
 13
77.482556033578931
 23
101.9948050433795
 33
0.0
  0
SOLID
  5
7A6
  8
DRG
  6
CONTINUOUS
 62
     7
 10
84.553623006881026
 20
101.9948050433795
 30
0.0
 11
77.482556033578931
 21
101.9948050433795
 31
0.0
 12
84.553623006881026
 22
94.593352860836134
 32
0.0
 13
84.553623006881026
 23
94.593352860836134
 33
0.0
210
0.0
220
0.0
230
1.0
  0
SOLID
  5
7A7
  8
DRG
  6
CONTINUOUS
 62
     7
 10
67.331191210151701
 20
101.9948050433795
 30
0.0
 11
62.478989637268562
 21
101.9948050433795
 31
0.0
 12
77.482556033578931
 22
101.9948050433795
 32
0.0
 13
77.482556033578931
 23
101.9948050433795
 33
0.0
210
0.0
220
0.0
230
1.0
  0
SOLID
  5
7A8
  8
DRG
  6
CONTINUOUS
 62
     7
 10
139.4206293992797
 20
102.0369718403325
 30
0.0
 11
136.74962306925659
 21
101.9771600330952
 31
0.0
 12
139.4206293992797
 22
93.56942787503273
 32
0.0
 13
139.4206293992797
 23
93.56942787503273
 33
0.0
210
0.0
220
0.0
230
1.0
  0
SOLID
  5
7A9
  8
DRG
  6
CONTINUOUS
 62
     7
 10
7.7802673214059723
 20
102.0369718403326
 30
0.0
 11
7.7802673214059723
 21
62.115696081838671
 31
0.0
 12
18.821661727211438
 22
97.915857504065912
 32
0.0
 13
18.821661727211438
 23
97.915857504065912
 33
0.0
210
0.0
220
0.0
230
1.0
  0
SOLID
  5
7AA
  8
DRG
  6
CONTINUOUS
 62
     7
 10
142.11987082690661
 20
62.115696081838678
 30
0.0
 11
153.2899770207527
 21
102.0369718403326
 31
0.0
 12
142.11987082690661
 22
102.0369718403326
 32
0.0
 13
142.11987082690661
 23
102.0369718403326
 33
0.0
  0
SOLID
  5
7AB
  8
DRG
  6
CONTINUOUS
 62
     7
 10
153.2899770207527
 20
102.0369718403326
 30
0.0
 11
142.11987082690661
 21
62.115696081838678
 31
0.0
 12
153.2899770207527
 22
62.115696081838678
 32
0.0
 13
153.2899770207527
 23
62.115696081838678
 33
0.0
210
0.0
220
0.0
230
1.0
  0
SOLID
  5
7AC
  8
DRG
  6
CONTINUOUS
 62
     7
 10
18.821661727211438
 20
102.0369718403326
 30
0.0
 11
7.7802673214059723
 21
102.0369718403326
 31
0.0
 12
18.821661727211438
 22
97.915857504065912
 32
0.0
 13
18.821661727211438
 23
97.915857504065912
 33
0.0
  0
SOLID
  5
7AD
  8
DRG
  6
CONTINUOUS
 62
     7
 10
130.05101171535759
 20
102.0369718403326
 30
0.0
 11
119.0096173095521
 21
62.115696081838678
 31
0.0
 12
130.05101171535759
 22
97.915857504065855
 32
0.0
 13
130.05101171535759
 23
97.915857504065855
 33
0.0
210
0.0
220
0.0
230
1.0
  0
SOLID
  5
7AE
  8
DRG
  6
CONTINUOUS
 62
     7
 10
165.4162645291251
 20
86.855763084496886
 30
0.0
 11
171.38205787173379
 21
102.0369718403326
 31
0.0
 12
160.9346181585602
 22
102.0369718403326
 32
0.0
 13
160.9346181585602
 23
102.0369718403326
 33
0.0
210
0.0
220
0.0
230
1.0
  0
SOLID
  5
7AF
  8
DRG
  6
CONTINUOUS
 62
     7
 10
160.9346181585602
 20
102.0369718403326
 30
0.0
 11
153.2899770207527
 21
82.583583780839575
 31
0.0
 12
165.4162645291251
 22
86.855763084496886
 32
0.0
 13
165.4162645291251
 23
86.855763084496886
 33
0.0
  0
SOLID
  5
7B0
  8
DRG
  6
CONTINUOUS
 62
     7
 10
28.191279411133561
 20
102.0369718403326
 30
0.0
 11
25.520273081110439
 21
101.9771600330952
 31
0.0
 12
28.191279411133561
 22
93.56942787503273
 32
0.0
 13
28.191279411133561
 23
93.56942787503273
 33
0.0
  0
SOLID
  5
7B1
  8
DRG
  6
CONTINUOUS
 62
     7
 10
119.0096173095521
 20
102.0369718403326
 30
0.0
 11
119.0096173095521
 21
62.115696081838678
 31
0.0
 12
130.05101171535759
 22
102.0369718403326
 32
0.0
 13
130.05101171535759
 23
102.0369718403326
 33
0.0
210
0.0
220
0.0
230
1.0
  0
SOLID
  5
7B2
  8
DRG
  6
CONTINUOUS
 62
     7
 10
106.3320830399325
 20
101.7954377738515
 30
0.0
 11
103.66183676415081
 21
102.0963017020437
 31
0.0
 12
97.849782736700035
 22
102.0963017020437
 32
0.0
 13
97.849782736700035
 23
102.0963017020437
 33
0.0
210
0.0
220
0.0
230
1.0
  0
SOLID
  5
7B3
  8
DRG
  6
CONTINUOUS
 62
     7
 10
97.849782736700035
 20
102.0963017020437
 30
0.0
 11
95.179531529224278
 21
101.7954366482256
 31
0.0
 12
106.3320830399325
 22
101.7954377738515
 32
0.0
 13
106.3320830399325
 23
101.7954377738515
 33
0.0
210
0.0
220
0.0
230
1.0
  0
SOLID
  5
7B4
  8
DRG
  6
CONTINUOUS
 62
     7
 10
50.320443202898389
 20
101.7954377738515
 30
0.0
 11
47.650196927116667
 21
102.0963017020437
 31
0.0
 12
41.838142899665847
 22
102.0963017020437
 32
0.0
 13
41.838142899665847
 23
102.0963017020437
 33
0.0
210
0.0
220
0.0
230
1.0
  0
SOLID
  5
7B5
  8
DRG
  6
CONTINUOUS
 62
     7
 10
41.838142899665847
 20
102.0963017020437
 30
0.0
 11
39.167891692190111
 21
101.7954366482256
 31
0.0
 12
50.320443202898389
 22
101.7954377738515
 32
0.0
 13
50.320443202898389
 23
101.7954377738515
 33
0.0
210
0.0
220
0.0
230
1.0
  0
SOLID
  5
7B6
  8
DRG
  6
CONTINUOUS
 62
     7
 10
77.482556033578931
 20
107.1280725498991
 30
0.0
 11
67.331191210151701
 21
101.9948050433795
 31
0.0
 12
77.482556033578931
 22
101.9948050433795
 32
0.0
 13
77.482556033578931
 23
101.9948050433795
 33
0.0
  0
SOLID
  5
7B7
  8
DRG
  6
CONTINUOUS
 62
     7
 10
67.331191210151701
 20
107.1280725498991
 30
0.0
 11
67.331191210151701
 21
101.9948050433795
 31
0.0
 12
77.482556033578931
 22
107.1280725498991
 32
0.0
 13
77.482556033578931
 23
107.1280725498991
 33
0.0
210
0.0
220
0.0
230
1.0
  0
ENDBLK
  5
7B9
  8
0
  0
ENDSEC
  0
SECTION
  2
ENTITIES
  0
LINE
  5
2E
  8
BORT
 39
3.6000000000000001
 10
1500.0
 20
241.27661262712559
 30
0.0
 11
312.0
 21
241.27661262712559
 31
0.0
  0
LINE
  5
2F
  8
BORT
 39
3.6000000000000001
 10
1500.0
 20
181.27661262712559
 30
0.0
 11
0.0
 21
181.27661262712559
 31
0.0
  0
LINE
  5
32
  8
BORT
 39
3.6000000000000001
 10
312.0
 20
377.27661262712559
 30
0.0
 11
0.0
 21
377.27661262712559
 31
0.0
  0
LINE
  5
33
  8
BORT
 39
3.6000000000000001
 10
312.0
 20
489.2766126271257
 30
0.0
 11
0.0
 21
489.2766126271257
 31
0.0
  0
LINE
  5
34
  8
BORT
 39
3.6000000000000001
 10
312.0
 20
349.2766126271257
 30
0.0
 11
0.0
 21
349.2766126271257
 31
0.0
  0
LINE
  5
35
  8
BORT
 39
3.6000000000000001
 10
312.0
 20
349.2766126271257
 30
0.0
 11
0.0
 21
349.2766126271257
 31
0.0
  0
TEXT
  5
36
  8
BORT
 10
8.2380952380952444
 20
358.27661262712559
 30
0.0
 40
10.0
  1
ISSUE
 72
     4
 11
28.0
 21
363.2766126271257
 31
0.0
  0
LINE
  5
3C
  8
BORT
 39
3.6000000000000001
 10
0.0
 20
181.27661262712559
 30
0.0
 11
0.0
 21
568.81507226482665
 31
0.0
  0
TEXT
  5
3D
  8
BORT
 10
24.19047619047619
 20
386.27661262712559
 30
0.0
 40
10.0
  1
A
 72
     4
 11
28.0
 21
391.27661262712559
 31
0.0
  0
LINE
  5
3E
  8
BORT
 39
3.6000000000000001
 10
56.0
 20
349.2766126271257
 30
0.0
 11
56.000000000000007
 21
405.27661262712547
 31
0.0
  0
TEXT
  5
3F
  8
BORT
 10
126.1428571428571
 20
386.27661262712559
 30
0.0
 40
10.0
  1
ORIGINAL ISSUE
 72
     4
 11
184.0
 21
391.27661262712559
 31
0.0
  0
TEXT
  5
40
  8
BORT
 10
135.6666666666666
 20
358.27661262712559
 30
0.0
 40
10.0
  1
ALTERATIONS
 72
     4
 11
184.0
 21
363.2766126271257
 31
0.0
  0
LINE
  5
41
  8
BORT
 39
3.6000000000000001
 10
312.0
 20
349.2766126271257
 30
0.0
 11
312.0
 21
181.27661262712559
 31
0.0
  0
LINE
  5
42
  8
BORT
 39
3.6000000000000001
 10
312.0
 20
545.2766126271257
 30
0.0
 11
312.0
 21
349.2766126271257
 31
0.0
  0
TEXT
  5
43
  8
BORT
 10
731.41836921547053
 20
215.65148337293991
 30
0.0
 40
20.0
  1
OUTLINE DETAILS OF IS17
 72
     4
 11
925.70408350118475
 21
225.65148337293991
 31
0.0
  0
TEXT
  5
44
  8
BORT
 10
375.68405459209652
 20
205.81351047318839
 30
0.0
 40
12.0
  1
EXEECO LTD   C   1996
  0
CIRCLE
  5
45
  8
BORT
 10
524.30939793581001
 20
211.65918570778419
 30
0.0
 40
11.30959949294261
  0
LINE
  5
46
  8
BORT
 39
3.6000000000000001
 10
700.0
 20
241.27661262712559
 30
0.0
 11
700.0
 21
181.27661262712559
 31
0.0
  0
LINE
  5
47
  8
BORT
 39
3.6000000000000001
 10
1500.0
 20
273.27661262712559
 30
0.0
 11
1152.0
 21
273.27661262712559
 31
0.0
  0
LINE
  5
48
  8
BORT
 39
3.6000000000000001
 10
1152.0
 20
305.2766126271257
 30
0.0
 11
1500.0
 21
305.2766126271257
 31
0.0
  0
TEXT
  5
49
  8
BORT
 10
1196.6666666666661
 20
199.27661262712559
 30
0.0
 40
28.0
  1
PUB\IS17CD
 72
     4
 11
1320.0
 21
211.27661262712559
 31
0.0
  0
TEXT
  5
4A
  8
BORT
 10
1158.3348093528591
 20
251.92544526431189
 30
0.0
 40
10.0
  1
CHECKED:-
  0
TEXT
  5
4B
  8
BORT
 10
1158.9127744417301
 20
283.27661262712559
 30
0.0
 40
10.0
  1
DRAWN:-
  0
TEXT
  5
4C
  8
BORT
 10
755.70408350118475
 20
190.2190227245294
 30
0.0
 40
20.0
  1
ISO & USA STANDARD
 72
     4
 11
925.70408350118475
 21
200.2190227245294
 31
0.0
  0
LINE
  5
4D
  8
BORT
 39
3.6000000000000001
 10
1152.0
 20
305.2766126271257
 30
0.0
 11
1152.0
 21
241.27661262712559
 31
0.0
  0
LINE
  5
4E
  8
BORT
 39
3.6000000000000001
 10
1140.0
 20
241.27661262712559
 30
0.0
 11
1140.0
 21
181.27661262712559
 31
0.0
  0
TEXT
  5
4F
  8
BORT
 10
1271.6455832347399
 20
284.2766126271257
 30
0.0
 40
10.0
  1
S.W.   10.9.96
 72
     4
 11
1326.4074879966449
 21
289.27661262712559
 31
0.0
  0
LINE
  5
50
  8
BORT
 39
3.6000000000000001
 10
1500.0
 20
305.2766126271257
 30
0.0
 11
1500.0
 21
181.27661262712559
 31
0.0
  0
LINE
  5
51
  8
BORT
 39
3.6000000000000001
 10
1412.0
 20
305.2766126271257
 30
0.0
 11
1412.0
 21
241.27661262712559
 31
0.0
  0
TEXT
  5
52
  8
BORT
 10
1441.983690967945
 20
251.27661262712559
 30
0.0
 40
10.0
  1
1:2
  0
TEXT
  5
53
  8
BORT
 10
1431.5725485912251
 20
283.27661262712559
 30
0.0
 40
10.0
  1
SCALE
  0
SOLID
  5
54
  8
DIM
 10
1289.028754536826
 20
1111.5680384158679
 30
0.0
 11
1292.541292312015
 21
1113.481694178505
 31
0.0
 12
1296.5259907123309
 22
1101.987252971621
 32
0.0
 13
1296.5259907123309
 23
1101.987252971621
 33
0.0
  0
ARC
  5
55
  8
DIM
 10
1370.6451614324869
 20
926.5700756931526
 30
0.0
 40
205.0
 50
118.2498540491099
 51
136.57545683373439
  0
LINE
  5
56
  8
DIM
 10
1405.990702120434
 20
890.01349053331387
 30
0.0
 11
1210.0938192553319
 21
1092.6223894671241
 31
0.0
  0
SOLID
  5
57
  8
DIM
 10
1235.053336445163
 20
1063.9303938225439
 30
0.0
 11
1237.92899478666
 21
1066.7107875182251
 31
0.0
 12
1228.1499845288699
 22
1073.9475656948759
 32
0.0
 13
1228.1499845288699
 23
1073.9475656948759
 33
0.0
  0
SOLID
  5
58
  8
DIM
 10
1390.7461691171011
 20
908.65763743013645
 30
0.0
 11
1387.870510775603
 21
905.8772437344561
 31
0.0
 12
1397.6495210333931
 22
898.64046555780499
 32
0.0
 13
1397.6495210333931
 23
898.64046555780499
 33
0.0
  0
SOLID
  5
59
  8
DIM
 10
1399.087350204142
 20
900.03066240564453
 30
0.0
 11
1396.211691862645
 21
897.2502687099643
 31
0.0
 12
1405.9907021204349
 22
890.01349053331319
 32
0.0
 13
1405.9907021204349
 23
890.01349053331319
 33
0.0
  0
LINE
  5
5A
  8
DIM
 10
1018.145161432487
 20
547.55830677986683
 30
0.0
 11
1431.995633457127
 21
547.55830677986683
 31
0.0
  0
LINE
  5
5B
  8
DIM
 10
1018.145161432487
 20
898.08325483457452
 30
0.0
 11
1018.145161432487
 21
545.55830677986683
 31
0.0
  0
SOLID
  5
5C
  8
DIM
 10
1030.1451614324869
 20
549.55830677986694
 30
0.0
 11
1030.1451614324869
 21
545.55830677986694
 31
0.0
 12
1018.145161432487
 22
547.55830677986683
 32
0.0
 13
1018.145161432487
 23
547.55830677986683
 33
0.0
  0
SOLID
  5
5D
  8
DIM
 10
1427.995633457127
 20
549.55830677986694
 30
0.0
 11
1427.995633457127
 21
545.55830677986694
 31
0.0
 12
1439.995633457127
 22
547.55830677986683
 32
0.0
 13
1439.995633457127
 23
547.55830677986683
 33
0.0
  0
SOLID
  5
5E
  8
DIM
 10
1415.995633457128
 20
549.55830677986694
 30
0.0
 11
1415.995633457128
 21
545.55830677986694
 31
0.0
 12
1427.995633457127
 22
547.55830677986683
 32
0.0
 13
1427.995633457127
 23
547.55830677986683
 33
0.0
  0
TEXT
  5
5F
  8
DIM
 10
1209.833174429654
 20
553.98430677986687
 30
0.0
 40
9.9960000000000004
  1
%%C705
 72
     4
 11
1227.2071744296541
 21
558.9823067798668
 31
0.0
  0
LINE
  5
60
  8
DIM
 10
1296.5259907123309
 20
1101.987252971621
 30
0.0
 11
1139.853149310379
 21
1389.5621055209631
 31
0.0
  0
TEXT
  5
61
  8
DIM
 10
991.23965859532473
 20
1376.5986139356389
 30
0.0
 40
9.9960000000000004
  1
HOLE DETAILS
  0
TEXT
  5
62
  8
DIM
 10
991.23965859532473
 20
1393.7346139356389
 30
0.0
 40
9.9960000000000004
  1
SEE TABLE FOR
  0
TEXT
  5
63
  8
DIM
 10
863.57547592752292
 20
1307.0774253958641
 30
0.0
 40
9.9960000000000004
  1

  0
LINE
  5
64
  8
DIM
 10
1112.3600023329841
 20
1389.5621055209631
 30
0.0
 11
1139.853149310379
 21
1389.5621055209631
 31
0.0
  0
LINE
  5
65
  8
DIM
 10
923.11088194088109
 20
1034.520075693152
 30
0.0
 11
923.11088194088154
 21
818.62007569315369
 31
0.0
  0
LINE
  5
66
  8
DIM
 10
836.37920130356724
 20
1034.520075693152
 30
0.0
 11
925.11088194088109
 21
1034.520075693152
 31
0.0
  0
SOLID
  5
67
  8
DIM
 10
921.11088194088097
 20
1022.520075693152
 30
0.0
 11
925.11088194088143
 21
1022.520075693152
 31
0.0
 12
923.11088194088109
 22
1034.520075693152
 32
0.0
 13
923.11088194088109
 23
1034.520075693152
 33
0.0
  0
TEXT
  5
68
  8
DIM
 10
938.87370551128106
 20
887.02179549678431
 30
0.0
 40
9.9960000000000004
  1
SPIGOT DIA.
 50
90.0
 72
     4
 11
933.8757055112809
 21
930.33779549678422
 31
0.0
  0
TEXT
  5
69
  8
DIM
 10
916.68488194088104
 20
869.29390494908648
 30
0.0
 40
9.9960000000000004
  1
SEE TABLE FOR
 50
90.0
 72
     4
 11
911.68688194088088
 21
928.07990494908643
 31
0.0
  0
LINE
  5
6A
  8
DIM
 10
837.0178153058622
 20
818.62007569315369
 30
0.0
 11
925.11088194088143
 21
818.62007569315369
 31
0.0
  0
SOLID
  5
6B
  8
DIM
 10
921.11088194088131
 20
830.62007569315358
 30
0.0
 11
925.11088194088143
 21
830.62007569315358
 31
0.0
 12
923.11088194088154
 22
818.62007569315369
 32
0.0
 13
923.11088194088154
 23
818.62007569315369
 33
0.0
  0
LINE
  5
6C
  8
HID
 10
783.44325740237264
 20
1026.4500756931491
 30
0.0
 11
783.44325740237264
 21
1006.390075693149
 31
0.0
  0
LINE
  5
6D
  8
HID
 10
755.94325740237264
 20
1026.4500756931491
 30
0.0
 11
755.94325740237264
 21
1006.390075693149
 31
0.0
  0
LINE
  5
6E
  8
HID
 10
816.69325740237207
 20
1006.390075693149
 30
0.0
 11
816.69325740237275
 21
846.75007569314937
 31
0.0
  0
LINE
  5
6F
  8
HID
 10
666.69325740237264
 20
1005.730075693149
 30
0.0
 11
666.69325740237264
 21
847.41007569314945
 31
0.0
  0
LINE
  5
70
  8
HID
 10
702.24325740237191
 20
846.75007569314937
 30
0.0
 11
755.94325740237264
 21
846.75007569314937
 31
0.0
  0
LINE
  5
71
  8
HID
 10
702.24325740237191
 20
849.13007569314948
 30
0.0
 11
698.24325740237191
 21
849.13007569314948
 31
0.0
  0
LINE
  5
72
  8
HID
 10
698.24325740237225
 20
848.65007569314957
 30
0.0
 11
666.69325740237264
 21
848.65007569314957
 31
0.0
  0
LINE
  5
73
  8
HID
 10
698.24325740237191
 20
847.41007569314945
 30
0.0
 11
666.69325740237264
 21
847.41007569314945
 31
0.0
  0
LINE
  5
74
  8
HID
 10
698.24325740237191
 20
847.41007569314945
 30
0.0
 11
698.24325740237191
 21
849.13007569314948
 31
0.0
  0
LINE
  5
75
  8
HID
 10
702.24325740237191
 20
846.75007569314937
 30
0.0
 11
702.24325740237191
 21
849.13007569314948
 31
0.0
  0
LINE
  5
76
  8
HID
 10
783.44325740237264
 20
846.75007569314937
 30
0.0
 11
783.44325740237264
 21
826.69007569314931
 31
0.0
  0
LINE
  5
77
  8
HID
 10
755.94325740237264
 20
846.75007569314937
 30
0.0
 11
755.94325740237264
 21
826.69007569314931
 31
0.0
  0
LINE
  5
78
  8
HID
 10
755.94325740237264
 20
826.69007569314931
 30
0.0
 11
783.44325740237264
 21
826.69007569314942
 31
0.0
  0
LINE
  5
79
  8
HID
 10
783.44325740237264
 20
846.75007569314937
 30
0.0
 11
816.69325740237275
 21
846.75007569314937
 31
0.0
  0
LINE
  5
7A
  8
HID
 10
702.24325740237191
 20
1006.390075693149
 30
0.0
 11
755.94325740237264
 21
1006.390075693149
 31
0.0
  0
TEXT
  5
7B
  8
DIM
 10
730.66158029735016
 20
975.72524111005566
 30
0.0
 40
9.9960000000000004
  1
150
 72
     4
 11
742.56158029735025
 21
980.72324111005582
 31
0.0
  0
LINE
  5
7C
  8
DIM
 10
672.69325740237264
 20
969.68251719273826
 30
0.0
 11
810.69325740237173
 21
969.68251719273837
 31
0.0
  0
LINE
  5
7D
  8
HID
 10
702.24325740237191
 20
1004.010075693149
 30
0.0
 11
698.24325740237191
 21
1004.010075693149
 31
0.0
  0
SOLID
  5
7E
  8
DIM
 10
678.69295740237294
 20
971.68246719273827
 30
0.0
 11
678.69295740237294
 21
967.68256719273825
 31
0.0
 12
666.69325740237264
 22
969.68251719273826
 32
0.0
 13
666.69325740237264
 23
969.68251719273826
 33
0.0
  0
LINE
  5
7F
  8
HID
 10
698.24325740237225
 20
1004.500075693149
 30
0.0
 11
666.69325740237264
 21
1004.500075693149
 31
0.0
  0
LINE
  5
80
  8
HID
 10
698.24325740237191
 20
1005.730075693149
 30
0.0
 11
666.69325740237264
 21
1005.730075693149
 31
0.0
  0
LINE
  5
81
  8
HID
 10
698.24325740237191
 20
1005.730075693149
 30
0.0
 11
698.24325740237191
 21
1004.010075693149
 31
0.0
  0
LINE
  5
82
  8
HID
 10
702.24325740237191
 20
1006.390075693149
 30
0.0
 11
702.24325740237191
 21
1004.010075693149
 31
0.0
  0
SOLID
  5
83
  8
DIM
 10
804.69355740237154
 20
971.68246719273827
 30
0.0
 11
804.69355740237154
 21
967.68256719273825
 31
0.0
 12
816.69325740237161
 22
969.68251719273837
 32
0.0
 13
816.69325740237161
 23
969.68251719273837
 33
0.0
  0
LINE
  5
84
  8
HID
 10
783.44325740237264
 20
1006.390075693149
 30
0.0
 11
816.69325740237207
 21
1006.390075693149
 31
0.0
  0
LINE
  5
85
  8
HID
 10
755.94325740237264
 20
1026.4500756931491
 30
0.0
 11
783.44325740237264
 21
1026.4500756931491
 31
0.0
  0
LINE
  5
86
  8
DIM
 10
657.28218768404349
 20
848.65007569314889
 30
0.0
 11
262.04275871161047
 21
848.64507569315265
 31
0.0
  0
LINE
  5
87
  8
DIM
 10
657.28218768404349
 20
1004.500075693148
 30
0.0
 11
262.04275871161047
 21
1004.495075693152
 31
0.0
  0
LINE
  5
88
  8
DIM
 10
263.70942537827699
 20
1004.495075693152
 30
0.0
 11
263.70942537827699
 21
848.64507569315265
 31
0.0
  0
SOLID
  5
89
  8
DIM
 10
261.70942739385782
 20
860.64506359966811
 30
0.0
 11
265.70942739385782
 21
860.64506359966811
 31
0.0
 12
263.70942739385782
 22
848.64506359966822
 32
0.0
 13
263.70942739385782
 23
848.64506359966822
 33
0.0
  0
SOLID
  5
8A
  8
DIM
 10
261.70942537827699
 20
992.49507569315256
 30
0.0
 11
265.70942537827699
 21
992.49507569315256
 31
0.0
 12
263.70942537827699
 22
1004.495075693152
 32
0.0
 13
263.70942537827699
 23
1004.495075693152
 33
0.0
  0
TEXT
  5
8B
  8
DIM
 10
251.79735535523281
 20
1052.369958851554
 30
0.0
 40
9.9960000000000004
  1
%%C155 (%%c6.10") ROOT OF SPLINE
 50
90.0
  0
TEXT
  5
8C
  8
DIM
 10
286.06935535523269
 20
1052.369958851554
 30
0.0
 40
9.9960000000000004
  1
VALVE SPINDLE LOCKNUT
 50
90.0
  0
TEXT
  5
8D
  8
DIM
 10
268.93335535523278
 20
1052.369958851554
 30
0.0
 40
9.9960000000000004
  1
MAX. PERMISSIBLE O/D OF
 50
90.0
  0
SOLID
  5
8E
  8
DIM
 10
148.5540017543253
 20
1024.950075693152
 30
0.0
 11
152.5540017543253
 21
1024.950075693152
 31
0.0
 12
150.5540017543257
 22
1036.950075693152
 32
0.0
 13
150.5540017543257
 23
1036.950075693152
 33
0.0
  0
LINE
  5
8F
  8
DIM
 10
150.5540017543253
 20
1036.950075693152
 30
0.0
 11
150.5540017543257
 21
816.19007569315261
 31
0.0
  0
LINE
  5
90
  8
DIM
 10
336.02763863283269
 20
816.19007569315261
 30
0.0
 11
148.5540017543257
 21
816.19007569315261
 31
0.0
  0
SOLID
  5
91
  8
DIM
 10
148.5540017543257
 20
828.19007569315249
 30
0.0
 11
152.5540017543257
 21
828.19007569315249
 31
0.0
 12
150.5540017543257
 22
816.19007569315261
 32
0.0
 13
150.5540017543257
 23
816.19007569315261
 33
0.0
  0
TEXT
  5
92
  8
DIM
 10
144.12800175432579
 20
909.19607569315269
 30
0.0
 40
9.9960000000000004
  1
%%C220
 50
90.0
 72
     4
 11
139.1300017543258
 21
926.57007569315272
 31
0.0
  0
LINE
  5
93
  8
DIM
 10
337.09592528521762
 20
1036.950075693152
 30
0.0
 11
271.71395446433468
 21
1036.950075693152
 31
0.0
  0
TEXT
  5
94
  8
DIM
 10
38.618313825697442
 20
749.91594444775535
 30
0.0
 40
9.9960000000000004
  1
4 HOLES TAPPED M10x16
  0
TEXT
  5
95
  8
DIM
 10
38.618313825697442
 20
732.77994444775504
 30
0.0
 40
9.9960000000000004
  1
(0.63") DEEP EQUALLY SPACED
  0
TEXT
  5
96
  8
DIM
 10
38.618313825697442
 20
715.64394444775496
 30
0.0
 40
9.9960000000000004
  1
45%%d OFFSET FROM CENTRE LINE
  0
SOLID
  5
97
  8
DIM
 10
351.04325740237198
 20
1686.099668035082
 30
0.0
 11
351.04325740237198
 21
1682.099668035082
 31
0.0
 12
363.04325740237198
 22
1684.099668035082
 32
0.0
 13
363.04325740237198
 23
1684.099668035082
 33
0.0
  0
LINE
  5
98
  8
DIM
 10
162.79325740237161
 20
1634.3791569693581
 30
0.0
 11
134.42338443434909
 21
1634.3791569693581
 31
0.0
  0
TEXT
  5
99
  8
DIM
 10
206.25310861777021
 20
1640.805156969358
 30
0.0
 40
9.9960000000000004
  1
5
 72
     4
 11
209.5851086177702
 21
1645.803156969358
 31
0.0
  0
LINE
  5
9A
  8
DIM
 10
162.79325740237161
 20
1561.932022272312
 30
0.0
 11
162.79325740237161
 21
1590.8755154808609
 31
0.0
  0
LINE
  5
9B
  8
DIM
 10
167.79325740237161
 20
1568.24612728896
 30
0.0
 11
167.79325740237161
 21
1591.7448443421649
 31
0.0
  0
SOLID
  5
9C
  8
DIM
 10
179.79325740237161
 20
1636.3791569693581
 30
0.0
 11
179.79325740237161
 21
1632.3791569693581
 31
0.0
 12
167.79325740237161
 22
1634.3791569693581
 32
0.0
 13
167.79325740237161
 23
1634.3791569693581
 33
0.0
  0
SOLID
  5
9D
  8
DIM
 10
150.79325740237161
 20
1636.3791569693581
 30
0.0
 11
150.79325740237161
 21
1632.3791569693581
 31
0.0
 12
162.79325740237161
 22
1634.3791569693581
 32
0.0
 13
162.79325740237161
 23
1634.3791569693581
 33
0.0
  0
LINE
  5
9E
  8
DIM
 10
179.79325740237161
 20
1634.3791569693581
 30
0.0
 11
232.86273126666291
 21
1634.3791569693581
 31
0.0
  0
LINE
  5
9F
  8
DIM
 10
162.7932574023711
 20
1684.099668035082
 30
0.0
 11
363.04325740237198
 21
1684.099668035082
 31
0.0
  0
SOLID
  5
A0
  8
DIM
 10
174.79325740237161
 20
1686.099668035082
 30
0.0
 11
174.79325740237161
 21
1682.099668035082
 31
0.0
 12
162.79325740237161
 22
1684.099668035082
 32
0.0
 13
162.79325740237161
 23
1684.099668035082
 33
0.0
  0
TEXT
  5
A1
  8
DIM
 10
248.54196721561701
 20
1690.5256680350819
 30
0.0
 40
9.9960000000000004
  1
200
 72
     4
 11
261.39396721561701
 21
1695.523668035082
 31
0.0
  0
SOLID
  5
A2
  8
DIM
 10
336.04325740237192
 20
1636.3791569693581
 30
0.0
 11
336.04325740237192
 21
1632.3791569693581
 31
0.0
 12
348.04325740237192
 22
1634.3791569693581
 32
0.0
 13
348.04325740237192
 23
1634.3791569693581
 33
0.0
  0
TEXT
  5
A3
  8
DIM
 10
298.89069629606928
 20
1640.805156969358
 30
0.0
 40
9.9960000000000004
  1
15
 72
     4
 11
306.03069629606932
 21
1645.803156969358
 31
0.0
  0
LINE
  5
A4
  8
DIM
 10
348.04325740237192
 20
1634.3791569693581
 30
0.0
 11
279.33391844416047
 21
1634.3791569693581
 31
0.0
  0
LINE
  5
A5
  8
DIM
 10
348.04325740237198
 20
1599.0915657188059
 30
0.0
 11
348.04325740237192
 21
1636.3791569693581
 31
0.0
  0
SOLID
  5
A6
  8
DIM
 10
375.04325740237198
 20
1636.3791569693581
 30
0.0
 11
375.04325740237198
 21
1632.3791569693581
 31
0.0
 12
363.04325740237198
 22
1634.3791569693581
 32
0.0
 13
363.04325740237198
 23
1634.3791569693581
 33
0.0
  0
LINE
  5
A7
  8
DIM
 10
375.04325740237198
 20
1634.3791569693581
 30
0.0
 11
387.04325740237209
 21
1634.3791569693581
 31
0.0
  0
LINE
  5
A8
  8
DIM
 10
203.0395320973434
 20
1572.679929904813
 30
0.0
 11
195.31551525814021
 21
1596.4980051876889
 31
0.0
  0
SOLID
  5
A9
  8
DIM
 10
199.9031602336876
 20
1575.8679028552749
 30
0.0
 11
203.70808733951841
 21
1577.1018111660151
 31
0.0
 12
205.50734871882369
 22
1565.0700756931531
 32
0.0
 13
205.50734871882369
 23
1565.0700756931531
 33
0.0
  0
LINE
  5
AA
  8
DIM
 10
159.43568165144049
 20
1561.6700756931521
 30
0.0
 11
85.188771413774248
 21
1561.6700756931521
 31
0.0
  0
LINE
  5
AB
  8
DIM
 10
159.43568165144049
 20
1511.6700756931521
 30
0.0
 11
85.188771413774248
 21
1511.6700756931521
 31
0.0
  0
LINE
  5
AC
  8
DIM
 10
87.188771413774234
 20
1561.6700756931521
 30
0.0
 11
87.188771413774234
 21
1364.537714876654
 31
0.0
  0
SOLID
  5
AD
  8
DIM
 10
85.188771413774717
 20
1523.6700756931521
 30
0.0
 11
89.188771413774248
 21
1523.6700756931521
 31
0.0
 12
87.188771413774234
 22
1511.6700756931521
 32
0.0
 13
87.188771413774234
 23
1511.6700756931521
 33
0.0
  0
SOLID
  5
AE
  8
DIM
 10
85.188771413774717
 20
1549.6700756931521
 30
0.0
 11
89.188771413774248
 21
1549.6700756931521
 31
0.0
 12
87.188771413774234
 22
1561.6700756931521
 32
0.0
 13
87.188771413774234
 23
1561.6700756931521
 33
0.0
  0
TEXT
  5
AF
  8
DIM
 10
102.2375949841738
 20
1363.1114095900871
 30
0.0
 40
9.9960000000000004
  1
(%%c1.969" -0.002")
 50
90.0
 72
     4
 11
97.953594984173833
 21
1432.369409590086
 31
0.0
  0
TEXT
  5
B0
  8
DIM
 10
80.762771413774274
 20
1381.923980006484
 30
0.0
 40
9.9960000000000004
  1
%%c50.00 -0.05
 50
90.0
 72
     4
 11
75.76477141377427
 21
1433.8079800064841
 31
0.0
  0
LINE
  5
B1
  8
DIM
 10
826.24325740237282
 20
1128.020075693149
 30
0.0
 11
826.24325740237282
 21
1746.289607805488
 31
0.0
  0
LINE
  5
B2
  8
DIM
 10
363.04325740237198
 20
1742.289607805488
 30
0.0
 11
826.24325740237282
 21
1742.289607805488
 31
0.0
  0
SOLID
  5
B3
  8
DIM
 10
375.04325740237198
 20
1744.289607805488
 30
0.0
 11
375.04325740237198
 21
1740.289607805488
 31
0.0
 12
363.04325740237198
 22
1742.289607805488
 32
0.0
 13
363.04325740237198
 23
1742.289607805488
 33
0.0
  0
SOLID
  5
B4
  8
DIM
 10
814.24325740237271
 20
1744.289607805488
 30
0.0
 11
814.24325740237271
 21
1740.289607805488
 31
0.0
 12
826.24325740237282
 22
1742.289607805488
 32
0.0
 13
826.24325740237282
 23
1742.289607805488
 33
0.0
  0
TEXT
  5
B5
  8
DIM
 10
580.65115111010596
 20
1748.7136078054889
 30
0.0
 40
10.0
  1
463
 72
     4
 11
593.50829396724885
 21
1753.713607805488
 31
0.0
  0
LINE
  5
B6
  8
DIM
 10
558.04325740237016
 20
1602.135109636441
 30
0.0
 11
558.04325740237016
 21
1688.099668035082
 31
0.0
  0
LINE
  5
B7
  8
DIM
 10
558.04325740237016
 20
1684.099668035082
 30
0.0
 11
826.24325740237282
 21
1684.099668035082
 31
0.0
  0
SOLID
  5
B8
  8
DIM
 10
570.04325740237016
 20
1686.099668035082
 30
0.0
 11
570.04325740237016
 21
1682.099668035082
 31
0.0
 12
558.04325740237016
 22
1684.099668035082
 32
0.0
 13
558.04325740237016
 23
1684.099668035082
 33
0.0
  0
SOLID
  5
B9
  8
DIM
 10
814.24325740237271
 20
1686.099668035082
 30
0.0
 11
814.24325740237271
 21
1682.099668035082
 31
0.0
 12
826.24325740237282
 22
1684.099668035082
 32
0.0
 13
826.24325740237282
 23
1684.099668035082
 33
0.0
  0
TEXT
  5
BA
  8
DIM
 10
679.64205266934198
 20
1690.523668035082
 30
0.0
 40
10.0
  1
268
 72
     4
 11
692.49919552648487
 21
1695.523668035082
 31
0.0
  0
LINE
  5
BB
  8
DIM
 10
570.04325740237061
 20
1599.762584319499
 30
0.0
 11
570.04325740237061
 21
1630.8270018402161
 31
0.0
  0
LINE
  5
BC
  8
DIM
 10
582.04325740237073
 20
1626.8270018402161
 30
0.0
 11
637.74438525748747
 21
1626.8270018402161
 31
0.0
  0
SOLID
  5
BD
  8
DIM
 10
546.04325740237027
 20
1628.8270018402161
 30
0.0
 11
546.04325740237027
 21
1624.827001840215
 31
0.0
 12
558.04325740237016
 22
1626.8270018402161
 32
0.0
 13
558.04325740237016
 23
1626.8270018402161
 33
0.0
  0
SOLID
  5
BE
  8
DIM
 10
582.04325740237073
 20
1628.8270018402161
 30
0.0
 11
582.04325740237073
 21
1624.827001840215
 31
0.0
 12
570.04325740237061
 22
1626.8270018402161
 32
0.0
 13
570.04325740237061
 23
1626.8270018402161
 33
0.0
  0
TEXT
  5
BF
  8
DIM
 10
604.46561620160458
 20
1633.2510018402149
 30
0.0
 40
10.0
  1
12
 72
     4
 11
611.60847334446169
 21
1638.2510018402149
 31
0.0
  0
LINE
  5
C0
  8
DRG2
 10
753.04325740237255
 20
1168.549779578779
 30
0.0
 11
738.04325740237255
 21
1168.549779578779
 31
0.0
  0
LINE
  5
C1
  8
DRG2
 10
753.04325740237255
 20
1144.209779578779
 30
0.0
 11
738.04325740237255
 21
1144.209779578779
 31
0.0
  0
LINE
  5
C2
  8
DRG2
 10
754.04325740237255
 20
1167.549779578779
 30
0.0
 11
754.04325740237255
 21
1145.209779578779
 31
0.0
  0
LINE
  5
C3
  8
DRG2
 10
753.04325740237255
 20
1168.549779578779
 30
0.0
 11
754.04325740237255
 21
1167.549779578779
 31
0.0
  0
LINE
  5
C4
  8
DRG2
 10
754.04325740237255
 20
1145.209779578779
 30
0.0
 11
753.04325740237255
 21
1144.209779578779
 31
0.0
  0
LINE
  5
C5
  8
DRG2
 10
753.04325740237255
 20
1168.549779578779
 30
0.0
 11
753.04325740237255
 21
1144.209779578779
 31
0.0
  0
LINE
  5
C6
  8
CRS
 10
755.1513426250558
 20
1156.3797795787791
 30
0.0
 11
734.6317366575081
 21
1156.3797795787791
 31
0.0
  0
LINE
  5
C7
  8
DIM
 10
754.04325740237255
 20
1270.445816754906
 30
0.0
 11
754.04325740237255
 21
1490.455796180448
 31
0.0
  0
LINE
  5
C8
  8
DIM
 10
754.04325740237255
 20
1486.455796180448
 30
0.0
 11
882.95815933367646
 21
1486.455796180448
 31
0.0
  0
SOLID
  5
C9
  8
DIM
 10
766.04325740237255
 20
1488.455796180448
 30
0.0
 11
766.04325740237255
 21
1484.455796180448
 31
0.0
 12
754.04325740237255
 22
1486.455796180448
 32
0.0
 13
754.04325740237255
 23
1486.455796180448
 33
0.0
  0
SOLID
  5
CA
  8
DIM
 10
814.24325740237271
 20
1488.455796180448
 30
0.0
 11
814.24325740237271
 21
1484.455796180448
 31
0.0
 12
826.24325740237282
 22
1486.455796180448
 32
0.0
 13
826.24325740237282
 23
1486.455796180448
 33
0.0
  0
TEXT
  5
CB
  8
DIM
 10
850.76292123843814
 20
1492.879796180448
 30
0.0
 40
10.0
  1
72
 72
     4
 11
858.85815933367621
 21
1497.879796180448
 31
0.0
  0
LINE
  5
CC
  8
DIM
 10
343.043257402373
 20
767.99295910676597
 30
0.0
 11
343.043257402373
 21
467.4380148420795
 31
0.0
  0
LINE
  5
CD
  8
DIM
 10
826.24325740237316
 20
732.14279135078505
 30
0.0
 11
826.24325740237316
 21
467.4380148420795
 31
0.0
  0
LINE
  5
CE
  8
DIM
 10
343.043257402373
 20
471.4380148420795
 30
0.0
 11
826.24325740237316
 21
471.4380148420795
 31
0.0
  0
SOLID
  5
CF
  8
DIM
 10
355.043257402373
 20
473.4380148420795
 30
0.0
 11
355.043257402373
 21
469.4380148420795
 31
0.0
 12
343.043257402373
 22
471.4380148420795
 32
0.0
 13
343.043257402373
 23
471.4380148420795
 33
0.0
  0
SOLID
  5
D0
  8
DIM
 10
814.24325740237271
 20
473.4380148420795
 30
0.0
 11
814.24325740237271
 21
469.4380148420795
 31
0.0
 12
826.24325740237282
 22
471.4380148420795
 32
0.0
 13
826.24325740237282
 23
471.4380148420795
 33
0.0
  0
TEXT
  5
D1
  8
DIM
 10
571.30294199555885
 20
477.86201484207947
 30
0.0
 40
10.0
  1
483
 72
     4
 11
584.16008485270174
 21
482.86201484207947
 31
0.0
  0
LINE
  5
D2
  8
DIM
 10
666.69325740237264
 20
840.52793254834194
 30
0.0
 11
666.69325740237264
 21
542.97853444569557
 31
0.0
  0
LINE
  5
D3
  8
DIM
 10
666.69325740237264
 20
546.97853444569557
 30
0.0
 11
826.24325740237316
 21
546.97853444569557
 31
0.0
  0
SOLID
  5
D4
  8
DIM
 10
678.69325740237264
 20
548.97853444569546
 30
0.0
 11
678.69325740237264
 21
544.97853444569546
 31
0.0
 12
666.69325740237264
 22
546.97853444569557
 32
0.0
 13
666.69325740237264
 23
546.97853444569557
 33
0.0
  0
SOLID
  5
D5
  8
DIM
 10
814.24325740237316
 20
548.97853444569546
 30
0.0
 11
814.24325740237316
 21
544.97853444569546
 31
0.0
 12
826.24325740237316
 22
546.97853444569557
 32
0.0
 13
826.24325740237316
 23
546.97853444569557
 33
0.0
  0
TEXT
  5
D6
  8
DIM
 10
734.61349549761087
 20
553.40253444569555
 30
0.0
 40
10.0
  1
160
 72
     4
 11
746.51825740237291
 21
558.40253444569555
 31
0.0
  0
LINE
  5
D7
  8
DIM
 10
831.24325740237316
 20
810.25009295723794
 30
0.0
 11
831.24325740237316
 21
542.97853444569557
 31
0.0
  0
LINE
  5
D8
  8
DIM
 10
814.24325740237316
 20
546.97853444569557
 30
0.0
 11
802.24325740237327
 21
546.97853444569557
 31
0.0
  0
LINE
  5
D9
  8
DIM
 10
843.24325740237316
 20
546.97853444569557
 30
0.0
 11
896.80613366477598
 21
546.97853444569557
 31
0.0
  0
SOLID
  5
DA
  8
DIM
 10
814.24325740237316
 20
548.97853444569546
 30
0.0
 11
814.24325740237316
 21
544.97853444569546
 31
0.0
 12
826.24325740237316
 22
546.97853444569557
 32
0.0
 13
826.24325740237316
 23
546.97853444569557
 33
0.0
  0
SOLID
  5
DB
  8
DIM
 10
843.24325740237316
 20
548.97853444569546
 30
0.0
 11
843.24325740237316
 21
544.97853444569546
 31
0.0
 12
831.24325740237316
 22
546.97853444569557
 32
0.0
 13
831.24325740237316
 23
546.97853444569557
 33
0.0
  0
TEXT
  5
DC
  8
DIM
 10
869.55487349898806
 20
553.40253444569555
 30
0.0
 40
10.0
  1
5
 72
     4
 11
872.88820683232143
 21
558.40253444569555
 31
0.0
  0
LINE
  5
DD
  8
DIM
 10
1400.6603160883431
 20
926.5700756931526
 30
0.0
 11
1466.3447159082209
 21
926.5700756931526
 31
0.0
  0
LINE
  5
DE
  8
DIM
 10
1400.6603160883431
 20
1536.6700756931521
 30
0.0
 11
1466.3447159082209
 21
1536.6700756931521
 31
0.0
  0
LINE
  5
DF
  8
DIM
 10
1462.3447159082209
 20
926.5700756931526
 30
0.0
 11
1462.3447159082209
 21
1536.6700756931521
 31
0.0
  0
SOLID
  5
E0
  8
DIM
 10
1460.34471590822
 20
938.57007569315249
 30
0.0
 11
1464.3447159082209
 21
938.57007569315249
 31
0.0
 12
1462.3447159082209
 22
926.5700756931526
 32
0.0
 13
1462.3447159082209
 23
926.5700756931526
 33
0.0
  0
SOLID
  5
E1
  8
DIM
 10
1460.34471590822
 20
1524.6700756931521
 30
0.0
 11
1464.3447159082209
 21
1524.6700756931521
 31
0.0
 12
1462.3447159082209
 22
1536.6700756931521
 32
0.0
 13
1462.3447159082209
 23
1536.6700756931521
 33
0.0
  0
TEXT
  5
E2
  8
DIM
 10
1455.9207159082209
 20
1219.447994987094
 30
0.0
 40
10.0
  1
610
 50
90.0
 72
     4
 11
1450.92071590822
 21
1231.352756891856
 31
0.0
  0
LINE
  5
E3
  8
DIM
 10
1380.570759700139
 20
1631.6700756931521
 30
0.0
 11
1466.3447159082209
 21
1631.6700756931521
 31
0.0
  0
LINE
  5
E4
  8
DIM
 10
1462.3447159082209
 20
1536.6700756931521
 30
0.0
 11
1462.3447159082209
 21
1631.6700756931521
 31
0.0
  0
SOLID
  5
E5
  8
DIM
 10
1460.34471590822
 20
1548.6700756931521
 30
0.0
 11
1464.3447159082209
 21
1548.6700756931521
 31
0.0
 12
1462.3447159082209
 22
1536.6700756931521
 32
0.0
 13
1462.3447159082209
 23
1536.6700756931521
 33
0.0
  0
SOLID
  5
E6
  8
DIM
 10
1460.34471590822
 20
1619.6700756931521
 30
0.0
 11
1464.3447159082209
 21
1619.6700756931521
 31
0.0
 12
1462.3447159082209
 22
1631.6700756931521
 32
0.0
 13
1462.3447159082209
 23
1631.6700756931521
 33
0.0
  0
TEXT
  5
E7
  8
DIM
 10
1455.9207159082209
 20
1575.6929331783101
 30
0.0
 40
10.0
  1
95
 50
90.0
 72
     4
 11
1450.92071590822
 21
1583.7881712735491
 31
0.0
  0
SOLID
  5
E8
  8
DIM
 10
1307.1251894941181
 20
1602.1207954315059
 30
0.0
 11
1304.3989090111029
 21
1599.1937842036609
 31
0.0
 12
1314.5430829361439
 22
1592.4784483685371
 32
0.0
 13
1314.5430829361439
 23
1592.4784483685371
 33
0.0
  0
LINE
  5
E9
  8
DIM
 10
1305.76204925261
 20
1600.6572898175839
 30
0.0
 11
1251.1354292870301
 21
1651.537684962138
 31
0.0
  0
LINE
  5
EA
  8
DIM
 10
1251.1354292870301
 20
1651.537684962138
 30
0.0
 11
1234.260267426451
 21
1651.537684962138
 31
0.0
  0
TEXT
  5
EB
  8
DIM
 10
30.476107699568441
 20
1329.159143695364
 30
0.0
 40
10.0
  1
%%C154 (%%c6.06") P.C. FOR
  0
TEXT
  5
EC
  8
DIM
 10
30.476107699568441
 20
1346.3020008382209
 30
0.0
 40
10.0
  1
4 OFF M16 SCREWS ON 
  0
SOLID
  5
ED
  8
DIM
 10
328.75234374648198
 20
1477.433885588521
 30
0.0
 11
332.30494948622891
 21
1475.595681993183
 31
0.0
 12
336.04325740237198
 22
1487.1726010100931
 32
0.0
 13
336.04325740237198
 23
1487.1726010100931
 33
0.0
  0
LINE
  5
EE
  8
DIM
 10
330.52864661635522
 20
1476.5147837908521
 30
0.0
 11
256.8577551194964
 21
1334.13467276959
 31
0.0
  0
LINE
  5
EF
  8
DRG
 10
343.043257402373
 20
776.57007569315215
 30
0.0
 11
485.0432574023734
 21
776.57007569315215
 31
0.0
  0
LINE
  5
F0
  8
DRG
 10
394.04325740237198
 20
1631.6700756931521
 30
0.0
 11
512.04325740237209
 21
1631.6700756931521
 31
0.0
  0
LINE
  5
F1
  8
CRS
 10
155.45581429375619
 20
1536.6700756931521
 30
0.0
 11
571.34356408528811
 21
1536.6700756931521
 31
0.0
  0
LINE
  5
F2
  8
DRG
 10
343.043257402373
 20
1036.8200756931519
 30
0.0
 11
343.0432574023734
 21
926.57007569315238
 31
0.0
  0
LINE
  5
F3
  8
DRG
 10
343.043257402373
 20
816.32007569315215
 30
0.0
 11
343.0432574023734
 21
926.57007569315238
 31
0.0
  0
LINE
  5
F4
  8
HID
 10
343.043257402373
 20
816.19007569315261
 30
0.0
 11
367.5432574023734
 21
816.19007569315261
 31
0.0
  0
LINE
  5
F5
  8
DRG
 10
343.043257402373
 20
776.57007569315215
 30
0.0
 11
343.043257402373
 21
816.32007569315215
 31
0.0
  0
LINE
  5
F6
  8
DRG
 10
363.04325740237198
 20
1590.1700756931521
 30
0.0
 11
363.04325740237198
 21
1483.1700756931521
 31
0.0
  0
LINE
  5
F7
  8
DRG
 10
365.04325740237391
 20
1082.5700756931519
 30
0.0
 11
365.043257402373
 21
1255.4700756931511
 31
0.0
  0
ARC
  5
F8
  8
DRG
 10
364.04325740237289
 20
1245.4700756931511
 30
0.0
 40
16.0
 50
359.99999999999989
 51
90.0
  0
LINE
  5
F9
  8
HID
 10
343.043257402373
 20
1036.950075693152
 30
0.0
 11
367.5432574023734
 21
1036.950075693152
 31
0.0
  0
LINE
  5
FA
  8
DRG
 10
343.043257402373
 20
1076.5700756931519
 30
0.0
 11
374.0432574023738
 21
1076.5700756931519
 31
0.0
  0
LINE
  5
FB
  8
DRG
 10
343.043257402373
 20
1076.5700756931519
 30
0.0
 11
343.043257402373
 21
1036.8200756931519
 31
0.0
  0
ARC
  5
FC
  8
DRG
 10
374.0432574023738
 20
1082.5700756931519
 30
0.0
 40
6.0
 50
270.0
 51
0.0
  0
ARC
  5
FD
  8
DRG
 10
359.04325740237391
 20
1082.5700756931519
 30
0.0
 40
6.0
 50
269.99999999999977
 51
0.0
  0
LINE
  5
FE
  8
DRG
 10
365.04325740237198
 20
1459.6979397381519
 30
0.0
 11
365.043257402373
 21
1347.470075693152
 31
0.0
  0
LINE
  5
FF
  8
DRG
 10
380.04325740237158
 20
1615.1700756931521
 30
0.0
 11
380.04325740237522
 21
806.52957109292868
 31
0.0
  0
LINE
  5
100
  8
DRG
 10
358.04325740237289
 20
1326.480075693152
 30
0.0
 11
358.04325740237289
 21
1301.470075693152
 31
0.0
  0
LINE
  5
101
  8
DRG
 10
358.04325740237289
 20
1276.460075693152
 30
0.0
 11
358.04325740237289
 21
1301.470075693152
 31
0.0
  0
LINE
  5
102
  8
DRG
 10
358.04325740237289
 20
1261.4700756931511
 30
0.0
 11
359.043257402373
 21
1261.4700756931511
 31
0.0
  0
LINE
  5
103
  8
DRG
 10
358.04325740237289
 20
1261.4700756931511
 30
0.0
 11
358.04325740237289
 21
1276.460075693152
 31
0.0
  0
ARC
  5
104
  8
DRG
 10
359.043257402373
 20
1255.4700756931511
 30
0.0
 40
6.0
 50
359.99999999999989
 51
90.0
  0
LINE
  5
105
  8
DRG
 10
358.04325740237289
 20
1261.4700756931511
 30
0.0
 11
364.04325740237289
 21
1261.4700756931511
 31
0.0
  0
ARC
  5
106
  8
DRG
 10
364.04325740237289
 20
1357.470075693152
 30
0.0
 40
16.0
 50
270.0
 51
0.0000000000000382
  0
ARC
  5
107
  8
DRG
 10
359.043257402373
 20
1347.470075693152
 30
0.0
 40
6.0
 50
270.0
 51
0.0000000000000382
  0
LINE
  5
108
  8
DRG
 10
358.04325740237289
 20
1341.470075693152
 30
0.0
 11
364.04325740237289
 21
1341.470075693152
 31
0.0
  0
LINE
  5
109
  8
DRG
 10
358.04325740237289
 20
1341.470075693152
 30
0.0
 11
358.04325740237289
 21
1326.480075693152
 31
0.0
  0
LINE
  5
10A
  8
DRG
 10
358.04325740237289
 20
1341.470075693152
 30
0.0
 11
359.043257402373
 21
1341.470075693152
 31
0.0
  0
LINE
  5
10B
  8
DRG
 10
363.04325740237198
 20
1483.1700756931521
 30
0.0
 11
363.04325740237198
 21
1464.1700756931521
 31
0.0
  0
ARC
  5
10C
  8
DRG
 10
374.04325740237209
 20
1458.1700756931521
 30
0.0
 40
6.0
 50
0.0000000000000509
 51
90.0
  0
ARC
  5
10D
  8
DRG
 10
359.04325740237198
 20
1459.6979397381519
 30
0.0
 40
6.0
 50
0.0000000000000509
 51
48.189685104225767
  0
LINE
  5
10E
  8
DRG
 10
363.04325740237198
 20
1464.1700756931521
 30
0.0
 11
374.04325740237209
 21
1464.1700756931521
 31
0.0
  0
LINE
  5
10F
  8
DRG
 10
363.04325740237198
 20
1609.1700756931521
 30
0.0
 11
363.04325740237198
 21
1590.1700756931521
 31
0.0
  0
ARC
  5
110
  8
DRG
 10
374.04325740237209
 20
1615.1700756931521
 30
0.0
 40
6.0
 50
270.0
 51
0.0
  0
ARC
  5
111
  8
DRG
 10
394.04325740237198
 20
1617.6700756931521
 30
0.0
 40
14.0
 50
90.0
 51
180.0
  0
LINE
  5
112
  8
DRG
 10
363.04325740237198
 20
1609.1700756931521
 30
0.0
 11
374.04325740237209
 21
1609.1700756931521
 31
0.0
  0
LINE
  5
113
  8
DRG
 10
380.04325740237198
 20
1617.6700756931521
 30
0.0
 11
380.04325740237198
 21
1615.1700756931521
 31
0.0
  0
LINE
  5
114
  8
DRG
 10
510.0432574023734
 20
1089.3791780044789
 30
0.0
 11
510.0432574023734
 21
626.5450756931524
 31
0.0
  0
LINE
  5
115
  8
DRG
 10
528.04325740237346
 20
608.54507569315251
 30
0.0
 11
653.04325740237391
 21
608.54507569315251
 31
0.0
  0
ARC
  5
116
  8
DRG
 10
528.04325740237346
 20
626.5450756931524
 30
0.0
 40
18.0
 50
180.0
 51
270.0
  0
ARC
  5
117
  8
DRG
 10
653.04325740237391
 20
578.54507569315251
 30
0.0
 40
30.0
 50
2.4278393632853388
 51
90.0
  0
LINE
  5
118
  8
DRG
 10
689.01094255168607
 20
574.07007569315249
 30
0.0
 11
723.04325740237346
 21
574.07007569315249
 31
0.0
  0
ARC
  5
119
  8
DRG
 10
689.01094255168607
 20
580.0700756931526
 30
0.0
 40
6.0
 50
182.42783936328539
 51
270.0
  0
ARC
  5
11A
  8
DRG
 10
485.0432574023734
 20
751.57007569315215
 30
0.0
 40
25.0
 50
0.0
 51
90.0
  0
LINE
  5
11B
  8
DRG
 10
543.04325740237198
 20
1590.1700756931521
 30
0.0
 11
543.04325740237198
 21
1483.1700756931521
 31
0.0
  0
LINE
  5
11C
  8
DRG
 10
542.04325740237255
 20
1429.470075693152
 30
0.0
 11
701.04325740237255
 21
1429.470075693152
 31
0.0
  0
ARC
  5
11D
  8
DRG
 10
547.04325740237255
 20
1435.470075693152
 30
0.0
 40
6.0
 50
180.0
 51
270.0
  0
ARC
  5
11E
  8
DRG
 10
542.04325740237255
 20
1445.470075693152
 30
0.0
 40
16.0
 50
180.0
 51
270.0
  0
LINE
  5
11F
  8
DRG
 10
532.04325740237209
 20
1464.1700756931521
 30
0.0
 11
543.04325740237198
 21
1464.1700756931521
 31
0.0
  0
ARC
  5
120
  8
DRG
 10
532.04325740237209
 20
1458.1700756931521
 30
0.0
 40
6.0
 50
90.0
 51
180.0
  0
LINE
  5
121
  8
DRG
 10
526.04325740236663
 20
1615.1700756931521
 30
0.0
 11
526.04325740238255
 21
1101.3791780044789
 31
0.0
  0
LINE
  5
122
  8
DRG
 10
541.04325740237209
 20
1459.6979397381531
 30
0.0
 11
541.04325740237255
 21
1435.470075693152
 31
0.0
  0
LINE
  5
123
  8
DRG
 10
543.04325740237198
 20
1483.1700756931521
 30
0.0
 11
543.04325740237198
 21
1464.1700756931521
 31
0.0
  0
ARC
  5
124
  8
DRG
 10
547.04325740237198
 20
1459.6979397381531
 30
0.0
 40
6.0
 50
131.8103148957795
 51
180.0
  0
LINE
  5
125
  8
DRG
 10
717.04325740237255
 20
1413.470075693152
 30
0.0
 11
717.04325740237255
 21
1352.470075693152
 31
0.0
  0
LINE
  5
126
  8
DRG
 10
723.04325740237255
 20
1332.336101096937
 30
0.0
 11
723.043257402373
 21
1016.643456682508
 31
0.0
  0
LINE
  5
127
  8
DRG
 10
723.04325740237255
 20
1270.6040502893679
 30
0.0
 11
723.04325740237255
 21
1259.770075693152
 31
0.0
  0
LINE
  5
128
  8
DRG
 10
723.04325740237255
 20
1346.470075693152
 30
0.0
 11
723.04325740237255
 21
1332.336101096937
 31
0.0
  0
ARC
  5
129
  8
DRG
 10
723.04325740237255
 20
1352.470075693152
 30
0.0
 40
6.0
 50
180.0
 51
270.0
  0
ARC
  5
12A
  8
DRG
 10
701.04325740237255
 20
1413.470075693152
 30
0.0
 40
16.0
 50
0.0
 51
90.0
  0
LINE
  5
12B
  8
DRG
 10
532.04325740237209
 20
1609.1700756931521
 30
0.0
 11
543.04325740237198
 21
1609.1700756931521
 31
0.0
  0
ARC
  5
12C
  8
DRG
 10
512.04325740237209
 20
1617.6700756931521
 30
0.0
 40
14.0
 50
0.0
 51
90.0
  0
ARC
  5
12D
  8
DRG
 10
532.04325740237209
 20
1615.1700756931521
 30
0.0
 40
6.0
 50
180.0
 51
270.0
  0
LINE
  5
12E
  8
DRG
 10
526.04325740237198
 20
1617.6700756931521
 30
0.0
 11
526.04325740237198
 21
1615.1700756931521
 31
0.0
  0
LINE
  5
12F
  8
DRG
 10
543.04325740237198
 20
1609.1700756931521
 30
0.0
 11
543.04325740237198
 21
1590.1700756931521
 31
0.0
  0
LINE
  5
130
  8
CRS
 10
1370.6451614324869
 20
1674.293254388612
 30
0.0
 11
1370.6451614324869
 21
1271.35035143653
 31
0.0
  0
ARC
  5
131
  8
DRG
 10
1370.6451614324869
 20
926.57007569315238
 30
0.0
 40
352.49999999999989
 50
99.528370682469671
 51
270.0
  0
LINE
  5
132
  8
DRG
 10
1298.1451614324869
 20
1591.1700756931521
 30
0.0
 11
1298.1451614324869
 21
1482.1700756931521
 31
0.0
  0
ARC
  5
133
  8
DRG
 10
1370.6451614324869
 20
1301.470075693152
 30
0.0
 40
30.0
 50
90.0
 51
237.39946001174411
  0
LINE
  5
134
  8
DRG
 10
1310.6451614324869
 20
1404.4652212098231
 30
0.0
 11
1310.6451614324869
 21
1287.147737230857
 31
0.0
  0
ARC
  5
135
  8
DRG
 10
1294.6451614324869
 20
1287.147737230857
 30
0.0
 40
16.0
 50
281.90218608636002
 51
0.0
  0
ARC
  5
136
  8
DRG
 10
1370.6451614324869
 20
1301.470075693152
 30
0.0
 40
45.0
 50
90.0
 51
180.0
  0
ARC
  5
137
  8
DRG
 10
1309.6451614324869
 20
1289.986159541955
 30
0.0
 40
16.0
 50
279.52837068246998
 51
0.0
  0
LINE
  5
138
  8
DRG
 10
1325.6451614324869
 20
1301.470075693152
 30
0.0
 11
1325.6451614324869
 21
1289.986159541955
 31
0.0
  0
ARC
  5
139
  8
DRG
 10
1370.6451614324869
 20
1301.470075693152
 30
0.0
 40
128.0
 50
90.0
 51
180.0
  0
LINE
  5
13A
  8
DRG
 10
1358.6451614324869
 20
1464.1700756931521
 30
0.0
 11
1316.1451614324869
 21
1464.1700756931521
 31
0.0
  0
ARC
  5
13B
  8
DRG
 10
1316.1451614324869
 20
1482.1700756931521
 30
0.0
 40
18.0
 50
180.0
 51
270.0
  0
LINE
  5
13C
  8
DRG
 10
1364.6451614324869
 20
1458.1700756931521
 30
0.0
 11
1364.6451614324869
 21
1434.9316806587769
 31
0.0
  0
ARC
  5
13D
  8
DRG
 10
1358.6451614324869
 20
1434.9316806587769
 30
0.0
 40
6.0
 50
275.1378482490374
 51
0.0
  0
LINE
  5
13E
  8
DRG
 10
1370.6451614324869
 20
1464.1700756931521
 30
0.0
 11
1358.6451614324869
 21
1464.1700756931521
 31
0.0
  0
ARC
  5
13F
  8
DRG
 10
1358.6451614324869
 20
1458.1700756931521
 30
0.0
 40
6.0
 50
0.0
 51
90.0
  0
LINE
  5
140
  8
DRG
 10
1370.6451614324869
 20
1609.1700756931521
 30
0.0
 11
1316.1451614324869
 21
1609.1700756931521
 31
0.0
  0
ARC
  5
141
  8
DRG
 10
1316.1451614324869
 20
1591.1700756931521
 30
0.0
 40
18.0
 50
90.0
 51
180.0
  0
LINE
  5
142
  8
DRG
 10
1242.6451614324869
 20
1301.470075693152
 30
0.0
 11
1242.6451614324869
 21
1255.0091872496171
 31
0.0
  0
LINE
  5
143
  8
CRS
 10
1395.6696395340371
 20
1301.470075693152
 30
0.0
 11
1234.6886211163051
 21
1301.470075693152
 31
0.0
  0
LINE
  5
144
  8
CRS
 10
1396.0789498423389
 20
1536.6700756931521
 30
0.0
 11
1278.1776035981461
 21
1536.6700756931521
 31
0.0
  0
ARC
  5
145
  8
DRG
 10
1370.6451614324869
 20
1536.6700756931521
 30
0.0
 40
95.0
 50
90.0
 51
148.46904216510211
  0
ARC
  5
146
  8
DRG
 10
1370.6451614324869
 20
1301.470075693152
 30
0.0
 40
218.0
 50
148.469042165102
 51
164.6231396305684
  0
LINE
  5
147
  8
DRG
 10
1289.6711775104311
 20
1586.351198142132
 30
0.0
 11
1184.8311772745051
 21
1415.4751777339679
 31
0.0
  0
LINE
  5
148
  8
DRG
 10
1160.4490003379231
 20
1359.276423624048
 30
0.0
 11
1105.2515634781821
 21
1158.5668174049031
 31
0.0
  0
ARC
  5
149
  8
DRG
 10
520.04325740238255
 20
1101.3791780044789
 30
0.0
 40
6.0
 50
270.0
 51
0.0000000000020483
  0
ARC
  5
14A
  8
DRG
 10
516.04325740237346
 20
1089.3791780044789
 30
0.0
 40
6.0
 50
90.000000000000057
 51
180.0
  0
ARC
  5
14B
  8
DRG
 10
374.04325740237522
 20
806.52957109292868
 30
0.0
 40
6.0
 50
270.0
 51
0.0000000000002544
  0
LINE
  5
14C
  8
DRG
 10
683.04325740237255
 20
1353.276423624048
 30
0.0
 11
683.04325740237289
 21
1015.4264000199601
 31
0.0
  0
ARC
  5
14D
  8
DRG
 10
689.04325740237255
 20
1353.276423624048
 30
0.0
 40
6.0
 50
90.0
 51
180.0
  0
LINE
  5
14E
  8
DRG2
 10
569.04325740237107
 20
1595.29755037621
 30
0.0
 11
569.04325740237107
 21
1577.03755037621
 31
0.0
  0
LINE
  5
14F
  8
DRG2
 10
570.04325740237118
 20
1594.29755037621
 30
0.0
 11
570.04325740237118
 21
1578.0375503762091
 31
0.0
  0
LINE
  5
150
  8
DRG
 10
558.04325740237073
 20
1596.6700756931521
 30
0.0
 11
558.04325740237346
 21
1476.6700756931521
 31
0.0
  0
LINE
  5
151
  8
DRG
 10
564.04325740237107
 20
1576.6700756931521
 30
0.0
 11
564.043257402373
 21
1496.6700756931521
 31
0.0
  0
LINE
  5
152
  8
DRG
 10
558.04325740237118
 20
1576.6700756931521
 30
0.0
 11
564.04325740237107
 21
1576.6700756931521
 31
0.0
  0
LINE
  5
153
  8
DRG2
 10
558.04325740237118
 20
1577.03755037621
 30
0.0
 11
569.04325740237107
 21
1577.03755037621
 31
0.0
  0
LINE
  5
154
  8
CRS
 10
552.99065491372903
 20
1586.1675503762101
 30
0.0
 11
577.61142713655499
 21
1586.1675503762101
 31
0.0
  0
LINE
  5
155
  8
DRG2
 10
570.04325740237118
 20
1578.0375503762091
 30
0.0
 11
569.04325740237107
 21
1577.03755037621
 31
0.0
  0
LINE
  5
156
  8
DRG2
 10
558.04325740237118
 20
1595.29755037621
 30
0.0
 11
569.04325740237107
 21
1595.29755037621
 31
0.0
  0
LINE
  5
157
  8
DRG
 10
543.04325740237073
 20
1596.6700756931521
 30
0.0
 11
558.04325740237073
 21
1596.6700756931521
 31
0.0
  0
LINE
  5
158
  8
DRG2
 10
569.04325740237107
 20
1595.29755037621
 30
0.0
 11
570.04325740237118
 21
1594.29755037621
 31
0.0
  0
LINE
  5
159
  8
DRG
 10
558.04325740237289
 20
1496.6700756931521
 30
0.0
 11
564.043257402373
 21
1496.6700756931521
 31
0.0
  0
LINE
  5
15A
  8
DRG2
 10
558.04325740237118
 20
1496.302601010093
 30
0.0
 11
569.04325740237107
 21
1496.302601010093
 31
0.0
  0
LINE
  5
15B
  8
DRG2
 10
558.04325740237118
 20
1478.0426010100921
 30
0.0
 11
569.04325740237107
 21
1478.0426010100921
 31
0.0
  0
LINE
  5
15C
  8
CRS
 10
552.99065491372903
 20
1487.172601010092
 30
0.0
 11
577.61142713655499
 21
1487.172601010092
 31
0.0
  0
LINE
  5
15D
  8
DRG
 10
543.04325740237346
 20
1476.6700756931521
 30
0.0
 11
558.04325740237346
 21
1476.6700756931521
 31
0.0
  0
LINE
  5
15E
  8
DRG2
 10
569.04325740237107
 20
1496.302601010093
 30
0.0
 11
570.04325740237118
 21
1495.3026010100921
 31
0.0
  0
LINE
  5
15F
  8
DRG2
 10
570.04325740237118
 20
1479.0426010100921
 30
0.0
 11
569.04325740237107
 21
1478.0426010100921
 31
0.0
  0
LINE
  5
160
  8
DRG2
 10
570.04325740237118
 20
1495.3026010100921
 30
0.0
 11
570.04325740237118
 21
1479.0426010100921
 31
0.0
  0
LINE
  5
161
  8
DRG2
 10
569.04325740237107
 20
1496.302601010093
 30
0.0
 11
569.04325740237107
 21
1478.0426010100921
 31
0.0
  0
LINE
  5
162
  8
DRG
 10
167.79325740237161
 20
1565.0700756931531
 30
0.0
 11
247.79325740237161
 21
1565.0700756931531
 31
0.0
  0
LINE
  5
163
  8
DRG
 10
164.29325740237121
 20
1561.6700756931521
 30
0.0
 11
342.04325740237198
 21
1561.6700756931521
 31
0.0
  0
LINE
  5
164
  8
DRG
 10
162.7932574023711
 20
1560.1700756931521
 30
0.0
 11
162.79325740237161
 21
1513.1700756931521
 31
0.0
  0
LINE
  5
165
  8
DRG
 10
164.29325740237121
 20
1561.6700756931521
 30
0.0
 11
164.29325740237161
 21
1511.6700756931521
 31
0.0
  0
LINE
  5
166
  8
DRG
 10
167.79325740237161
 20
1565.0700756931531
 30
0.0
 11
167.79325740237161
 21
1561.6700756931521
 31
0.0
  0
LINE
  5
167
  8
DRG
 10
164.29325740237121
 20
1561.6700756931521
 30
0.0
 11
162.7932574023711
 21
1560.1700756931521
 31
0.0
  0
LINE
  5
168
  8
DRG
 10
164.29325740237161
 20
1511.6700756931521
 30
0.0
 11
342.04325740237198
 21
1511.6700756931521
 31
0.0
  0
LINE
  5
169
  8
DRG
 10
348.04325740237198
 20
1596.6700756931509
 30
0.0
 11
348.04325740237198
 21
1476.6700756931509
 31
0.0
  0
LINE
  5
16A
  8
DRG2
 10
337.04325740237209
 20
1577.03755037621
 30
0.0
 11
337.04325740237209
 21
1595.29755037621
 31
0.0
  0
LINE
  5
16B
  8
DRG2
 10
336.04325740237198
 20
1578.03755037621
 30
0.0
 11
336.04325740237198
 21
1594.29755037621
 31
0.0
  0
LINE
  5
16C
  8
CRS
 10
353.09585989101419
 20
1586.1675503762101
 30
0.0
 11
328.47508766818783
 21
1586.1675503762101
 31
0.0
  0
LINE
  5
16D
  8
DRG
 10
342.04325740237198
 20
1576.6700756931521
 30
0.0
 11
342.04325740237198
 21
1496.6700756931509
 31
0.0
  0
LINE
  5
16E
  8
DRG
 10
342.04325740237198
 20
1576.6700756931521
 30
0.0
 11
348.04325740237198
 21
1576.6700756931521
 31
0.0
  0
LINE
  5
16F
  8
DRG2
 10
337.04325740237209
 20
1577.03755037621
 30
0.0
 11
336.04325740237198
 21
1578.03755037621
 31
0.0
  0
LINE
  5
170
  8
DRG2
 10
348.04325740237198
 20
1577.03755037621
 30
0.0
 11
337.04325740237209
 21
1577.03755037621
 31
0.0
  0
LINE
  5
171
  8
DRG
 10
348.04325740237198
 20
1596.6700756931509
 30
0.0
 11
363.04325740237198
 21
1596.6700756931509
 31
0.0
  0
LINE
  5
172
  8
DRG2
 10
336.04325740237198
 20
1594.29755037621
 30
0.0
 11
337.04325740237209
 21
1595.29755037621
 31
0.0
  0
LINE
  5
173
  8
DRG2
 10
348.04325740237198
 20
1595.29755037621
 30
0.0
 11
337.04325740237209
 21
1595.29755037621
 31
0.0
  0
LINE
  5
174
  8
DRG
 10
348.04325740237198
 20
1476.6700756931509
 30
0.0
 11
363.04325740237198
 21
1476.6700756931509
 31
0.0
  0
LINE
  5
175
  8
CRS
 10
353.09585989101419
 20
1487.1726010100931
 30
0.0
 11
328.47508766818783
 21
1487.1726010100931
 31
0.0
  0
LINE
  5
176
  8
DRG
 10
342.04325740237198
 20
1496.6700756931509
 30
0.0
 11
348.04325740237198
 21
1496.6700756931509
 31
0.0
  0
LINE
  5
177
  8
DRG2
 10
336.04325740237198
 20
1495.302601010093
 30
0.0
 11
337.04325740237209
 21
1496.302601010093
 31
0.0
  0
LINE
  5
178
  8
DRG2
 10
337.04325740237209
 20
1478.042601010093
 30
0.0
 11
336.04325740237198
 21
1479.042601010093
 31
0.0
  0
LINE
  5
179
  8
DRG2
 10
336.04325740237198
 20
1479.042601010093
 30
0.0
 11
336.04325740237198
 21
1495.302601010093
 31
0.0
  0
LINE
  5
17A
  8
DRG2
 10
337.04325740237209
 20
1478.042601010093
 30
0.0
 11
337.04325740237209
 21
1496.302601010093
 31
0.0
  0
LINE
  5
17B
  8
DRG2
 10
348.04325740237198
 20
1478.042601010093
 30
0.0
 11
337.04325740237209
 21
1478.042601010093
 31
0.0
  0
LINE
  5
17C
  8
DRG2
 10
348.04325740237198
 20
1496.302601010093
 30
0.0
 11
337.04325740237209
 21
1496.302601010093
 31
0.0
  0
LINE
  5
17D
  8
DRG
 10
247.79325740237161
 20
1565.0700756931531
 30
0.0
 11
247.79325740237161
 21
1561.6700756931521
 31
0.0
  0
LINE
  5
17E
  8
DRG
 10
826.24325740237282
 20
1115.964684724315
 30
0.0
 11
826.24325740237316
 21
737.17546666198984
 31
0.0
  0
LINE
  5
17F
  8
DRG
 10
683.04325740237289
 20
837.12756471280125
 30
0.0
 11
683.04325740237346
 21
579.44819631684766
 31
0.0
  0
LINE
  5
180
  8
DRG
 10
723.043257402373
 20
835.30197971897906
 30
0.0
 11
723.04325740237346
 21
574.07007569315249
 31
0.0
  0
ARC
  5
181
  8
DRG
 10
1326.6451614324869
 20
1404.4652212098231
 30
0.0
 40
16.0
 50
113.1323963992976
 51
180.0
  0
LINE
  5
182
  8
DRG
 10
1310.6451614324869
 20
1591.6700756931521
 30
0.0
 11
1310.6451614324869
 21
1481.6700756931521
 31
0.0
  0
LINE
  5
183
  8
CRS
  6
BYBLOCK
 10
1321.1476867494291
 20
1583.1675503762101
 30
0.0
 11
1321.1476867494291
 21
1589.167550376211
 31
0.0
  0
CIRCLE
  5
184
  8
DRG2
 10
1321.1476867494291
 20
1586.1675503762101
 30
0.0
 40
9.1349999999999998
  0
CIRCLE
  5
185
  8
DRG2
 10
1321.1476867494291
 20
1586.1675503762101
 30
0.0
 40
8.1349999999999998
  0
POLYLINE
  5
186
  8
DRG2
 66
     1
 10
0.0
 20
0.0
 30
0.0
 70
     1
  0
VERTEX
  5
187
  8
DRG2
 10
1318.260935403481
 20
1591.1675503762101
 30
0.0
  0
VERTEX
  5
188
  8
DRG2
 10
1315.3741840575331
 20
1586.1675503762101
 30
0.0
  0
VERTEX
  5
189
  8
DRG2
 10
1318.260935403481
 20
1581.167550376211
 30
0.0
  0
VERTEX
  5
18A
  8
DRG2
 10
1324.034438095377
 20
1581.167550376211
 30
0.0
  0
VERTEX
  5
18B
  8
DRG2
 10
1326.9211894413249
 20
1586.1675503762101
 30
0.0
  0
VERTEX
  5
18C
  8
DRG2
 10
1324.034438095377
 20
1591.1675503762101
 30
0.0
  0
SEQEND
  5
18D
  8
DRG2
  0
LINE
  5
18E
  8
CRS
  6
BYBLOCK
 10
1327.1476867494291
 20
1586.1675503762101
 30
0.0
 11
1334.3976867494291
 21
1586.1675503762101
 31
0.0
  0
LINE
  5
18F
  8
CRS
  6
BYBLOCK
 10
1315.1476867494291
 20
1586.1675503762101
 30
0.0
 11
1307.897686749428
 21
1586.1675503762101
 31
0.0
  0
LINE
  5
190
  8
CRS
  6
BYBLOCK
 10
1318.1476867494291
 20
1586.1675503762101
 30
0.0
 11
1324.1476867494291
 21
1586.1675503762101
 31
0.0
  0
LINE
  5
191
  8
CRS
  6
BYBLOCK
 10
1321.1476867494291
 20
1580.1675503762101
 30
0.0
 11
1321.1476867494291
 21
1572.9175503762101
 31
0.0
  0
LINE
  5
192
  8
DRG
 10
1315.6451614324869
 20
1596.6700756931521
 30
0.0
 11
1370.6451614324869
 21
1596.6700756931521
 31
0.0
  0
LINE
  5
193
  8
CRS
  6
BYBLOCK
 10
1321.1476867494291
 20
1592.1675503762101
 30
0.0
 11
1321.1476867494291
 21
1599.4175503762101
 31
0.0
  0
ARC
  5
194
  8
DRG
 10
1315.6451614324869
 20
1591.6700756931521
 30
0.0
 40
5.0
 50
90.0
 51
180.0
  0
LINE
  5
195
  8
DRG
 10
1315.6451614324869
 20
1476.6700756931521
 30
0.0
 11
1358.6451614324869
 21
1476.6700756931521
 31
0.0
  0
LINE
  5
196
  8
CRS
  6
BYBLOCK
 10
1327.1476867494291
 20
1487.172601010094
 30
0.0
 11
1334.3976867494291
 21
1487.172601010094
 31
0.0
  0
LINE
  5
197
  8
CRS
  6
BYBLOCK
 10
1321.1476867494291
 20
1493.3726010100941
 30
0.0
 11
1321.1476867494291
 21
1500.6226010100941
 31
0.0
  0
LINE
  5
198
  8
CRS
  6
BYBLOCK
 10
1315.1476867494291
 20
1487.172601010094
 30
0.0
 11
1307.897686749428
 21
1487.172601010094
 31
0.0
  0
LINE
  5
199
  8
CRS
  6
BYBLOCK
 10
1318.1476867494291
 20
1487.172601010094
 30
0.0
 11
1324.1476867494291
 21
1487.172601010094
 31
0.0
  0
LINE
  5
19A
  8
CRS
  6
BYBLOCK
 10
1321.1476867494291
 20
1481.172601010094
 30
0.0
 11
1321.1476867494291
 21
1473.922601010094
 31
0.0
  0
ARC
  5
19B
  8
DRG
 10
1315.6451614324869
 20
1481.6700756931521
 30
0.0
 40
5.0
 50
180.0
 51
270.0
  0
CIRCLE
  5
19C
  8
DRG2
 10
1321.1476867494291
 20
1487.172601010094
 30
0.0
 40
8.1349999999999998
  0
CIRCLE
  5
19D
  8
DRG2
 10
1321.1476867494291
 20
1487.172601010094
 30
0.0
 40
9.1349999999999998
  0
LINE
  5
19E
  8
CRS
  6
BYBLOCK
 10
1321.1476867494291
 20
1490.172601010094
 30
0.0
 11
1321.1476867494291
 21
1484.172601010094
 31
0.0
  0
POLYLINE
  5
19F
  8
DRG2
 66
     1
 10
0.0
 20
0.0
 30
0.0
 70
     1
  0
VERTEX
  5
1A0
  8
DRG2
 10
1318.260935403481
 20
1482.172601010094
 30
0.0
  0
VERTEX
  5
1A1
  8
DRG2
 10
1315.3741840575331
 20
1487.172601010094
 30
0.0
  0
VERTEX
  5
1A2
  8
DRG2
 10
1318.260935403481
 20
1492.172601010094
 30
0.0
  0
VERTEX
  5
1A3
  8
DRG2
 10
1324.034438095377
 20
1492.172601010094
 30
0.0
  0
VERTEX
  5
1A4
  8
DRG2
 10
1326.9211894413249
 20
1487.172601010094
 30
0.0
  0
VERTEX
  5
1A5
  8
DRG2
 10
1324.034438095377
 20
1482.172601010094
 30
0.0
  0
SEQEND
  5
1A6
  8
DRG2
  0
LINE
  5
1A7
  8
DRG
 10
1358.6451614324869
 20
1476.6700756931521
 30
0.0
 11
1370.6451614324869
 21
1476.6700756931521
 31
0.0
  0
ARC
  5
1A8
  8
DRG
 10
1370.6451614324869
 20
1536.6700756931521
 30
0.0
 40
40.0
 50
90.0
 51
270.0
  0
ARC
  5
1A9
  8
DRG2
 10
1370.6451614324869
 20
601.57007569315272
 30
0.0
 40
12.16499999999999
 50
90.0
 51
270.0
  0
ARC
  5
1AA
  8
DRG2
 10
1370.6451614324869
 20
601.57007569315272
 30
0.0
 40
11.164999999999999
 50
90.0
 51
270.0
  0
LINE
  5
1AB
  8
CRS
 10
1364.6451614324869
 20
601.57007569315272
 30
0.0
 11
1357.216853904049
 21
601.57007569315272
 31
0.0
  0
LINE
  5
1AC
  8
CRS
 10
1367.6451614324869
 20
601.57007569315272
 30
0.0
 11
1373.6451614324869
 21
601.57007569315272
 31
0.0
  0
LINE
  5
1AD
  8
CRS
 10
1370.6451614324869
 20
595.57007569315272
 30
0.0
 11
1370.6451614324869
 21
588.14176816471502
 31
0.0
  0
LINE
  5
1AE
  8
CRS
 10
1370.6451614324869
 20
598.57007569315272
 30
0.0
 11
1370.6451614324869
 21
604.57007569315272
 31
0.0
  0
LINE
  5
1AF
  8
CRS
 10
1370.6451614324869
 20
607.57007569315272
 30
0.0
 11
1370.6451614324869
 21
614.9983832215903
 31
0.0
  0
LINE
  5
1B0
  8
CRS
 10
1146.83545754686
 20
696.76037180752428
 30
0.0
 11
1154.2637650752979
 21
696.76037180752428
 31
0.0
  0
CIRCLE
  5
1B1
  8
DRG2
 10
1140.83545754686
 20
696.76037180752428
 30
0.0
 40
12.16499999999999
  0
CIRCLE
  5
1B2
  8
DRG2
 10
1140.83545754686
 20
696.76037180752428
 30
0.0
 40
11.164999999999999
  0
POLYLINE
  5
1B3
  8
DRG2
 66
     1
 10
0.0
 20
0.0
 30
0.0
 70
     1
  0
VERTEX
  5
1B4
  8
DRG2
 10
1136.7940056625321
 20
703.76037180752417
 30
0.0
  0
VERTEX
  5
1B5
  8
DRG2
 10
1132.7525537782051
 20
696.76037180752428
 30
0.0
  0
VERTEX
  5
1B6
  8
DRG2
 10
1136.7940056625321
 20
689.76037180752417
 30
0.0
  0
VERTEX
  5
1B7
  8
DRG2
 10
1144.876909431187
 20
689.76037180752417
 30
0.0
  0
VERTEX
  5
1B8
  8
DRG2
 10
1148.9183613155151
 20
696.76037180752428
 30
0.0
  0
VERTEX
  5
1B9
  8
DRG2
 10
1144.876909431187
 20
703.76037180752417
 30
0.0
  0
SEQEND
  5
1BA
  8
DRG2
  0
LINE
  5
1BB
  8
CRS
 10
1134.83545754686
 20
696.76037180752428
 30
0.0
 11
1127.407150018422
 21
696.76037180752428
 31
0.0
  0
LINE
  5
1BC
  8
CRS
 10
1137.83545754686
 20
696.76037180752428
 30
0.0
 11
1143.83545754686
 21
696.76037180752428
 31
0.0
  0
LINE
  5
1BD
  8
CRS
 10
1140.83545754686
 20
690.76037180752417
 30
0.0
 11
1140.83545754686
 21
683.33206427908658
 31
0.0
  0
LINE
  5
1BE
  8
CRS
 10
1140.83545754686
 20
693.76037180752428
 30
0.0
 11
1140.83545754686
 21
699.76037180752417
 31
0.0
  0
LINE
  5
1BF
  8
CRS
 10
1140.83545754686
 20
702.76037180752417
 30
0.0
 11
1140.83545754686
 21
710.18867933596198
 31
0.0
  0
LINE
  5
1C0
  8
CRS
 10
1146.83545754686
 20
1156.3797795787791
 30
0.0
 11
1154.263765075297
 21
1156.3797795787791
 31
0.0
  0
CIRCLE
  5
1C1
  8
DRG2
 10
1140.8354575468591
 20
1156.3797795787791
 30
0.0
 40
12.16499999999999
  0
CIRCLE
  5
1C2
  8
DRG2
 10
1140.8354575468591
 20
1156.3797795787791
 30
0.0
 40
11.164999999999999
  0
POLYLINE
  5
1C3
  8
DRG2
 66
     1
 10
0.0
 20
0.0
 30
0.0
 70
     1
  0
VERTEX
  5
1C4
  8
DRG2
 10
1136.7940056625321
 20
1163.3797795787791
 30
0.0
  0
VERTEX
  5
1C5
  8
DRG2
 10
1132.7525537782051
 20
1156.3797795787791
 30
0.0
  0
VERTEX
  5
1C6
  8
DRG2
 10
1136.7940056625321
 20
1149.3797795787791
 30
0.0
  0
VERTEX
  5
1C7
  8
DRG2
 10
1144.876909431187
 20
1149.3797795787791
 30
0.0
  0
VERTEX
  5
1C8
  8
DRG2
 10
1148.9183613155139
 20
1156.3797795787791
 30
0.0
  0
VERTEX
  5
1C9
  8
DRG2
 10
1144.876909431187
 20
1163.3797795787791
 30
0.0
  0
SEQEND
  5
1CA
  8
DRG2
  0
LINE
  5
1CB
  8
CRS
 10
1134.8354575468591
 20
1156.3797795787791
 30
0.0
 11
1127.407150018422
 21
1156.3797795787791
 31
0.0
  0
LINE
  5
1CC
  8
CRS
 10
1137.83545754686
 20
1156.3797795787791
 30
0.0
 11
1143.8354575468591
 21
1156.3797795787791
 31
0.0
  0
LINE
  5
1CD
  8
CRS
 10
1140.8354575468591
 20
1150.3797795787791
 30
0.0
 11
1140.8354575468591
 21
1142.9514720503421
 31
0.0
  0
LINE
  5
1CE
  8
CRS
 10
1140.8354575468591
 20
1153.3797795787791
 30
0.0
 11
1140.8354575468591
 21
1159.3797795787791
 31
0.0
  0
LINE
  5
1CF
  8
CRS
 10
1140.8354575468591
 20
1162.3797795787791
 30
0.0
 11
1140.8354575468591
 21
1169.808087107217
 31
0.0
  0
ARC
  5
1D0
  8
DRG2
 10
1370.6451614324869
 20
1251.5700756931519
 30
0.0
 40
12.16499999999999
 50
90.0
 51
270.0
  0
ARC
  5
1D1
  8
DRG2
 10
1370.6451614324869
 20
1251.5700756931519
 30
0.0
 40
11.164999999999999
 50
90.0
 51
270.0
  0
LINE
  5
1D2
  8
CRS
 10
1364.6451614324869
 20
1251.5700756931519
 30
0.0
 11
1357.216853904049
 21
1251.5700756931519
 31
0.0
  0
LINE
  5
1D3
  8
CRS
 10
1367.6451614324869
 20
1251.5700756931519
 30
0.0
 11
1373.6451614324869
 21
1251.5700756931519
 31
0.0
  0
LINE
  5
1D4
  8
CRS
 10
1051.6451614324869
 20
926.57007569315238
 30
0.0
 11
1059.0734689609251
 21
926.57007569315238
 31
0.0
  0
CIRCLE
  5
1D5
  8
DRG2
 10
1045.6451614324869
 20
926.57007569315238
 30
0.0
 40
12.16499999999999
  0
CIRCLE
  5
1D6
  8
DRG2
 10
1045.6451614324869
 20
926.57007569315238
 30
0.0
 40
11.164999999999999
  0
POLYLINE
  5
1D7
  8
DRG2
 66
     1
 10
0.0
 20
0.0
 30
0.0
 70
     1
  0
VERTEX
  5
1D8
  8
DRG2
 10
1041.6037095481599
 20
933.57007569315238
 30
0.0
  0
VERTEX
  5
1D9
  8
DRG2
 10
1037.562257663833
 20
926.57007569315238
 30
0.0
  0
VERTEX
  5
1DA
  8
DRG2
 10
1041.6037095481599
 20
919.57007569315238
 30
0.0
  0
VERTEX
  5
1DB
  8
DRG2
 10
1049.6866133168151
 20
919.57007569315238
 30
0.0
  0
VERTEX
  5
1DC
  8
DRG2
 10
1053.728065201142
 20
926.57007569315238
 30
0.0
  0
VERTEX
  5
1DD
  8
DRG2
 10
1049.6866133168151
 20
933.57007569315238
 30
0.0
  0
SEQEND
  5
1DE
  8
DRG2
  0
LINE
  5
1DF
  8
CRS
 10
1039.6451614324869
 20
926.57007569315238
 30
0.0
 11
1032.216853904049
 21
926.57007569315238
 31
0.0
  0
LINE
  5
1E0
  8
CRS
 10
1042.6451614324869
 20
926.57007569315238
 30
0.0
 11
1048.6451614324869
 21
926.57007569315238
 31
0.0
  0
LINE
  5
1E1
  8
CRS
 10
1045.6451614324869
 20
920.57007569315226
 30
0.0
 11
1045.6451614324869
 21
913.14176816471456
 31
0.0
  0
LINE
  5
1E2
  8
CRS
 10
1045.6451614324869
 20
923.57007569315226
 30
0.0
 11
1045.6451614324869
 21
929.57007569315226
 31
0.0
  0
LINE
  5
1E3
  8
CRS
 10
1045.6451614324869
 20
932.57007569315226
 30
0.0
 11
1045.6451614324869
 21
939.99838322158996
 31
0.0
  0
ARC
  5
1E4
  8
DRG2
 10
1370.6451614324869
 20
926.57007569315238
 30
0.0
 40
350.0
 50
89.999999999999957
 51
270.0
  0
LINE
  5
1E5
  8
CRS
 10
1024.171131903885
 20
926.57007569315238
 30
0.0
 11
997.51623968743218
 21
926.57007569315238
 31
0.0
  0
LINE
  5
1E6
  8
CRS
 10
1370.6451614324869
 20
1257.5700756931519
 30
0.0
 11
1370.6451614324869
 21
1264.9983832215889
 31
0.0
  0
LINE
  5
1E7
  8
CRS
 10
1370.6451614324869
 20
1248.5700756931519
 30
0.0
 11
1370.6451614324869
 21
1254.5700756931519
 31
0.0
  0
LINE
  5
1E8
  8
CRS
 10
1370.6451614324869
 20
1245.5700756931519
 30
0.0
 11
1370.6451614324869
 21
1238.141768164714
 31
0.0
  0
LINE
  5
1E9
  8
CRS
 10
1370.6451614324869
 20
1224.0723626446941
 30
0.0
 11
1370.6451614324869
 21
619.09142284973564
 31
0.0
  0
LINE
  5
1EA
  8
CRS
 10
1370.6451614324869
 20
582.12844251513695
 30
0.0
 11
1370.6451614324869
 21
557.30329653509705
 31
0.0
  0
ARC
  5
1EB
  8
DRG
 10
1370.6451614324869
 20
926.57007569315238
 30
0.0
 40
140.0
 50
89.999999999999943
 51
270.0
  0
ARC
  5
1EC
  8
DRG
 10
1370.6451614324869
 20
926.57007569315238
 30
0.0
 40
80.0
 50
89.999999999999915
 51
270.00000000000011
  0
ARC
  5
1ED
  8
DRG
 10
1302.525161432487
 20
1091.020075693152
 30
0.0
 40
27.0
 50
22.50076715092111
 51
202.50076715092109
  0
LINE
  5
1EE
  8
DRG
 10
1327.4697704636501
 20
1101.352862359025
 30
0.0
 11
1334.52490182614
 21
1084.3209135545401
 31
0.0
  0
LINE
  5
1EF
  8
CRS
 10
1302.601847758702
 20
1073.1349455354029
 30
0.0
 11
1302.601847758702
 21
1108.534945535398
 31
0.0
  0
ARC
  5
1F0
  8
DRG
 10
1270.7775676353911
 20
1057.914903186198
 30
0.0
 40
15.0
 50
307.24742002616631
 51
22.500767150921391
  0
LINE
  5
1F1
  8
DRG
 10
1277.5805524013249
 20
1080.6872890272789
 30
0.0
 11
1284.635683763815
 21
1063.6553402227951
 31
0.0
  0
ARC
  5
1F2
  8
DRG
 10
1348.3830179545639
 20
1090.061350591136
 30
0.0
 40
15.0
 50
202.5007671509214
 51
277.75411427567701
  0
LINE
  5
1F3
  8
CRS
 10
1284.901847758704
 20
1090.8349455354
 30
0.0
 11
1320.3018477587
 21
1090.8349455354
 31
0.0
  0
ARC
  5
1F4
  8
DRG
 10
1370.6451614324869
 20
926.57007569315238
 30
0.0
 40
150.0
 50
89.999999999999957
 51
97.754114275677054
  0
ARC
  5
1F5
  8
DRG
 10
1370.6451614324869
 20
926.57007569315238
 30
0.0
 40
150.0
 50
127.2474200261664
 51
142.75411427567701
  0
ARC
  5
1F6
  8
DRG
 10
1239.2976596702999
 20
1026.4341522213631
 30
0.0
 40
15.0
 50
247.5007671509214
 51
322.75411427567701
  0
LINE
  5
1F7
  8
DRG
 10
1216.5254560119211
 20
1019.630557644827
 30
0.0
 11
1233.5575937369731
 21
1012.575882376933
 31
0.0
  0
ARC
  5
1F8
  8
DRG
 10
1206.1933373319321
 20
994.68567192485273
 30
0.0
 40
27.0
 50
67.500767150921334
 51
247.5007671509214
  0
LINE
  5
1F9
  8
DRG
 10
1195.861218651942
 20
969.74078620487751
 30
0.0
 11
1212.893356376994
 21
962.68611093698325
 31
0.0
  0
ARC
  5
1FA
  8
DRG
 10
1207.153290443666
 20
948.82784109255294
 30
0.0
 40
15.0
 50
352.24742002616631
 51
67.500767150921391
  0
ARC
  5
1FB
  8
DRG
 10
1370.6451614324869
 20
926.57007569315238
 30
0.0
 40
150.0
 50
172.24742002616631
 51
187.75411427567701
  0
ARC
  5
1FC
  8
DRG
 10
1207.153886534503
 20
904.30793221522867
 30
0.0
 40
15.0
 50
292.50076715092132
 51
7.7541142756770389
  0
LINE
  5
1FD
  8
DRG
 10
1195.862374766614
 20
883.39468472431508
 30
0.0
 11
1212.894323571099
 21
890.44981608680484
 31
0.0
  0
ARC
  5
1FE
  8
DRG
 10
1206.1951614324871
 20
858.45007569315248
 30
0.0
 40
27.0
 50
112.50076715092131
 51
292.50076715092138
  0
LINE
  5
1FF
  8
DRG
 10
1216.52794809836
 20
833.50546666198977
 30
0.0
 11
1233.559896902844
 21
840.56059802447965
 31
0.0
  0
ARC
  5
200
  8
DRG
 10
1239.30033393944
 20
826.70248189605604
 30
0.0
 40
15.0
 50
37.247420026166367
 51
112.50076715092131
  0
ARC
  5
201
  8
DRG
 10
1370.6451614324869
 20
926.57007569315238
 30
0.0
 40
150.0
 50
217.24742002616631
 51
232.7541142756769
  0
ARC
  5
202
  8
DRG
 10
1302.5295652007869
 20
762.11825159259695
 30
0.0
 40
27.0
 50
157.50076715092129
 51
337.50076715092138
  0
LINE
  5
203
  8
DRG
 10
1277.5846794808119
 20
772.45037027258672
 30
0.0
 11
1284.6393547487071
 21
789.48250799763832
 31
0.0
  0
LINE
  5
204
  8
DRG
 10
1327.4744509207619
 20
751.78613291260729
 30
0.0
 11
1334.5291261886559
 21
768.818270637659
 31
0.0
  0
ARC
  5
205
  8
DRG
 10
1270.7810849042751
 20
795.22257393096584
 30
0.0
 40
15.0
 50
337.50076715092138
 51
52.754114275677033
  0
ARC
  5
206
  8
DRG
 10
1348.3873960330859
 20
763.07820470433137
 30
0.0
 40
15.0
 50
82.247420026166367
 51
157.5007671509214
  0
ARC
  5
207
  8
DRG
 10
1370.6451614324869
 20
926.57007569315238
 30
0.0
 40
150.0
 50
262.2474200261662
 51
270.0
  0
LINE
  5
208
  8
DRG
 10
1233.454558941849
 20
1242.0866974236969
 30
0.0
 11
1285.217519843299
 21
1117.124587613896
 31
0.0
  0
LINE
  5
209
  8
DRG
 10
1244.5410518445869
 20
1246.6790470529729
 30
0.0
 11
1296.3040127460381
 21
1121.7169372431731
 31
0.0
  0
ARC
  5
20A
  8
DRG
 10
1279.67427339193
 20
1114.8284127992581
 30
0.0
 40
6.0
 50
313.82445341441871
 51
22.50076715092175
  0
ARC
  5
20B
  8
DRG
 10
1301.8472591974071
 20
1124.0131120578119
 30
0.0
 40
6.0
 50
202.50076715092169
 51
271.17708088742438
  0
ARC
  5
20C
  8
DRG
 10
1238.997805393218
 20
1244.382872238335
 30
0.0
 40
6.0
 50
22.500767150921931
 51
202.5007671509216
  0
ARC
  5
20D
  8
DRG
 10
1052.8288396668811
 20
1058.208921097465
 30
0.0
 40
6.0
 50
67.500767150921931
 51
247.50076715092149
  0
LINE
  5
20E
  8
DRG
 10
1055.1248660402121
 20
1063.752229035236
 30
0.0
 11
1180.0883619458091
 21
1011.992614465059
 31
0.0
  0
LINE
  5
20F
  8
DRG
 10
1050.5328132935499
 20
1052.6656131596919
 30
0.0
 11
1175.4963091991469
 21
1000.905998589514
 31
0.0
  0
ARC
  5
210
  8
DRG
 10
1173.200282825816
 20
995.36269065174292
 30
0.0
 40
6.0
 50
358.82445341441871
 51
67.500767150921746
  0
ARC
  5
211
  8
DRG
 10
1182.38438831914
 20
1017.535922402831
 30
0.0
 40
6.0
 50
247.50076715092169
 51
316.17708088742432
  0
ARC
  5
212
  8
DRG
 10
1052.832364887304
 20
794.92271965388295
 30
0.0
 40
6.0
 50
112.5007671509219
 51
292.50076715092149
  0
LINE
  5
213
  8
DRG
 10
1050.5361900726659
 20
800.46596610525239
 30
0.0
 11
1175.498299882466
 21
852.22892700670297
 31
0.0
  0
LINE
  5
214
  8
DRG
 10
1055.1285397019431
 20
789.37947320251374
 30
0.0
 11
1180.0906495117431
 21
841.14243410396421
 31
0.0
  0
ARC
  5
215
  8
DRG
 10
1182.386824326381
 20
835.59918765259476
 30
0.0
 40
6.0
 50
43.824453414418699
 51
112.5007671509217
  0
ARC
  5
216
  8
DRG
 10
1173.202125067827
 20
857.77217345807253
 30
0.0
 40
6.0
 50
292.50076715092172
 51
1.177080887424395
  0
ARC
  5
217
  8
DRG
 10
1239.006316028175
 20
608.75375392754597
 30
0.0
 40
6.0
 50
157.50076715092189
 51
337.50076715092149
  0
LINE
  5
218
  8
DRG
 10
1233.463008090403
 20
611.04978030087705
 30
0.0
 11
1285.2226226605801
 21
736.01327620647419
 31
0.0
  0
LINE
  5
219
  8
DRG
 10
1244.5496239659469
 20
606.45772755421524
 30
0.0
 11
1296.3092385361249
 21
731.42122345981227
 31
0.0
  0
ARC
  5
21A
  8
DRG
 10
1301.8525464738959
 20
729.12519708648142
 30
0.0
 40
6.0
 50
88.824453414418699
 51
157.50076715092169
  0
ARC
  5
21B
  8
DRG
 10
1279.679314722807
 20
738.30930257980526
 30
0.0
 40
6.0
 50
337.50076715092172
 51
46.177080887424388
  0
LINE
  5
21C
  8
DRG
 10
738.04325740237255
 20
1276.5700756931519
 30
0.0
 11
723.04325740237255
 21
1276.5700756931519
 31
0.0
  0
LINE
  5
21D
  8
DRG
 10
738.04325740237255
 20
1276.5700756931519
 30
0.0
 11
738.04325740237289
 21
1016.643456682508
 31
0.0
  0
LINE
  5
21E
  8
DRG
 10
742.04325740237255
 20
1249.926118689704
 30
0.0
 11
738.04325740237255
 21
1249.926118689704
 31
0.0
  0
LINE
  5
21F
  8
DRG
 10
748.04325740237255
 20
1243.926118689704
 30
0.0
 11
748.04325740237255
 21
1168.549779578779
 31
0.0
  0
ARC
  5
220
  8
DRG
 10
742.04325740237255
 20
1243.926118689704
 30
0.0
 40
6.0
 50
0.0000000000000509
 51
90.000000000000057
  0
LINE
  5
221
  8
DRG
 10
826.24325740237282
 20
1115.964684724315
 30
0.0
 11
752.49034313175753
 21
1135.7267185425681
 31
0.0
  0
LINE
  5
222
  8
DRG
 10
826.24325740237282
 20
1115.964684724315
 30
0.0
 11
753.04325740237255
 21
1115.9646847243141
 31
0.0
  0
ARC
  5
223
  8
DRG
 10
754.04325740237255
 20
1141.5222735003019
 30
0.0
 40
6.0
 50
180.0
 51
255.00000000000011
  0
ARC
  5
224
  8
DRG
 10
753.04325740237255
 20
1130.9646847243141
 30
0.0
 40
15.0
 50
180.0
 51
270.00000000000011
  0
ARC
  5
225
  8
DRG
 10
742.04325740237289
 20
1054.5049474707951
 30
0.0
 40
6.0
 50
0.0000000000000509
 51
90.000000000000057
  0
LINE
  5
226
  8
DRG
 10
742.04325740237289
 20
1060.5049474707951
 30
0.0
 11
738.04325740237289
 21
1060.5049474707951
 31
0.0
  0
LINE
  5
227
  8
DRG
 10
748.043257402373
 20
1054.5049474707951
 30
0.0
 11
748.04325740237255
 21
1030.575379380829
 31
0.0
  0
LINE
  5
228
  8
DRG
 10
748.04325740237255
 20
1144.209779578779
 30
0.0
 11
748.04325740237255
 21
1141.5222735003019
 31
0.0
  0
LINE
  5
229
  8
CRS
 10
755.1513426250558
 20
1251.5700756931519
 30
0.0
 11
734.6317366575081
 21
1251.5700756931519
 31
0.0
  0
LINE
  5
22A
  8
DRG2
 10
753.04325740237255
 20
1263.740075693152
 30
0.0
 11
753.04325740237255
 21
1239.4000756931521
 31
0.0
  0
LINE
  5
22B
  8
DRG2
 10
754.04325740237255
 20
1262.740075693152
 30
0.0
 11
754.04325740237255
 21
1240.4000756931521
 31
0.0
  0
LINE
  5
22C
  8
DRG2
 10
754.04325740237255
 20
1240.4000756931521
 30
0.0
 11
753.04325740237255
 21
1239.4000756931521
 31
0.0
  0
LINE
  5
22D
  8
DRG2
 10
753.04325740237255
 20
1263.740075693152
 30
0.0
 11
754.04325740237255
 21
1262.740075693152
 31
0.0
  0
LINE
  5
22E
  8
DRG2
 10
753.04325740237255
 20
1263.740075693152
 30
0.0
 11
738.04325740237255
 21
1263.740075693152
 31
0.0
  0
LINE
  5
22F
  8
DRG2
 10
753.04325740237255
 20
1239.4000756931521
 30
0.0
 11
748.04325740237255
 21
1239.4000756931521
 31
0.0
  0
LINE
  5
230
  8
DRG2
 10
754.04325740237255
 20
590.40007569315276
 30
0.0
 11
754.04325740237255
 21
612.74007569315256
 31
0.0
  0
LINE
  5
231
  8
DRG2
 10
753.04325740237255
 20
589.40007569315264
 30
0.0
 11
753.04325740237255
 21
613.74007569315256
 31
0.0
  0
LINE
  5
232
  8
DRG
 10
723.04325740237255
 20
582.53610109693682
 30
0.0
 11
723.04325740237255
 21
593.37007569315244
 31
0.0
  0
LINE
  5
233
  8
DRG
 10
826.24325740237282
 20
737.17546666198984
 30
0.0
 11
753.04325740237255
 21
737.17546666199007
 31
0.0
  0
LINE
  5
234
  8
DRG
 10
826.24325740237282
 20
737.17546666198984
 30
0.0
 11
752.49034313175753
 21
717.41343284373693
 31
0.0
  0
LINE
  5
235
  8
DRG
 10
748.04325740237255
 20
609.21403269660073
 30
0.0
 11
748.04325740237255
 21
684.59037180752546
 31
0.0
  0
ARC
  5
236
  8
DRG
 10
753.04325740237255
 20
722.17546666199019
 30
0.0
 40
15.0
 50
89.999999999999915
 51
179.99999999999989
  0
LINE
  5
237
  8
CRS
 10
755.1513426250558
 20
696.7603718075253
 30
0.0
 11
734.6317366575081
 21
696.7603718075253
 31
0.0
  0
LINE
  5
238
  8
DRG
 10
748.04325740237255
 20
708.93037180752549
 30
0.0
 11
748.04325740237255
 21
711.61787788600247
 31
0.0
  0
LINE
  5
239
  8
DRG2
 10
753.04325740237255
 20
684.59037180752546
 30
0.0
 11
753.04325740237255
 21
708.93037180752549
 31
0.0
  0
LINE
  5
23A
  8
DRG2
 10
754.04325740237255
 20
685.59037180752546
 30
0.0
 11
754.04325740237255
 21
707.93037180752538
 31
0.0
  0
LINE
  5
23B
  8
DRG2
 10
754.04325740237255
 20
707.93037180752538
 30
0.0
 11
753.04325740237255
 21
708.93037180752549
 31
0.0
  0
LINE
  5
23C
  8
DRG2
 10
753.04325740237255
 20
684.59037180752546
 30
0.0
 11
754.04325740237255
 21
685.59037180752546
 31
0.0
  0
LINE
  5
23D
  8
DRG2
 10
753.04325740237255
 20
684.59037180752546
 30
0.0
 11
738.04325740237255
 21
684.59037180752534
 31
0.0
  0
LINE
  5
23E
  8
DRG2
 10
753.04325740237255
 20
708.93037180752549
 30
0.0
 11
738.04325740237255
 21
708.93037180752515
 31
0.0
  0
ARC
  5
23F
  8
DRG
 10
754.04325740237255
 20
711.61787788600247
 30
0.0
 40
6.0
 50
104.9999999999998
 51
179.99999999999989
  0
LINE
  5
240
  8
CRS
 10
755.1513426250558
 20
601.5700756931526
 30
0.0
 11
734.6317366575081
 21
601.5700756931526
 31
0.0
  0
LINE
  5
241
  8
DRG2
 10
753.04325740237255
 20
613.74007569315256
 30
0.0
 11
748.04325740237255
 21
613.74007569315256
 31
0.0
  0
LINE
  5
242
  8
DRG2
 10
754.04325740237255
 20
612.74007569315256
 30
0.0
 11
753.04325740237255
 21
613.74007569315256
 31
0.0
  0
ARC
  5
243
  8
DRG
 10
742.04325740237255
 20
609.21403269660073
 30
0.0
 40
6.0
 50
269.99999999999989
 51
359.99999999999989
  0
LINE
  5
244
  8
DRG
 10
742.04325740237255
 20
603.21403269660073
 30
0.0
 11
738.04325740237255
 21
603.21403269660073
 31
0.0
  0
LINE
  5
245
  8
DRG
 10
738.04325740237255
 20
576.5700756931526
 30
0.0
 11
723.04325740237255
 21
576.5700756931526
 31
0.0
  0
LINE
  5
246
  8
DRG2
 10
753.04325740237255
 20
589.40007569315264
 30
0.0
 11
738.04325740237255
 21
589.40007569315264
 31
0.0
  0
LINE
  5
247
  8
DRG2
 10
753.04325740237255
 20
589.40007569315264
 30
0.0
 11
754.04325740237255
 21
590.40007569315276
 31
0.0
  0
LINE
  5
248
  8
DRG
 10
738.04325740237255
 20
576.5700756931526
 30
0.0
 11
738.04325740237289
 21
836.49669470379649
 31
0.0
  0
LINE
  5
249
  8
DRG
 10
748.043257402373
 20
798.6352039155089
 30
0.0
 11
748.04325740237255
 21
822.56477200547499
 31
0.0
  0
LINE
  5
24A
  8
DRG
 10
742.04325740237289
 20
792.63520391550901
 30
0.0
 11
738.04325740237289
 21
792.63520391550901
 31
0.0
  0
ARC
  5
24B
  8
DRG
 10
742.04325740237289
 20
798.6352039155089
 30
0.0
 40
6.0
 50
269.99999999999989
 51
359.99999999999989
  0
ARC
  5
24C
  8
DRG
 10
753.043257402373
 20
1068.77806937421
 30
0.0
 40
15.0
 50
180.0
 51
213.4728279794154
  0
LINE
  5
24D
  8
DRG
 10
826.24325740237282
 20
1053.77806937421
 30
0.0
 11
753.043257402373
 21
1053.77806937421
 31
0.0
  0
ARC
  5
24E
  8
DRG
 10
753.043257402373
 20
1068.77806937421
 30
0.0
 40
15.0
 50
250.52294074038261
 51
270.00000000000011
  0
ARC
  5
24F
  8
DRG
 10
753.043257402373
 20
784.36208201209433
 30
0.0
 40
15.0
 50
146.52717202058449
 51
179.99999999999989
  0
ARC
  5
250
  8
DRG
 10
753.043257402373
 20
784.36208201209433
 30
0.0
 40
15.0
 50
89.999999999999915
 51
109.47705925961731
  0
LINE
  5
251
  8
DRG
 10
826.24325740237282
 20
799.36208201209399
 30
0.0
 11
753.043257402373
 21
799.36208201209433
 31
0.0
  0
LINE
  5
252
  8
CRS
 10
1391.5054433550661
 20
926.57007569315238
 30
0.0
 11
1067.3588984112509
 21
926.57007569315238
 31
0.0
  0
LINE
  5
253
  8
DRG
 10
831.24325740237271
 20
1034.520075693152
 30
0.0
 11
831.24325740237271
 21
818.62007569315244
 31
0.0
  0
LINE
  5
254
  8
DRG
 10
826.24325740237282
 20
1034.520075693152
 30
0.0
 11
831.24325740237271
 21
1034.520075693152
 31
0.0
  0
LINE
  5
255
  8
DRG
 10
826.24325740237282
 20
818.62007569315244
 30
0.0
 11
831.24325740237271
 21
818.62007569315244
 31
0.0
  0
LINE
  5
256
  8
CRS
 10
337.41570797554908
 20
1059.0700756931519
 30
0.0
 11
369.57460940309778
 21
1059.0700756931519
 31
0.0
  0
LINE
  5
257
  8
CRS
 10
337.41570797554908
 20
794.07007569315249
 30
0.0
 11
369.57460940309778
 21
794.07007569315249
 31
0.0
  0
SOLID
  5
258
  8
DIM
 10
340.20080439135239
 20
782.24127774576414
 30
0.0
 11
336.51808359820052
 21
783.80254888162995
 31
0.0
 12
343.0432574023734
 22
794.07007569315249
 32
0.0
 13
343.0432574023734
 23
794.07007569315249
 33
0.0
  0
LINE
  5
259
  8
DIM
 10
338.35944399477597
 20
783.02191331369727
 30
0.0
 11
315.61982559809172
 21
729.38378245093918
 31
0.0
  0
LINE
  5
25A
  8
DIM
 10
363.04325740237198
 20
1612.687467321952
 30
0.0
 11
363.04325740237198
 21
1746.289607805488
 31
0.0
  0
LINE
  5
25B
  8
DIM
 10
533.65525050738495
 20
1626.8270018402161
 30
0.0
 11
558.04325740237016
 21
1626.8270018402161
 31
0.0
  0
LINE
  5
25C
  8
CRS
 10
343.73478519201262
 20
1301.470075693152
 30
0.0
 11
736.10394232052431
 21
1301.470075693152
 31
0.0
  0
POLYLINE
  5
25D
  8
DRG2
 66
     1
 10
0.0
 20
0.0
 30
0.0
  0
VERTEX
  5
25E
  8
DRG2
 10
1366.6037095481599
 20
1258.5700756931519
 30
0.0
  0
VERTEX
  5
25F
  8
DRG2
 10
1362.562257663832
 20
1251.5700756931519
 30
0.0
  0
VERTEX
  5
260
  8
DRG2
 10
1366.6037095481599
 20
1244.5700756931519
 30
0.0
  0
VERTEX
  5
261
  8
DRG2
 10
1370.6451614324869
 20
1244.570075693151
 30
0.0
  0
SEQEND
  5
262
  8
DRG2
  0
POLYLINE
  5
263
  8
DRG2
 66
     1
 10
0.0
 20
0.0
 30
0.0
  0
VERTEX
  5
264
  8
DRG2
 10
1370.6451614324869
 20
1258.570075693151
 30
0.0
  0
VERTEX
  5
265
  8
DRG2
 10
1366.6037095481599
 20
1258.5700756931519
 30
0.0
  0
SEQEND
  5
266
  8
DRG2
  0
POLYLINE
  5
267
  8
DRG2
 66
     1
 10
0.0
 20
0.0
 30
0.0
  0
VERTEX
  5
268
  8
DRG2
 10
1366.6037095481599
 20
608.57007569315272
 30
0.0
  0
VERTEX
  5
269
  8
DRG2
 10
1362.562257663832
 20
601.57007569315272
 30
0.0
  0
VERTEX
  5
26A
  8
DRG2
 10
1366.6037095481599
 20
594.57007569315272
 30
0.0
  0
VERTEX
  5
26B
  8
DRG2
 10
1370.6451614324869
 20
594.57007569315272
 30
0.0
  0
SEQEND
  5
26C
  8
DRG2
  0
POLYLINE
  5
26D
  8
DRG2
 66
     1
 10
0.0
 20
0.0
 30
0.0
  0
VERTEX
  5
26E
  8
DRG2
 10
1370.6451614324869
 20
608.57007569315272
 30
0.0
  0
VERTEX
  5
26F
  8
DRG2
 10
1366.6037095481599
 20
608.57007569315272
 30
0.0
  0
SEQEND
  5
270
  8
DRG2
  0
LINE
  5
271
  8
CRS
 10
332.16174752993402
 20
926.5700756931526
 30
0.0
 11
847.99645398922655
 21
926.5700756931526
 31
0.0
  0
TEXT
  5
272
  8
DIM
 10
918.08489787324243
 20
1629.22104795265
 30
0.0
 40
10.0
  1
THIS SIDE ONLY FOR G30 & ISO F30
  0
TEXT
  5
273
  8
DIM
 10
918.08489787324243
 20
1646.8934373140919
 30
0.0
 40
10.0
  1
%%C140 (%%c5.51") P.C.
  0
TEXT
  5
274
  8
DIM
 10
918.08489787324243
 20
1664.036294456949
 30
0.0
 40
10.0
  1
4 OFF M12 SCREWS EACH SIDE ON
  0
LINE
  5
275
  8
HID
 10
360.78647383528318
 20
1054.8200756931519
 30
0.0
 11
363.04325740237482
 21
1054.8200756931519
 31
0.0
  0
LINE
  5
276
  8
HID
 10
360.78647383528318
 20
1063.3200756931519
 30
0.0
 11
363.04325740237482
 21
1063.3200756931519
 31
0.0
  0
LINE
  5
277
  8
HID
 10
343.04325740237482
 20
1054.0700756931519
 30
0.0
 11
346.67834224531077
 21
1054.0700756931519
 31
0.0
  0
LINE
  5
278
  8
HID
 10
343.04325740237482
 20
1054.8200756931519
 30
0.0
 11
346.28257300308178
 21
1054.8200756931519
 31
0.0
  0
LINE
  5
279
  8
HID
 10
343.04325740237482
 20
1064.0700756931519
 30
0.0
 11
346.67834224531077
 21
1064.0700756931519
 31
0.0
  0
LINE
  5
27A
  8
HID
 10
343.04325740237482
 20
1063.3200756931519
 30
0.0
 11
346.28257300308178
 21
1063.3200756931519
 31
0.0
  0
LINE
  5
27B
  8
HID
 10
359.04325740237482
 20
1055.5896939374891
 30
0.0
 11
359.04325740237482
 21
1054.0700756931519
 31
0.0
  0
LINE
  5
27C
  8
HID
 10
349.68078246642563
 20
1054.0700756931519
 30
0.0
 11
354.17474126882189
 21
1054.0700756931519
 31
0.0
  0
LINE
  5
27D
  8
HID
 10
356.24692226964947
 20
1054.0700756931519
 30
0.0
 11
359.04325740237482
 21
1054.0700756931519
 31
0.0
  0
LINE
  5
27E
  8
HID
 10
356.42199456032898
 20
1054.8200756931519
 30
0.0
 11
359.68303413724379
 21
1054.8200756931519
 31
0.0
  0
LINE
  5
27F
  8
HID
 10
349.46009360530343
 20
1054.8200756931519
 30
0.0
 11
353.96238752958237
 21
1054.8200756931519
 31
0.0
  0
LINE
  5
280
  8
HID
 10
349.68078246642563
 20
1064.0700756931519
 30
0.0
 11
354.17474126882189
 21
1064.0700756931519
 31
0.0
  0
LINE
  5
281
  8
HID
 10
349.46009360530343
 20
1063.3200756931519
 30
0.0
 11
353.96238752958237
 21
1063.3200756931519
 31
0.0
  0
LINE
  5
282
  8
HID
 10
356.24692226964947
 20
1064.0700756931519
 30
0.0
 11
359.04325740237482
 21
1064.0700756931519
 31
0.0
  0
LINE
  5
283
  8
HID
 10
356.42199456032898
 20
1063.3200756931519
 30
0.0
 11
359.68303413724379
 21
1063.3200756931519
 31
0.0
  0
LINE
  5
284
  8
HID
 10
359.04325740237482
 20
1062.550457448815
 30
0.0
 11
359.04325740237482
 21
1064.0700756931519
 31
0.0
  0
LINE
  5
285
  8
HID
 10
359.04325740237482
 20
1060.1973056037959
 30
0.0
 11
359.04325740237482
 21
1061.5209528745661
 31
0.0
  0
LINE
  5
286
  8
HID
 10
359.04325740237482
 20
1056.863906246122
 30
0.0
 11
359.04325740237482
 21
1058.5552327436139
 31
0.0
  0
LINE
  5
287
  8
HID
 10
359.04325740237482
 20
1054.0700756931519
 30
0.0
 11
359.04325740237482
 21
1055.417468807841
 31
0.0
  0
LINE
  5
288
  8
HID
 10
359.04325740237482
 20
1055.5896939374891
 30
0.0
 11
359.04325740237482
 21
1054.0700756931519
 31
0.0
  0
LINE
  5
289
  8
HID
 10
364.75773568091512
 20
1060.350512206247
 30
0.0
 11
365.49699604643092
 21
1059.0700756931519
 31
0.0
  0
LINE
  5
28A
  8
HID
 10
363.04325740237482
 20
1063.3200756931519
 30
0.0
 11
364.02939614531118
 21
1061.6120332870739
 31
0.0
  0
LINE
  5
28B
  8
HID
 10
364.75773568091512
 20
1057.7896391800559
 30
0.0
 11
365.49699604643092
 21
1059.0700756931519
 31
0.0
  0
LINE
  5
28C
  8
HID
 10
363.04325740237482
 20
1058.0243620076831
 30
0.0
 11
363.04325740237482
 21
1060.1179470501661
 31
0.0
  0
LINE
  5
28D
  8
HID
 10
363.04325740237482
 20
1054.8200756931519
 30
0.0
 11
364.02939614531118
 21
1056.5281180992299
 31
0.0
  0
LINE
  5
28E
  8
HID
 10
363.04325740237482
 20
1061.8886321012869
 30
0.0
 11
363.04325740237482
 21
1063.3200756931519
 31
0.0
  0
LINE
  5
28F
  8
HID
 10
363.04325740237482
 20
1054.8200756931519
 30
0.0
 11
363.04325740237482
 21
1055.8586845647651
 31
0.0
  0
LINE
  5
290
  8
HID
 10
363.04325740237482
 20
1054.8200756931519
 30
0.0
 11
364.02939614531118
 21
1056.5281180992299
 31
0.0
  0
LINE
  5
291
  8
HID
 10
360.78647383528141
 20
789.82007569315283
 30
0.0
 11
363.0432574023734
 21
789.82007569315283
 31
0.0
  0
LINE
  5
292
  8
HID
 10
360.78647383528141
 20
798.32007569315283
 30
0.0
 11
363.0432574023734
 21
798.32007569315283
 31
0.0
  0
LINE
  5
293
  8
HID
 10
343.0432574023734
 20
789.07007569315283
 30
0.0
 11
346.67834224530952
 21
789.07007569315283
 31
0.0
  0
LINE
  5
294
  8
HID
 10
343.0432574023734
 20
789.82007569315283
 30
0.0
 11
346.2825730030799
 21
789.82007569315283
 31
0.0
  0
LINE
  5
295
  8
HID
 10
343.0432574023734
 20
798.32007569315283
 30
0.0
 11
346.2825730030799
 21
798.32007569315283
 31
0.0
  0
LINE
  5
296
  8
HID
 10
343.0432574023734
 20
799.07007569315283
 30
0.0
 11
346.67834224530952
 21
799.07007569315283
 31
0.0
  0
LINE
  5
297
  8
HID
 10
359.0432574023734
 20
797.55045744881613
 30
0.0
 11
359.0432574023734
 21
799.07007569315283
 31
0.0
  0
LINE
  5
298
  8
HID
 10
359.0432574023734
 20
799.07007569315283
 30
0.0
 11
359.0432574023734
 21
797.72268257846315
 31
0.0
  0
LINE
  5
299
  8
HID
 10
359.0432574023734
 20
792.94284578250881
 30
0.0
 11
359.0432574023734
 21
791.61919851173911
 31
0.0
  0
LINE
  5
29A
  8
HID
 10
359.0432574023734
 20
790.58969393748976
 30
0.0
 11
359.0432574023734
 21
789.07007569315283
 31
0.0
  0
LINE
  5
29B
  8
HID
 10
349.68078246642381
 20
789.07007569315283
 30
0.0
 11
354.17474126882053
 21
789.07007569315283
 31
0.0
  0
LINE
  5
29C
  8
HID
 10
356.24692226964771
 20
789.07007569315283
 30
0.0
 11
359.0432574023734
 21
789.07007569315283
 31
0.0
  0
LINE
  5
29D
  8
HID
 10
356.42199456032768
 20
789.82007569315283
 30
0.0
 11
359.68303413724192
 21
789.82007569315283
 31
0.0
  0
LINE
  5
29E
  8
HID
 10
349.46009360530161
 20
789.82007569315283
 30
0.0
 11
353.96238752958061
 21
789.82007569315283
 31
0.0
  0
LINE
  5
29F
  8
HID
 10
349.46009360530161
 20
798.32007569315283
 30
0.0
 11
353.96238752958061
 21
798.32007569315283
 31
0.0
  0
LINE
  5
2A0
  8
HID
 10
356.42199456032768
 20
798.32007569315283
 30
0.0
 11
359.68303413724192
 21
798.32007569315283
 31
0.0
  0
LINE
  5
2A1
  8
HID
 10
356.24692226964771
 20
799.07007569315283
 30
0.0
 11
359.0432574023734
 21
799.07007569315283
 31
0.0
  0
LINE
  5
2A2
  8
HID
 10
349.68078246642381
 20
799.07007569315283
 30
0.0
 11
354.17474126882053
 21
799.07007569315283
 31
0.0
  0
LINE
  5
2A3
  8
HID
 10
359.0432574023734
 20
797.55045744881591
 30
0.0
 11
359.0432574023734
 21
799.07007569315283
 31
0.0
  0
LINE
  5
2A4
  8
HID
 10
359.0432574023734
 20
796.27624514018316
 30
0.0
 11
359.0432574023734
 21
794.58491864269138
 31
0.0
  0
LINE
  5
2A5
  8
HID
 10
363.0432574023734
 20
798.32007569315283
 30
0.0
 11
363.0432574023734
 21
797.28146682153999
 31
0.0
  0
LINE
  5
2A6
  8
HID
 10
363.0432574023734
 20
791.25151928501737
 30
0.0
 11
363.0432574023734
 21
789.82007569315283
 31
0.0
  0
LINE
  5
2A7
  8
HID
 10
363.0432574023734
 20
795.11578937862214
 30
0.0
 11
363.0432574023734
 21
793.0222043361382
 31
0.0
  0
LINE
  5
2A8
  8
HID
 10
363.0432574023734
 20
798.32007569315283
 30
0.0
 11
364.02939614530982
 21
796.61203328707495
 31
0.0
  0
LINE
  5
2A9
  8
HID
 10
363.0432574023734
 20
798.32007569315294
 30
0.0
 11
364.02939614530982
 21
796.61203328707495
 31
0.0
  0
LINE
  5
2AA
  8
HID
 10
364.75773568091381
 20
795.35051220624825
 30
0.0
 11
365.4969960464295
 21
794.07007569315283
 31
0.0
  0
LINE
  5
2AB
  8
HID
 10
363.0432574023734
 20
789.8200756931526
 30
0.0
 11
364.02939614530982
 21
791.52811809923048
 31
0.0
  0
LINE
  5
2AC
  8
HID
 10
364.75773568091381
 20
792.78963918005718
 30
0.0
 11
365.4969960464295
 21
794.07007569315283
 31
0.0
  0
TEXT
  5
2AD
  8
TXT
 10
786.76190476190482
 20
252.27661262712559
 30
0.0
 40
10.0
  1
9.00
 72
     4
 11
802.0
 21
257.27661262712559
 31
0.0
  0
TEXT
  5
2AE
  8
TXT
 10
776.76190476190482
 20
284.2766126271257
 30
0.0
 40
10.0
  1
10.00:1
 72
     4
 11
802.0
 21
289.27661262712559
 31
0.0
  0
TEXT
  5
2AF
  8
TXT
 10
788.66666666666663
 20
316.27661262712559
 30
0.0
 40
10.0
  1
10:1
 72
     4
 11
802.0
 21
321.2766126271257
 31
0.0
  0
LINE
  5
2B0
  8
DRG2
 10
312.0
 20
337.27661262712559
 30
0.0
 11
1152.0
 21
337.27661262712559
 31
0.0
  0
LINE
  5
2B1
  8
DRG2
 10
312.0
 20
305.2766126271257
 30
0.0
 11
1152.0
 21
305.2766126271257
 31
0.0
  0
LINE
  5
2B2
  8
DRG2
 10
312.0
 20
273.27661262712559
 30
0.0
 11
1152.0
 21
273.27661262712559
 31
0.0
  0
LINE
  5
2B3
  8
DRG2
 10
312.0
 20
241.27661262712559
 30
0.0
 11
1152.0
 21
241.27661262712559
 31
0.0
  0
TEXT
  5
2B4
  8
TXT
 10
321.52380952380958
 20
252.99089834141131
 30
0.0
 40
10.0
  1
FACTOR (MECH. ADVANTAGE)
 72
     4
 11
432.0
 21
257.27661262712559
 31
0.0
  0
LINE
  5
2B5
  8
DRG2
 10
312.0
 20
241.27661262712559
 30
0.0
 11
312.0
 21
337.27661262712559
 31
0.0
  0
LINE
  5
2B6
  8
DRG2
 10
552.0
 20
241.27661262712559
 30
0.0
 11
552.0
 21
337.27661262712559
 31
0.0
  0
LINE
  5
2B7
  8
DRG2
 10
652.0
 20
241.27661262712559
 30
0.0
 11
652.0
 21
337.27661262712559
 31
0.0
  0
LINE
  5
2B8
  8
DRG2
 10
752.0
 20
241.27661262712559
 30
0.0
 11
752.0
 21
337.27661262712559
 31
0.0
  0
TEXT
  5
2B9
  8
TXT
 10
586.76190476190482
 20
252.27661262712559
 30
0.0
 40
10.0
  1
5.50
 72
     4
 11
602.0
 21
257.27661262712559
 31
0.0
  0
TEXT
  5
2BA
  8
TXT
 10
582.47619047619048
 20
284.2766126271257
 30
0.0
 40
10.0
  1
6.11:1
 72
     4
 11
602.0
 21
289.27661262712559
 31
0.0
  0
TEXT
  5
2BB
  8
TXT
 10
383.42857142857139
 20
284.2766126271257
 30
0.0
 40
10.0
  1
EXACT RATIO
 72
     4
 11
432.0
 21
289.27661262712559
 31
0.0
  0
TEXT
  5
2BC
  8
TXT
 10
374.61904761904748
 20
316.27661262712559
 30
0.0
 40
10.0
  1
NOMINAL RATIO
 72
     4
 11
432.0
 21
321.2766126271257
 31
0.0
  0
TEXT
  5
2BD
  8
TXT
 10
686.76190476190482
 20
252.27661262712559
 30
0.0
 40
10.0
  1
7.30
 72
     4
 11
702.0
 21
257.27661262712559
 31
0.0
  0
TEXT
  5
2BE
  8
TXT
 10
682.47619047619048
 20
284.2766126271257
 30
0.0
 40
10.0
  1
8.11:1
 72
     4
 11
702.0
 21
289.27661262712559
 31
0.0
  0
TEXT
  5
2BF
  8
TXT
 10
692.47619047619037
 20
316.27661262712559
 30
0.0
 40
10.0
  1
8:1
 72
     4
 11
702.0
 21
321.2766126271257
 31
0.0
  0
TEXT
  5
2C0
  8
TXT
 10
592.47619047619037
 20
316.27661262712559
 30
0.0
 40
10.0
  1
6:1
 72
     4
 11
602.0
 21
321.2766126271257
 31
0.0
  0
LINE
  5
2C1
  8
DRG2
 10
852.0
 20
241.27661262712559
 30
0.0
 11
852.0
 21
337.27661262712559
 31
0.0
  0
LINE
  5
2C2
  8
DRG2
 10
952.0
 20
241.27661262712559
 30
0.0
 11
952.0
 21
337.27661262712559
 31
0.0
  0
LINE
  5
2C3
  8
DRG2
 10
1052.0
 20
241.27661262712559
 30
0.0
 11
1052.0
 21
337.27661262712559
 31
0.0
  0
LINE
  5
2C4
  8
DRG2
 10
1152.0
 20
241.27661262712559
 30
0.0
 11
1152.0
 21
337.27661262712559
 31
0.0
  0
TEXT
  5
2C5
  8
TXT
 10
876.76190476190482
 20
284.2766126271257
 30
0.0
 40
10.0
  1
12.03:1
 72
     4
 11
902.0
 21
289.27661262712559
 31
0.0
  0
TEXT
  5
2C6
  8
TXT
 10
882.95238095238085
 20
252.27661262712559
 30
0.0
 40
10.0
  1
10.82
 72
     4
 11
902.0
 21
257.27661262712559
 31
0.0
  0
TEXT
  5
2C7
  8
TXT
 10
888.66666666666663
 20
316.27661262712559
 30
0.0
 40
10.0
  1
12:1
 72
     4
 11
902.0
 21
321.2766126271257
 31
0.0
  0
TEXT
  5
2C8
  8
TXT
 10
982.95238095238085
 20
252.27661262712559
 30
0.0
 40
10.0
  1
13.65
 72
     4
 11
1002.0
 21
257.27661262712559
 31
0.0
  0
TEXT
  5
2C9
  8
TXT
 10
977.71428571428567
 20
284.2766126271257
 30
0.0
 40
10.0
  1
15.17:1
 72
     4
 11
1002.0
 21
289.27661262712559
 31
0.0
  0
TEXT
  5
2CA
  8
TXT
 10
988.66666666666663
 20
316.27661262712559
 30
0.0
 40
10.0
  1
15:1
 72
     4
 11
1002.0
 21
321.2766126271257
 31
0.0
  0
TEXT
  5
2CB
  8
TXT
 10
1075.8095238095229
 20
284.2766126271257
 30
0.0
 40
10.0
  1
24.09:1
 72
     4
 11
1102.0
 21
289.27661262712559
 31
0.0
  0
TEXT
  5
2CC
  8
TXT
 10
1082.952380952381
 20
252.27661262712559
 30
0.0
 40
10.0
  1
21.68
 72
     4
 11
1102.0
 21
257.27661262712559
 31
0.0
  0
TEXT
  5
2CD
  8
TXT
 10
1087.952380952381
 20
317.22899357950661
 30
0.0
 40
10.0
  1
24;1
 72
     4
 11
1102.0
 21
321.2766126271257
 31
0.0
  0
ARC
  5
2CE
  8
DRG2
 10
1302.601847758702
 20
1090.8349455354
 30
0.0
 40
12.699999999999999
 50
68.082449402118172
 51
17.988987016490039
  0
CIRCLE
  5
2CF
  8
DRG2
 10
1302.601847758702
 20
1090.8349455354
 30
0.0
 40
11.144249999999991
  0
LINE
  5
2D0
  8
CRS
 10
1224.0784695431689
 20
994.60899055619495
 30
0.0
 11
1188.6784695431729
 21
994.60899055619495
 31
0.0
  0
LINE
  5
2D1
  8
CRS
 10
1206.3784695431709
 20
976.90899055619695
 30
0.0
 11
1206.3784695431709
 21
1012.308990556192
 31
0.0
  0
LINE
  5
2D2
  8
CRS
 10
1224.080291590237
 20
858.52676201936697
 30
0.0
 11
1188.6802915902399
 21
858.52676201936697
 31
0.0
  0
LINE
  5
2D3
  8
CRS
 10
1206.3802915902379
 20
840.82676201936897
 30
0.0
 11
1206.3802915902379
 21
876.22676201936497
 31
0.0
  0
LINE
  5
2D4
  8
CRS
 10
1302.6062465694449
 20
780.00338380383369
 30
0.0
 11
1302.6062465694449
 21
744.60338380383769
 31
0.0
  0
LINE
  5
2D5
  8
CRS
 10
1320.3062465694429
 20
762.30338380383535
 30
0.0
 11
1284.9062465694469
 21
762.30338380383569
 31
0.0
  0
ARC
  5
2D6
  8
DRG2
 10
1206.3784695431709
 20
994.60899055619495
 30
0.0
 40
12.699999999999999
 50
68.082449402118172
 51
17.988987016490039
  0
CIRCLE
  5
2D7
  8
DRG2
 10
1206.3784695431709
 20
994.60899055619495
 30
0.0
 40
11.144249999999991
  0
ARC
  5
2D8
  8
DRG2
 10
1206.3802915902379
 20
858.52676201936686
 30
0.0
 40
12.699999999999999
 50
68.082449402118172
 51
17.988987016490039
  0
CIRCLE
  5
2D9
  8
DRG2
 10
1206.3802915902379
 20
858.52676201936686
 30
0.0
 40
11.144249999999991
  0
ARC
  5
2DA
  8
DRG2
 10
1302.6062465694449
 20
762.30338380383535
 30
0.0
 40
12.699999999999999
 50
68.082449402118172
 51
17.988987016490039
  0
CIRCLE
  5
2DB
  8
DRG2
 10
1302.6062465694449
 20
762.30338380383535
 30
0.0
 40
11.144249999999991
  0
TEXT
  5
2DC
  8
DIM
 10
863.57547592752292
 20
1255.669425395864
 30
0.0
 40
9.9960000000000004
  1

  0
TEXT
  5
2DD
  8
DIM
 10
1478.0544301939351
 20
1558.550076035453
 30
0.0
 40
10.0
  1
(3.74")
 50
90.0
 72
     4
 11
1473.7687159082211
 21
1583.7881712735491
 31
0.0
  0
TEXT
  5
2DE
  8
DIM
 10
1478.0544301939351
 20
1201.352756891856
 30
0.0
 40
10.0
  1
(24.02")
 50
90.0
 72
     4
 11
1473.7687159082211
 21
1231.352756891856
 31
0.0
  0
LINE
  5
2DF
  8
DIM
 10
1210.0938192553319
 20
1092.6223894671241
 30
0.0
 11
1127.393018336058
 21
1092.6223894671241
 31
0.0
  0
TEXT
  5
2E0
  8
DIM
 10
1128.5806995689691
 20
1077.1377740738949
 30
0.0
 40
9.9960000000000004
  1
(%%c16.14")
 50
359.99999999999989
 72
     4
 11
1161.1866995689691
 21
1081.4217740738959
 31
0.0
  0
TEXT
  5
2E1
  8
DIM
 10
1144.764699568969
 20
1098.825004860352
 30
0.0
 40
9.9960000000000004
  1
%%C410
 50
0.0000000000000799
 72
     4
 11
1161.1866995689691
 21
1103.8230048603521
 31
0.0
  0
TEXT
  5
2E2
  8
DIM
 10
1192.6971744296541
 20
531.85030677986686
 30
0.0
 40
9.9960000000000004
  1
(%%c27.76")
 72
     4
 11
1227.2071744296541
 21
536.13430677986685
 31
0.0
  0
TEXT
  5
2E3
  8
DIM
 10
718.28558029735018
 20
954.35779327542116
 30
0.0
 40
9.9960000000000004
  1
(5.91")
 72
     4
 11
742.56158029735025
 21
958.64179327542115
 31
0.0
  0
TEXT
  5
2E4
  8
DIM
 10
721.28016216427773
 20
531.26882015998115
 30
0.0
 40
10.0
  1
(6.28")
 72
     4
 11
746.51825740237291
 21
535.55453444569548
 31
0.0
  0
TEXT
  5
2E5
  8
DIM
 10
847.65011159422625
 20
531.26882015998115
 30
0.0
 40
10.0
  1
(0.20")
 72
     4
 11
872.88820683232143
 21
535.55453444569548
 31
0.0
  0
TEXT
  5
2E6
  8
DIM
 10
555.11246580508282
 20
455.72830055636553
 30
0.0
 40
10.0
  1
(19.02")
 72
     4
 11
584.16008485270174
 21
460.01401484207969
 31
0.0
  0
TEXT
  5
2E7
  8
DIM
 10
166.26200175432569
 20
896.82007569315283
 30
0.0
 40
9.9960000000000004
  1
(%%c8.69")
 50
90.0
 72
     4
 11
161.9780017543257
 21
926.57007569315272
 31
0.0
  0
LINE
  5
2E8
  8
DIM
 10
263.70942537827699
 20
1004.495075693152
 30
0.0
 11
263.70942537827699
 21
1045.614284302573
 31
0.0
  0
TEXT
  5
2E9
  8
DIM
 10
38.618313825697442
 20
698.50794444775511
 30
0.0
 40
9.9960000000000004
  1
ON %%C265 (%%c10.43") P.C.
  0
LINE
  5
2EA
  8
DIM
 10
285.49943048139772
 20
729.38378245093861
 30
0.0
 11
315.61982559809172
 21
729.38378245093918
 31
0.0
  0
TEXT
  5
2EB
  8
DIM
 10
833.62006409558103
 20
1470.7460818947341
 30
0.0
 40
10.0
  1
(2.84")
 72
     4
 11
858.85815933367621
 21
1475.0317961804481
 31
0.0
  0
TEXT
  5
2EC
  8
DIM
 10
586.37037810636662
 20
1611.117287554501
 30
0.0
 40
10.0
  1
(0.47")
 72
     4
 11
611.60847334446169
 21
1615.4030018402159
 31
0.0
  0
TEXT
  5
2ED
  8
DIM
 10
280.80269629606931
 20
1618.6711569693571
 30
0.0
 40
9.9960000000000004
  1
(0.59")
 72
     4
 11
306.03069629606932
 21
1622.9551569693581
 31
0.0
  0
TEXT
  5
2EE
  8
DIM
 10
184.35710861777019
 20
1618.6711569693571
 30
0.0
 40
9.9960000000000004
  1
(0.20")
 72
     4
 11
209.5851086177702
 21
1622.9551569693581
 31
0.0
  0
TEXT
  5
2EF
  8
DIM
 10
663.45157647886595
 20
1668.389953749368
 30
0.0
 40
10.0
  1
(10.56")
 72
     4
 11
692.49919552648487
 21
1672.675668035082
 31
0.0
  0
TEXT
  5
2F0
  8
DIM
 10
236.165967215617
 20
1668.3916680350819
 30
0.0
 40
9.9960000000000004
  1
(7.88")
 72
     4
 11
261.39396721561701
 21
1672.675668035082
 31
0.0
  0
TEXT
  5
2F1
  8
DIM
 10
564.46067491962981
 20
1726.579893519774
 30
0.0
 40
10.0
  1
(18.24")
 72
     4
 11
593.50829396724885
 21
1730.865607805488
 31
0.0
  0
TEXT
  5
2F2
  8
DIM
 10
30.476107699568441
 20
1312.0162865525069
 30
0.0
 40
10.0
  1
G30 & ISO F30 ONLY
  0
LINE
  5
2F3
  8
DIM
 10
224.86108232756499
 20
1334.13467276959
 30
0.0
 11
256.8577551194964
 21
1334.13467276959
 31
0.0
  0
TEXT
  5
2F4
  8
DIM
 10
44.045751037090788
 20
1608.640862330546
 30
0.0
 40
10.0
  1
14x9x80
 72
     4
 11
73.5695605609003
 21
1613.640862330546
 31
0.0
  0
TEXT
  5
2F5
  8
DIM
 10
0.7124177037574667
 20
1592.2122909019749
 30
0.0
 40
10.0
  1
(0.55"x0.35"x3.15")
 72
     4
 11
73.5695605609003
 21
1596.4980051876889
 31
0.0
  0
TEXT
  5
2F6
  8
DIM
 10
60.236227227566957
 20
1574.355148044832
 30
0.0
 40
10.0
  1
KEY
 72
     4
 11
73.5695605609003
 21
1579.355148044832
 31
0.0
  0
LINE
  5
2F7
  8
DIM
 10
167.79325740237161
 20
1603.0461022744189
 30
0.0
 11
167.79325740237161
 21
1638.4698679819251
 31
0.0
  0
LINE
  5
2F8
  8
DIM
 10
162.79325740237161
 20
1601.307453184156
 30
0.0
 11
162.79325740237161
 21
1688.099668035082
 31
0.0
  0
LINE
  5
2F9
  8
DIM
 10
149.03598112294861
 20
1596.4980051876889
 30
0.0
 11
195.31551525814021
 21
1596.4980051876889
 31
0.0
  0
TEXT
  5
2FA
  8
TXT
 10
721.42857142857144
 20
2124.1251049938019
 30
0.0
 40
10.0
  1
EXTENSION
 72
     4
 11
760.0
 21
2129.1251049938019
 31
0.0
  0
TEXT
  5
2FB
  8
TXT
 10
737.142857142857
 20
2145.125104993801
 30
0.0
 40
10.0
  1
SHAFT
 72
     4
 11
760.0
 21
2150.125104993801
 31
0.0
  0
TEXT
  5
2FC
  8
TXT
 10
751.90476190476181
 20
2092.1251049938019
 30
0.0
 40
10.0
  1
90
 72
     4
 11
760.0
 21
2097.1251049938028
 31
0.0
  0
TEXT
  5
2FD
  8
TXT
 10
734.76190476190482
 20
2071.8393907080881
 30
0.0
 40
10.0
  1
(3.54")
 72
     4
 11
760.0
 21
2076.1251049938019
 31
0.0
  0
LINE
  5
2FE
  8
DRG2
 10
330.0
 20
1901.1251049938021
 30
0.0
 11
1500.0
 21
1901.125104993803
 31
0.0
  0
LINE
  5
2FF
  8
DRG2
 10
330.0
 20
1954.125104993803
 30
0.0
 11
1500.0
 21
1954.125104993803
 31
0.0
  0
LINE
  5
300
  8
DRG2
 10
330.0
 20
2007.1251049938021
 30
0.0
 11
1500.0
 21
2007.125104993803
 31
0.0
  0
LINE
  5
301
  8
DRG2
 10
330.0
 20
2007.1251049938021
 30
0.0
 11
1500.0
 21
2007.125104993803
 31
0.0
  0
LINE
  5
302
  8
DRG2
 10
330.0
 20
2113.1251049938019
 30
0.0
 11
1500.0
 21
2113.1251049938028
 31
0.0
  0
LINE
  5
303
  8
DRG2
 10
330.0
 20
2060.1251049938019
 30
0.0
 11
1500.0
 21
2060.1251049938041
 31
0.0
  0
LINE
  5
304
  8
DRG2
 10
330.0
 20
2166.125104993801
 30
0.0
 11
1500.0
 21
2166.1251049938019
 31
0.0
  0
LINE
  5
305
  8
DRG2
 10
330.0
 20
2198.125104993801
 30
0.0
 11
1500.0
 21
2198.1251049938019
 31
0.0
  0
LINE
  5
306
  8
DRG2
 10
330.0
 20
1848.1251049938021
 30
0.0
 11
1500.0
 21
1848.125104993803
 31
0.0
  0
LINE
  5
307
  8
DRG2
 10
330.0
 20
1795.125104993803
 30
0.0
 11
1500.0
 21
1795.125104993803
 31
0.0
  0
LINE
  5
308
  8
DIM
 10
216.74605827575169
 20
2296.2151460557811
 30
0.0
 11
310.74605827575181
 21
2296.2151460557811
 31
0.0
  0
ARC
  5
309
  8
DRG
 10
297.49605827575181
 20
2027.2151460557809
 30
0.0
 40
5.0
 50
270.0
 51
0.0
  0
ARC
  5
30A
  8
DRG
 10
297.49605827575181
 20
1978.2151460557809
 30
0.0
 40
5.0
 50
270.0
 51
0.0
  0
ARC
  5
30B
  8
DRG
 10
297.49605827575181
 20
1956.2151460557809
 30
0.0
 40
5.0
 50
0.0
 51
89.999999999999915
  0
ARC
  5
30C
  8
DRG
 10
297.49605827575181
 20
1907.2151460557809
 30
0.0
 40
5.0
 50
0.0
 51
90.0
  0
LINE
  5
30D
  8
CRS
 10
83.766586497392026
 20
1967.2151460557809
 30
0.0
 11
325.42340893822632
 21
1967.2151460557809
 31
0.0
  0
LINE
  5
30E
  8
DRG
 10
228.74605827575181
 20
2176.2151460557811
 30
0.0
 11
302.49605827575181
 21
2039.715146055782
 31
0.0
  0
LINE
  5
30F
  8
DRG
 10
228.74605827575181
 20
1758.2151460557809
 30
0.0
 11
302.49605827575181
 21
1894.7151460557809
 31
0.0
  0
LINE
  5
310
  8
HID
 10
214.99605827575181
 20
2075.2651460557809
 30
0.0
 11
214.99605827575181
 21
1859.16514605578
 31
0.0
  0
LINE
  5
311
  8
DIM
 10
58.373552003490033
 20
2176.215146055782
 30
0.0
 11
58.373552003490033
 21
1758.215146055782
 31
0.0
  0
LINE
  5
312
  8
DRG
 10
228.74605827575181
 20
2176.2151460557811
 30
0.0
 11
228.74605827575181
 21
1758.215146055782
 31
0.0
  0
LINE
  5
313
  8
DRG
 10
208.74605827575169
 20
2176.2151460557811
 30
0.0
 11
208.74605827575169
 21
1758.2151460557809
 31
0.0
  0
LINE
  5
314
  8
DIM
 10
201.09873307797491
 20
1758.215146055782
 30
0.0
 11
56.373552003490033
 21
1758.215146055782
 31
0.0
  0
SOLID
  5
315
  8
DIM
 10
56.373552003490033
 20
1770.215146055782
 30
0.0
 11
60.373552003490033
 21
1770.215146055782
 31
0.0
 12
58.373552003490033
 22
1758.215146055782
 32
0.0
 13
58.373552003490033
 23
1758.215146055782
 33
0.0
  0
LINE
  5
316
  8
CRS
 10
205.6398343973475
 20
1789.2151460557809
 30
0.0
 11
230.8938837867687
 21
1789.2151460557809
 31
0.0
  0
LINE
  5
317
  8
DRG
 10
208.74605827575169
 20
1758.2151460557809
 30
0.0
 11
228.74605827575181
 21
1758.2151460557809
 31
0.0
  0
LINE
  5
318
  8
HID
 10
208.74605827575309
 20
1777.7151460557809
 30
0.0
 11
228.74605827575309
 21
1777.7151460557809
 31
0.0
  0
LINE
  5
319
  8
HID
 10
208.74605827575169
 20
1859.16514605578
 30
0.0
 11
214.99605827575181
 21
1859.16514605578
 31
0.0
  0
LINE
  5
31A
  8
HID
 10
208.74605827575309
 20
1800.7151460557809
 30
0.0
 11
228.74605827575309
 21
1800.7151460557809
 31
0.0
  0
LINE
  5
31B
  8
DIM
 10
204.17228804144551
 20
2176.2151460557811
 30
0.0
 11
56.373552003490033
 21
2176.215146055782
 31
0.0
  0
TEXT
  5
31C
  8
DIM
 10
74.795552003490016
 20
1931.7531460557821
 30
0.0
 40
9.9960000000000004
  1
SEE TABLE
 50
90.0
 72
     4
 11
69.797552003490011
 21
1971.737146055782
 31
0.0
  0
TEXT
  5
31D
  8
DIM
 10
51.947552003490053
 20
1896.2911460557821
 30
0.0
 40
9.9960000000000004
  1
FOR INPUT OPTIONS
 50
90.0
 72
     4
 11
46.949552003490062
 21
1971.737146055782
 31
0.0
  0
SOLID
  5
31E
  8
DIM
 10
56.373552003490033
 20
2164.2151460557811
 30
0.0
 11
60.373552003490033
 21
2164.2151460557811
 31
0.0
 12
58.373552003490033
 22
2176.215146055782
 32
0.0
 13
58.373552003490033
 23
2176.215146055782
 33
0.0
  0
LINE
  5
31F
  8
DIM
 10
208.74605827575169
 20
2181.0526896070269
 30
0.0
 11
208.74605827575169
 21
2298.2151460557811
 31
0.0
  0
LINE
  5
320
  8
DRG
 10
100.24605827575181
 20
1942.2151460557809
 30
0.0
 11
208.74605827575169
 21
1942.2151460557809
 31
0.0
  0
LINE
  5
321
  8
DRG
 10
100.24605827575181
 20
1992.2151460557809
 30
0.0
 11
208.74605827575169
 21
1992.2151460557809
 31
0.0
  0
LINE
  5
322
  8
DRG
 10
103.74605827575181
 20
1995.615146055781
 30
0.0
 11
203.74605827575181
 21
1995.615146055781
 31
0.0
  0
LINE
  5
323
  8
DIM
 10
115.74605827575181
 20
2055.6151460557821
 30
0.0
 11
169.0035914837122
 21
2055.6151460557821
 31
0.0
  0
TEXT
  5
324
  8
DIM
 10
120.74971765694789
 20
2039.9071460557809
 30
0.0
 40
9.9960000000000004
  1
(0.20")
 72
     4
 11
145.9777176569479
 21
2044.191146055781
 31
0.0
  0
LINE
  5
325
  8
DRG
 10
98.746058275751807
 20
1990.7151460557809
 30
0.0
 11
98.746058275751807
 21
1943.7151460557809
 31
0.0
  0
LINE
  5
326
  8
DRG2
 10
100.24605827575181
 20
1992.2151460557809
 30
0.0
 11
100.24605827575181
 21
1942.2151460557809
 31
0.0
  0
LINE
  5
327
  8
DRG
 10
98.746058275751807
 20
1943.7151460557809
 30
0.0
 11
100.24605827575181
 21
1942.2151460557809
 31
0.0
  0
SOLID
  5
328
  8
DIM
 10
86.746058275751807
 20
2057.6151460557821
 30
0.0
 11
86.746058275751807
 21
2053.6151460557821
 31
0.0
 12
98.746058275751807
 22
2055.6151460557821
 32
0.0
 13
98.746058275751807
 23
2055.6151460557821
 33
0.0
  0
LINE
  5
329
  8
DIM
 10
86.746058275751807
 20
2055.6151460557821
 30
0.0
 11
71.954509813868412
 21
2055.6151460557821
 31
0.0
  0
LINE
  5
32A
  8
DIM
 10
98.746058275751807
 20
1994.5182363169581
 30
0.0
 11
98.746058275751807
 21
2058.682943579201
 31
0.0
  0
LINE
  5
32B
  8
DIM
 10
103.74605827575181
 20
1999.027107519247
 30
0.0
 11
103.74605827575181
 21
2060.9545091540349
 31
0.0
  0
LINE
  5
32C
  8
DRG
 10
103.74605827575181
 20
1995.615146055781
 30
0.0
 11
103.74605827575181
 21
1992.2151460557809
 31
0.0
  0
LINE
  5
32D
  8
DRG
 10
100.24605827575181
 20
1992.2151460557809
 30
0.0
 11
98.746058275751807
 21
1990.7151460557809
 31
0.0
  0
SOLID
  5
32E
  8
DIM
 10
115.74605827575181
 20
2057.6151460557821
 30
0.0
 11
115.74605827575181
 21
2053.6151460557821
 31
0.0
 12
103.74605827575181
 22
2055.6151460557821
 32
0.0
 13
103.74605827575181
 23
2055.6151460557821
 33
0.0
  0
TEXT
  5
32F
  8
DIM
 10
142.64571765694791
 20
2062.0411460557821
 30
0.0
 40
9.9960000000000004
  1
5
 72
     4
 11
145.9777176569479
 21
2067.0391460557812
 31
0.0
  0
LINE
  5
330
  8
DRG
 10
233.74605827575181
 20
2022.2151460557809
 30
0.0
 11
297.49605827575181
 21
2022.2151460557809
 31
0.0
  0
LINE
  5
331
  8
DRG
 10
233.74605827575181
 20
1912.2151460557809
 30
0.0
 11
297.49605827575181
 21
1912.2151460557809
 31
0.0
  0
LINE
  5
332
  8
DRG
 10
233.74605827575181
 20
1961.215146055782
 30
0.0
 11
297.49605827575181
 21
1961.2151460557809
 31
0.0
  0
LINE
  5
333
  8
DRG
 10
233.74605827575181
 20
1973.2151460557809
 30
0.0
 11
297.49605827575181
 21
1973.2151460557809
 31
0.0
  0
ARC
  5
334
  8
DRG
 10
233.74605827575181
 20
1907.2151460557809
 30
0.0
 40
5.0
 50
90.0
 51
180.0
  0
ARC
  5
335
  8
DRG
 10
233.74605827575181
 20
1956.215146055782
 30
0.0
 40
5.0
 50
90.0
 51
180.0
  0
LINE
  5
336
  8
DRG
 10
203.74605827575181
 20
1995.615146055781
 30
0.0
 11
203.74605827575181
 21
1992.2151460557809
 31
0.0
  0
ARC
  5
337
  8
DRG
 10
233.74605827575181
 20
1978.2151460557809
 30
0.0
 40
5.0
 50
180.0
 51
270.0
  0
ARC
  5
338
  8
DRG
 10
233.74605827575181
 20
2027.2151460557809
 30
0.0
 40
5.0
 50
180.0
 51
270.0
  0
SOLID
  5
339
  8
DIM
 10
240.74605827575181
 20
2238.2151460557811
 30
0.0
 11
240.74605827575181
 21
2234.2151460557811
 31
0.0
 12
228.74605827575181
 22
2236.2151460557811
 32
0.0
 13
228.74605827575181
 23
2236.2151460557811
 33
0.0
  0
LINE
  5
33A
  8
CRS
 10
205.6398343973465
 20
2145.2151460557811
 30
0.0
 11
230.89388378676679
 21
2145.2151460557811
 31
0.0
  0
LINE
  5
33B
  8
HID
 10
208.74605827575169
 20
2133.715146055782
 30
0.0
 11
228.74605827575181
 21
2133.715146055782
 31
0.0
  0
LINE
  5
33C
  8
HID
 10
208.74605827575169
 20
2075.2651460557809
 30
0.0
 11
214.99605827575181
 21
2075.2651460557809
 31
0.0
  0
LINE
  5
33D
  8
DRG
 10
208.74605827575169
 20
2176.2151460557811
 30
0.0
 11
228.74605827575181
 21
2176.2151460557811
 31
0.0
  0
LINE
  5
33E
  8
HID
 10
208.74605827575169
 20
2156.7151460557811
 30
0.0
 11
228.74605827575181
 21
2156.7151460557811
 31
0.0
  0
LINE
  5
33F
  8
DIM
 10
196.74605827575169
 20
2236.2151460557811
 30
0.0
 11
184.74605827575181
 21
2236.2151460557811
 31
0.0
  0
SOLID
  5
340
  8
DIM
 10
196.74605827575169
 20
2238.2151460557811
 30
0.0
 11
196.74605827575169
 21
2234.2151460557811
 31
0.0
 12
208.74605827575169
 22
2236.2151460557811
 32
0.0
 13
208.74605827575169
 23
2236.2151460557811
 33
0.0
  0
LINE
  5
341
  8
DIM
 10
228.74605827575181
 20
2181.0526896070269
 30
0.0
 11
228.74605827575181
 21
2238.2151460557811
 31
0.0
  0
LINE
  5
342
  8
DIM
 10
240.74605827575181
 20
2236.2151460557811
 30
0.0
 11
294.2183305187678
 21
2236.2151460557811
 31
0.0
  0
TEXT
  5
343
  8
DIM
 10
242.77435003089121
 20
2220.507146055781
 30
0.0
 40
9.9960000000000004
  1
(0.79")
 72
     4
 11
268.00235003089131
 21
2224.7911460557812
 31
0.0
  0
TEXT
  5
344
  8
DIM
 10
238.51805827575171
 20
2280.507146055781
 30
0.0
 40
9.9960000000000004
  1
(4.33")
 72
     4
 11
263.74605827575181
 21
2284.7911460557812
 31
0.0
  0
SOLID
  5
345
  8
DIM
 10
220.74605827575169
 20
2298.2151460557811
 30
0.0
 11
220.74605827575169
 21
2294.2151460557811
 31
0.0
 12
208.74605827575169
 22
2296.2151460557811
 32
0.0
 13
208.74605827575169
 23
2296.2151460557811
 33
0.0
  0
TEXT
  5
346
  8
DIM
 10
252.7980582757518
 20
2302.6411460557811
 30
0.0
 40
9.9960000000000004
  1
110
 72
     4
 11
263.74605827575181
 21
2307.6391460557811
 31
0.0
  0
TEXT
  5
347
  8
DIM
 10
259.91035003089132
 20
2242.6411460557811
 30
0.0
 40
9.9960000000000004
  1
20
 72
     4
 11
268.00235003089131
 21
2247.6391460557811
 31
0.0
  0
TEXT
  5
348
  8
TXT
 10
568.09523809523807
 20
1880.1251049938021
 30
0.0
 40
10.0
  1
%%c50.00 -0.05
 72
     4
 11
620.0
 21
1885.1251049938021
 31
0.0
  0
LINE
  5
349
  8
DRG2
 10
530.0
 20
1795.125104993803
 30
0.0
 11
530.0
 21
2166.125104993801
 31
0.0
  0
LINE
  5
34A
  8
DRG2
 10
710.0
 20
1795.125104993803
 30
0.0
 11
710.0
 21
2166.1251049938019
 31
0.0
  0
LINE
  5
34B
  8
DRG2
 10
430.0
 20
1795.125104993803
 30
0.0
 11
430.0
 21
2166.125104993801
 31
0.0
  0
LINE
  5
34C
  8
DRG2
 10
330.0
 20
1795.125104993803
 30
0.0
 11
330.0
 21
2198.125104993801
 31
0.0
  0
TEXT
  5
34D
  8
TXT
 10
462.61904761904748
 20
1880.1251049938021
 30
0.0
 40
10.0
  1
%%c350
 72
     4
 11
480.0
 21
1885.1251049938021
 31
0.0
  0
TEXT
  5
34E
  8
TXT
 10
351.1904761904762
 20
1869.6251049938021
 30
0.0
 40
10.0
  1
ISO F30
 72
     4
 11
380.0
 21
1874.6251049938021
 31
0.0
  0
TEXT
  5
34F
  8
TXT
 10
351.90476190476193
 20
1827.1251049938021
 30
0.0
 40
10.0
  1
ROTORK
 72
     4
 11
380.0
 21
1832.1251049938021
 31
0.0
  0
TEXT
  5
350
  8
TXT
 10
366.90476190476193
 20
1806.1251049938021
 30
0.0
 40
10.0
  1
G30
 72
     4
 11
380.0
 21
1811.1251049938021
 31
0.0
  0
TEXT
  5
351
  8
TXT
 10
446.42857142857139
 20
1806.8393907080881
 30
0.0
 40
10.0
  1
(%%c16.46")
 72
     4
 11
480.0
 21
1811.1251049938021
 31
0.0
  0
TEXT
  5
352
  8
TXT
 10
463.5714285714285
 20
1827.1251049938021
 30
0.0
 40
10.0
  1
%%c418
 72
     4
 11
480.0
 21
1832.1251049938021
 31
0.0
  0
TEXT
  5
353
  8
TXT
 10
446.42857142857139
 20
1859.8393907080881
 30
0.0
 40
10.0
  1
(%%c13.78")
 72
     4
 11
480.0
 21
1864.1251049938021
 31
0.0
  0
TEXT
  5
354
  8
TXT
 10
550.71428571428567
 20
1859.8393907080881
 30
0.0
 40
10.0
  1
(%%c1.969" -0.002")
 72
     4
 11
620.0
 21
1864.1251049938021
 31
0.0
  0
TEXT
  5
355
  8
TXT
 10
568.09523809523807
 20
1827.1251049938021
 30
0.0
 40
10.0
  1
%%c50.00 -0.05
 72
     4
 11
620.0
 21
1832.1251049938021
 31
0.0
  0
TEXT
  5
356
  8
TXT
 10
550.71428571428567
 20
1806.8393907080881
 30
0.0
 40
10.0
  1
(%%c1.969" -0.002")
 72
     4
 11
620.0
 21
1811.1251049938021
 31
0.0
  0
LINE
  5
357
  8
DIM
 10
318.74605827575169
 20
2044.5140025909241
 30
0.0
 11
318.74605827575169
 21
2298.2151460557811
 31
0.0
  0
TEXT
  5
358
  8
TXT
 10
352.38095238095241
 20
2081.6251049938019
 30
0.0
 40
10.0
  1
ISO F16
 72
     4
 11
380.0
 21
2086.6251049938028
 31
0.0
  0
TEXT
  5
359
  8
TXT
 10
351.1904761904762
 20
1975.6251049938021
 30
0.0
 40
10.0
  1
ISO F25
 72
     4
 11
380.0
 21
1980.6251049938021
 31
0.0
  0
LINE
  5
35A
  8
DRG
 10
318.74605827575169
 20
2039.7151460557809
 30
0.0
 11
318.74605827575169
 21
1894.7151460557809
 31
0.0
  0
LINE
  5
35B
  8
DRG
 10
302.49605827575181
 20
2039.7151460557809
 30
0.0
 11
302.49605827575181
 21
1894.715146055782
 31
0.0
  0
LINE
  5
35C
  8
DRG
 10
302.49605827575181
 20
1894.7151460557809
 30
0.0
 11
318.74605827575169
 21
1894.7151460557809
 31
0.0
  0
LINE
  5
35D
  8
DRG
 10
302.49605827575181
 20
2039.715146055782
 30
0.0
 11
318.74605827575169
 21
2039.7151460557809
 31
0.0
  0
TEXT
  5
35E
  8
TXT
 10
362.38095238095241
 20
1922.6251049938021
 30
0.0
 40
10.0
  1
FA25
 72
     4
 11
380.0
 21
1927.6251049938021
 31
0.0
  0
TEXT
  5
35F
  8
TXT
 10
363.5714285714285
 20
2028.6251049938021
 30
0.0
 40
10.0
  1
FA16
 72
     4
 11
380.0
 21
2033.6251049938021
 31
0.0
  0
TEXT
  5
360
  8
TXT
 10
450.23809523809518
 20
2018.8393907080881
 30
0.0
 40
10.0
  1
(%%c8.27")
 72
     4
 11
480.0
 21
2023.1251049938021
 31
0.0
  0
TEXT
  5
361
  8
TXT
 10
448.33333333333331
 20
1912.8393907080881
 30
0.0
 40
10.0
  1
(%%c11.81")
 72
     4
 11
480.0
 21
1917.1251049938021
 31
0.0
  0
TEXT
  5
362
  8
TXT
 10
448.33333333333331
 20
1965.8393907080881
 30
0.0
 40
10.0
  1
(%%c11.81")
 72
     4
 11
480.0
 21
1970.1251049938021
 31
0.0
  0
TEXT
  5
363
  8
TXT
 10
462.61904761904748
 20
1933.1251049938021
 30
0.0
 40
10.0
  1
%%c300
 72
     4
 11
480.0
 21
1938.125104993803
 31
0.0
  0
TEXT
  5
364
  8
TXT
 10
462.61904761904748
 20
1986.1251049938021
 30
0.0
 40
10.0
  1
%%c300
 72
     4
 11
480.0
 21
1991.1251049938021
 31
0.0
  0
TEXT
  5
365
  8
TXT
 10
463.5714285714285
 20
2039.1251049938021
 30
0.0
 40
10.0
  1
%%c210
 72
     4
 11
480.0
 21
2044.1251049938021
 31
0.0
  0
TEXT
  5
366
  8
TXT
 10
450.23809523809518
 20
2071.8393907080881
 30
0.0
 40
10.0
  1
(%%c8.27")
 72
     4
 11
480.0
 21
2076.1251049938019
 31
0.0
  0
TEXT
  5
367
  8
TXT
 10
463.5714285714285
 20
2092.1251049938019
 30
0.0
 40
10.0
  1
%%c210
 72
     4
 11
480.0
 21
2097.1251049938028
 31
0.0
  0
TEXT
  5
368
  8
TXT
 10
456.90476190476193
 20
2124.8393907080881
 30
0.0
 40
10.0
  1
O/DIA.
 72
     4
 11
480.0
 21
2129.1251049938019
 31
0.0
  0
TEXT
  5
369
  8
TXT
 10
453.09523809523802
 20
2145.125104993801
 30
0.0
 40
10.0
  1
FLANGE
 72
     4
 11
480.0
 21
2150.125104993801
 31
0.0
  0
SOLID
  5
36A
  8
DIM
 10
306.74605827575181
 20
2298.2151460557811
 30
0.0
 11
306.74605827575181
 21
2294.2151460557811
 31
0.0
 12
318.74605827575169
 22
2296.2151460557811
 32
0.0
 13
318.74605827575169
 23
2296.2151460557811
 33
0.0
  0
TEXT
  5
36B
  8
TXT
 10
550.71428571428567
 20
2071.8393907080881
 30
0.0
 40
10.0
  1
(%%c1.575" -0.002")
 72
     4
 11
620.0
 21
2076.1251049938019
 31
0.0
  0
TEXT
  5
36C
  8
TXT
 10
568.09523809523807
 20
2039.1251049938021
 30
0.0
 40
10.0
  1
%%c40.00 -0.05
 72
     4
 11
620.0
 21
2044.1251049938021
 31
0.0
  0
TEXT
  5
36D
  8
TXT
 10
568.09523809523807
 20
2092.1251049938019
 30
0.0
 40
10.0
  1
%%c40.00 -0.05
 72
     4
 11
620.0
 21
2097.1251049938028
 31
0.0
  0
TEXT
  5
36E
  8
TXT
 10
550.71428571428567
 20
2018.8393907080881
 30
0.0
 40
10.0
  1
(%%c1.575" -0.002")
 72
     4
 11
620.0
 21
2023.1251049938021
 31
0.0
  0
TEXT
  5
36F
  8
TXT
 10
568.09523809523807
 20
1986.1251049938021
 30
0.0
 40
10.0
  1
%%c50.00 -0.05
 72
     4
 11
620.0
 21
1991.1251049938021
 31
0.0
  0
TEXT
  5
370
  8
TXT
 10
550.71428571428567
 20
1965.8393907080881
 30
0.0
 40
10.0
  1
(%%c1.969" -0.002")
 72
     4
 11
620.0
 21
1970.1251049938021
 31
0.0
  0
TEXT
  5
371
  8
TXT
 10
550.71428571428567
 20
1912.8393907080881
 30
0.0
 40
10.0
  1
(%%c1.969" -0.002")
 72
     4
 11
620.0
 21
1917.1251049938021
 31
0.0
  0
TEXT
  5
372
  8
TXT
 10
568.09523809523807
 20
1933.1251049938021
 30
0.0
 40
10.0
  1
%%c50.00 -0.05
 72
     4
 11
620.0
 21
1938.1251049938021
 31
0.0
  0
TEXT
  5
373
  8
TXT
 10
597.14285714285711
 20
2145.125104993801
 30
0.0
 40
10.0
  1
SHAFT
 72
     4
 11
620.0
 21
2150.125104993801
 31
0.0
  0
TEXT
  5
374
  8
TXT
 10
607.38095238095241
 20
2124.1251049938019
 30
0.0
 40
10.0
  1
DIA.
 72
     4
 11
620.0
 21
2129.1251049938019
 31
0.0
  0
TEXT
  5
375
  8
TXT
 10
1148.0952380952381
 20
2145.125104993801
 30
0.0
 40
10.0
  1
HOLE DETAILS
 72
     4
 11
1200.0000000000009
 21
2150.125104993801
 31
0.0
  0
TEXT
  5
376
  8
TXT
 10
1143.3333333333339
 20
2124.8393907080881
 30
0.0
 40
10.0
  1
(OFF CENTRES)
 72
     4
 11
1200.0000000000009
 21
2129.1251049938019
 31
0.0
  0
TEXT
  5
377
  8
TXT
 10
1107.8571428571429
 20
2039.8393907080881
 30
0.0
 40
10.0
  1
4 HOLES %%c20.5 (%%c0.81")
 72
     4
 11
1200.0000000000009
 21
2044.1251049938021
 31
0.0
  0
TEXT
  5
378
  8
TXT
 10
1107.8571428571429
 20
2092.8393907080881
 30
0.0
 40
10.0
  1
4 HOLES %%c20.5 (%%c0.81")
 72
     4
 11
1200.0000000000009
 21
2097.1251049938028
 31
0.0
  0
TEXT
  5
379
  8
TXT
 10
1106.666666666667
 20
2071.8393907080881
 30
0.0
 40
10.0
  1
ON %%c165.0 (%%c6.50") P.C.
 72
     4
 11
1200.0000000000009
 21
2076.1251049938019
 31
0.0
  0
TEXT
  5
37A
  8
TXT
 10
1102.8571428571429
 20
1859.8393907080881
 30
0.0
 40
10.0
  1
ON %%c298.0 (%%c11.73") P.C.
 72
     4
 11
1200.0000000000009
 21
1864.1251049938021
 31
0.0
  0
TEXT
  5
37B
  8
TXT
 10
1107.8571428571429
 20
1880.8393907080881
 30
0.0
 40
10.0
  1
8 HOLES %%c20.5 (%%c0.81")
 72
     4
 11
1200.0000000000009
 21
1885.1251049938021
 31
0.0
  0
TEXT
  5
37C
  8
TXT
 10
1107.8571428571429
 20
1933.8393907080881
 30
0.0
 40
10.0
  1
8 HOLES %%c16.5 (%%c0.65")
 72
     4
 11
1200.0000000000009
 21
1938.1251049938021
 31
0.0
  0
TEXT
  5
37D
  8
TXT
 10
1101.9047619047619
 20
1912.8393907080881
 30
0.0
 40
10.0
  1
ON %%c254.0 (%%c10.00") P.C.
 72
     4
 11
1200.0000000000009
 21
1917.1251049938021
 31
0.0
  0
TEXT
  5
37E
  8
TXT
 10
1101.9047619047619
 20
1965.8393907080881
 30
0.0
 40
10.0
  1
ON %%c254.0 (%%c10.00") P.C.
 72
     4
 11
1200.0000000000009
 21
1970.1251049938021
 31
0.0
  0
TEXT
  5
37F
  8
TXT
 10
1107.8571428571429
 20
1986.8393907080881
 30
0.0
 40
10.0
  1
8 HOLES %%c16.5 (%%c0.65")
 72
     4
 11
1200.0000000000009
 21
1991.1251049938021
 31
0.0
  0
TEXT
  5
380
  8
TXT
 10
1106.666666666667
 20
2018.8393907080881
 30
0.0
 40
10.0
  1
ON %%c165.0 (%%c6.50") P.C.
 72
     4
 11
1200.0000000000009
 21
2023.1251049938021
 31
0.0
  0
TEXT
  5
381
  8
TXT
 10
1101.9047619047619
 20
1806.8393907080881
 30
0.0
 40
10.0
  1
ON %%c356.0 (%%c14.02") P.C.
 72
     4
 11
1200.0000000000009
 21
1811.1251049938021
 31
0.0
  0
TEXT
  5
382
  8
TXT
 10
1107.8571428571429
 20
1827.8393907080881
 30
0.0
 40
10.0
  1
8 HOLES %%c23.0 (%%c0.91")
 72
     4
 11
1200.0000000000009
 21
1832.1251049938021
 31
0.0
  0
TEXT
  5
383
  8
TXT
 10
1031.9047619047619
 20
1880.1251049938021
 30
0.0
 40
10.0
  1
6
 72
     4
 11
1035.0
 21
1885.1251049938021
 31
0.0
  0
TEXT
  5
384
  8
TXT
 10
845.23809523809518
 20
1880.1251049938021
 30
0.0
 40
10.0
  1
%%c230.10 +0.10
 72
     4
 11
900.0
 21
1885.1251049938021
 31
0.0
  0
LINE
  5
385
  8
DRG2
 10
1080.0
 20
1795.125104993803
 30
0.0
 11
1080.0
 21
2166.125104993801
 31
0.0
  0
LINE
  5
386
  8
DRG2
 10
990.00000000000091
 20
1795.125104993803
 30
0.0
 11
990.0
 21
2166.125104993801
 31
0.0
  0
LINE
  5
387
  8
DRG2
 10
810.0
 20
1795.125104993803
 30
0.0
 11
810.0
 21
2166.125104993801
 31
0.0
  0
TEXT
  5
388
  8
TXT
 10
846.19047619047615
 20
1827.1251049938021
 30
0.0
 40
10.0
  1
%%c216.10 +0.10
 72
     4
 11
900.0
 21
1832.1251049938021
 31
0.0
  0
TEXT
  5
389
  8
TXT
 10
823.57142857142856
 20
1859.8393907080881
 30
0.0
 40
10.0
  1
(%%c9.059" +0.004") 
 72
     4
 11
900.0
 21
1864.1251049938021
 31
0.0
  0
TEXT
  5
38A
  8
TXT
 10
823.57142857142856
 20
1806.8393907080881
 30
0.0
 40
10.0
  1
(%%c8.508" +0.004") 
 72
     4
 11
900.0
 21
1811.1251049938021
 31
0.0
  0
TEXT
  5
38B
  8
TXT
 10
1009.761904761904
 20
1859.8393907080881
 30
0.0
 40
10.0
  1
(0.24")
 72
     4
 11
1035.0
 21
1864.1251049938021
 31
0.0
  0
TEXT
  5
38C
  8
TXT
 10
1009.761904761904
 20
1806.8393907080881
 30
0.0
 40
10.0
  1
(0.24")
 72
     4
 11
1035.0
 21
1811.1251049938021
 31
0.0
  0
TEXT
  5
38D
  8
TXT
 10
1031.9047619047619
 20
1827.1251049938021
 30
0.0
 40
10.0
  1
6
 72
     4
 11
1035.0
 21
1832.1251049938021
 31
0.0
  0
TEXT
  5
38E
  8
TXT
 10
827.61904761904748
 20
2177.125104993801
 30
0.0
 40
10.0
  1
INPUT FLANGE DETAILS
 72
     4
 11
915.0
 21
2182.125104993801
 31
0.0
  0
TEXT
  5
38F
  8
TXT
 10
824.52380952380952
 20
2071.8393907080881
 30
0.0
 40
10.0
  1
(%%c5.120" +0.002") 
 72
     4
 11
900.0
 21
2076.1251049938019
 31
0.0
  0
TEXT
  5
390
  8
TXT
 10
844.28571428571433
 20
2039.1251049938021
 30
0.0
 40
10.0
  1
%%c126.92 +0.05
 72
     4
 11
900.0
 21
2044.1251049938021
 31
0.0
  0
TEXT
  5
391
  8
TXT
 10
844.28571428571433
 20
2092.1251049938019
 30
0.0
 40
10.0
  1
%%c130.05 +0.05
 72
     4
 11
900.0
 21
2097.1251049938028
 31
0.0
  0
TEXT
  5
392
  8
TXT
 10
872.85714285714289
 20
2145.125104993801
 30
0.0
 40
10.0
  1
RECESS
 72
     4
 11
900.0
 21
2150.125104993801
 31
0.0
  0
TEXT
  5
393
  8
TXT
 10
845.23809523809518
 20
1933.1251049938021
 30
0.0
 40
10.0
  1
%%c152.37 +0.10
 72
     4
 11
900.0
 21
1938.1251049938021
 31
0.0
  0
TEXT
  5
394
  8
TXT
 10
845.23809523809518
 20
1986.1251049938021
 30
0.0
 40
10.0
  1
%%c200.10 +0.10
 72
     4
 11
900.0
 21
1991.1251049938021
 31
0.0
  0
TEXT
  5
395
  8
TXT
 10
823.57142857142856
 20
1912.8393907080881
 30
0.0
 40
10.0
  1
(%%c5.999" +0.004") 
 72
     4
 11
900.0
 21
1917.1251049938021
 31
0.0
  0
TEXT
  5
396
  8
TXT
 10
823.57142857142856
 20
1965.8393907080881
 30
0.0
 40
10.0
  1
(%%c7.878" +0.004") 
 72
     4
 11
900.0
 21
1970.1251049938021
 31
0.0
  0
TEXT
  5
397
  8
TXT
 10
823.57142857142856
 20
2018.8393907080881
 30
0.0
 40
10.0
  1
(%%c4.997" +0.002") 
 72
     4
 11
900.0
 21
2023.1251049938021
 31
0.0
  0
TEXT
  5
398
  8
TXT
 10
887.38095238095252
 20
2124.1251049938019
 30
0.0
 40
10.0
  1
DIA.
 72
     4
 11
900.0
 21
2129.1251049938019
 31
0.0
  0
TEXT
  5
399
  8
TXT
 10
1009.761904761904
 20
1965.8393907080881
 30
0.0
 40
10.0
  1
(0.20")
 72
     4
 11
1035.0
 21
1970.125104993803
 31
0.0
  0
TEXT
  5
39A
  8
TXT
 10
1009.761904761904
 20
1912.8393907080881
 30
0.0
 40
10.0
  1
(0.20")
 72
     4
 11
1035.0
 21
1917.1251049938021
 31
0.0
  0
TEXT
  5
39B
  8
TXT
 10
1031.6666666666661
 20
1933.1251049938021
 30
0.0
 40
10.0
  1
5
 72
     4
 11
1035.0
 21
1938.1251049938021
 31
0.0
  0
TEXT
  5
39C
  8
TXT
 10
1009.761904761904
 20
2018.8393907080881
 30
0.0
 40
10.0
  1
(0.20")
 72
     4
 11
1035.0
 21
2023.1251049938021
 31
0.0
  0
TEXT
  5
39D
  8
TXT
 10
1031.6666666666661
 20
1986.125104993803
 30
0.0
 40
10.0
  1
5
 72
     4
 11
1035.0
 21
1991.1251049938021
 31
0.0
  0
TEXT
  5
39E
  8
TXT
 10
1031.6666666666661
 20
2039.1251049938021
 30
0.0
 40
10.0
  1
5
 72
     4
 11
1035.0
 21
2044.1251049938021
 31
0.0
  0
TEXT
  5
39F
  8
TXT
 10
1007.857142857143
 20
2145.125104993801
 30
0.0
 40
10.0
  1
RECESS
 72
     4
 11
1035.0
 21
2150.125104993801
 31
0.0
  0
TEXT
  5
3A0
  8
TXT
 10
1009.761904761904
 20
2071.8393907080881
 30
0.0
 40
10.0
  1
(0.20")
 72
     4
 11
1035.0
 21
2076.1251049938019
 31
0.0
  0
TEXT
  5
3A1
  8
TXT
 10
1012.857142857143
 20
2124.1251049938019
 30
0.0
 40
10.0
  1
DEPTH
 72
     4
 11
1035.0
 21
2129.1251049938019
 31
0.0
  0
TEXT
  5
3A2
  8
TXT
 10
1031.6666666666661
 20
2092.1251049938019
 30
0.0
 40
10.0
  1
5
 72
     4
 11
1035.0
 21
2097.1251049938028
 31
0.0
  0
LINE
  5
3A3
  8
DRG2
 10
1500.0
 20
1795.125104993803
 30
0.0
 11
1500.0
 21
2198.1251049938019
 31
0.0
  0
LINE
  5
3A4
  8
DRG2
 10
1320.0000000000009
 20
1795.125104993803
 30
0.0
 11
1320.0000000000009
 21
2166.125104993801
 31
0.0
  0
TEXT
  5
3A5
  8
TXT
 10
1338.0952380952381
 20
2071.8393907080881
 30
0.0
 40
10.0
  1
(0.47"x0.31"x2.17")
 72
     4
 11
1410.0
 21
2076.1251049938019
 31
0.0
  0
TEXT
  5
3A6
  8
TXT
 10
1338.0952380952381
 20
2018.8393907080881
 30
0.0
 40
10.0
  1
(0.47"x0.31"x2.17")
 72
     4
 11
1410.0
 21
2023.1251049938021
 31
0.0
  0
TEXT
  5
3A7
  8
TXT
 10
1337.1428571428571
 20
1965.8393907080881
 30
0.0
 40
10.0
  1
(0.55"x0.35"x3.15")
 72
     4
 11
1410.0
 21
1970.1251049938021
 31
0.0
  0
TEXT
  5
3A8
  8
TXT
 10
1380.4761904761899
 20
2039.1251049938021
 30
0.0
 40
10.0
  1
12x8x55
 72
     4
 11
1410.0
 21
2044.1251049938021
 31
0.0
  0
TEXT
  5
3A9
  8
TXT
 10
1380.4761904761899
 20
1986.1251049938021
 30
0.0
 40
10.0
  1
14x9x80
 72
     4
 11
1410.0
 21
1991.1251049938021
 31
0.0
  0
TEXT
  5
3AA
  8
TXT
 10
1381.6666666666661
 20
2124.1251049938019
 30
0.0
 40
10.0
  1
DETAILS
 72
     4
 11
1410.0
 21
2129.1251049938019
 31
0.0
  0
TEXT
  5
3AB
  8
TXT
 10
1396.6666666666661
 20
2145.125104993801
 30
0.0
 40
10.0
  1
KEY
 72
     4
 11
1410.0
 21
2150.125104993801
 31
0.0
  0
TEXT
  5
3AC
  8
TXT
 10
1380.4761904761899
 20
2092.1251049938019
 30
0.0
 40
10.0
  1
12x8x55
 72
     4
 11
1410.0
 21
2097.1251049938028
 31
0.0
  0
TEXT
  5
3AD
  8
TXT
 10
1085.8634886347661
 20
493.85908585228731
 30
0.0
 40
10.0
  1
BASEPLATE DETAILS
 72
     4
 11
1161.3396791109569
 21
498.85908585228731
 31
0.0
  0
LINE
  5
3AE
  8
DRG2
 10
861.3396791109584
 20
482.85908585228731
 30
0.0
 11
1461.339679110956
 21
482.85908585228731
 31
0.0
  0
LINE
  5
3AF
  8
DRG2
 10
861.3396791109584
 20
450.85908585228742
 30
0.0
 11
1461.339679110956
 21
450.85908585228742
 31
0.0
  0
LINE
  5
3B0
  8
DRG2
 10
861.3396791109584
 20
514.85908585228719
 30
0.0
 11
1461.339679110956
 21
514.85908585228719
 31
0.0
  0
TEXT
  5
3B1
  8
TXT
 10
1173.720631491909
 20
462.57337156657297
 30
0.0
 40
10.0
  1
HOLE DETAILS (22.5%%d OFF CENTRES)
 72
     4
 11
1311.3396791109569
 21
466.85908585228742
 31
0.0
  0
TEXT
  5
3B2
  8
TXT
 10
1192.5301553014331
 20
430.57337156657297
 30
0.0
 40
10.0
  1
8 HOLES M30x40 (1.57") DEEP
 72
     4
 11
1311.3396791109569
 21
434.85908585228719
 31
0.0
  0
LINE
  5
3B3
  8
DRG2
 10
861.3396791109584
 20
397.85908585228719
 30
0.0
 11
1461.339679110956
 21
397.85908585228719
 31
0.0
  0
LINE
  5
3B4
  8
DRG2
 10
861.3396791109584
 20
344.85908585228731
 30
0.0
 11
1461.339679110956
 21
344.85908585228731
 31
0.0
  0
TEXT
  5
3B5
  8
TXT
 10
1184.9111076823849
 20
377.57337156657297
 30
0.0
 40
10.0
  1
8 HOLES 1"UNCx40 (1.57") DEEP
 72
     4
 11
1311.3396791109569
 21
381.85908585228731
 31
0.0
  0
LINE
  5
3B6
  8
DRG2
 10
1161.3396791109581
 20
344.85908585228759
 30
0.0
 11
1161.3396791109581
 21
482.85908585228731
 31
0.0
  0
LINE
  5
3B7
  8
DRG2
 10
961.3396791109584
 20
344.85908585228742
 30
0.0
 11
961.3396791109584
 21
482.85908585228731
 31
0.0
  0
LINE
  5
3B8
  8
DRG2
 10
861.3396791109584
 20
344.85908585228731
 30
0.0
 11
861.3396791109584
 21
514.85908585228719
 31
0.0
  0
TEXT
  5
3B9
  8
TXT
 10
893.72063149191092
 20
366.35908585228731
 30
0.0
 40
10.0
  1
FA35
 72
     4
 11
911.3396791109584
 21
371.35908585228731
 31
0.0
  0
TEXT
  5
3BA
  8
TXT
 10
1005.6253933966721
 20
376.85908585228731
 30
0.0
 40
10.0
  1
%%c215.80 -0.20
 72
     4
 11
1061.3396791109581
 21
381.85908585228731
 31
0.0
  0
TEXT
  5
3BB
  8
TXT
 10
984.91110768238696
 20
356.57337156657297
 30
0.0
 40
10.0
  1
(%%c8.496" -0.008") 
 72
     4
 11
1061.3396791109581
 21
360.85908585228731
 31
0.0
  0
TEXT
  5
3BC
  8
TXT
 10
882.53015530143455
 20
419.35908585228731
 30
0.0
 40
10.0
  1
ISO F35
 72
     4
 11
911.3396791109584
 21
424.35908585228731
 31
0.0
  0
TEXT
  5
3BD
  8
TXT
 10
1018.006345777625
 20
461.85908585228731
 30
0.0
 40
10.0
  1
SPIGOT DIA.
 72
     4
 11
1061.3396791109581
 21
466.85908585228742
 31
0.0
  0
TEXT
  5
3BE
  8
TXT
 10
1004.673012444291
 20
429.85908585228719
 30
0.0
 40
10.0
  1
%%c259.95 -0.05
 72
     4
 11
1061.3396791109581
 21
434.85908585228719
 31
0.0
  0
TEXT
  5
3BF
  8
TXT
 10
981.10158387286344
 20
409.57337156657309
 30
0.0
 40
10.0
  1
(%%c10.234" -0.002") 
 72
     4
 11
1061.3396791109581
 21
413.85908585228731
 31
0.0
  0
LINE
  5
3C0
  8
DRG2
 10
1461.339679110956
 20
344.85908585228788
 30
0.0
 11
1461.339679110956
 21
514.85908585228776
 31
0.0
  0
TEXT
  5
3C1
  8
TXT
 10
1213.2444410157191
 20
356.57337156657297
 30
0.0
 40
10.0
  1
ON %%c355.6 (%%c14.00") P.C.
 72
     4
 11
1311.3396791109569
 21
360.85908585228731
 31
0.0
  0
TEXT
  5
3C2
  8
TXT
 10
1213.2444410157191
 20
409.57337156657309
 30
0.0
 40
10.0
  1
ON %%c356.0 (%%c14.02") P.C.
 72
     4
 11
1311.3396791109569
 21
413.85908585228731
 31
0.0
  0
SOLID
  5
3C3
  8
DIM
 10
1134.366439446607
 20
1179.7485414162979
 30
0.0
 11
1130.612578078501
 21
1178.3670477213991
 31
0.0
 12
1136.633989847249
 22
1167.7962104645319
 32
0.0
 13
1136.633989847249
 23
1167.7962104645319
 33
0.0
  0
TEXT
  5
3C4
  8
DIM
 10
835.5072531642237
 20
1221.2739628953141
 30
0.0
 40
10.0
  1
CENTRES ON %%C650 (%%c25.59") P.C.
  0
TEXT
  5
3C5
  8
DIM
 10
835.5072531642237
 20
1238.416820038171
 30
0.0
 40
10.0
  1
SCREWS EQUALLY SPACED ON
  0
TEXT
  5
3C6
  8
DIM
 10
835.5072531642237
 20
1255.5596771810281
 30
0.0
 40
10.0
  1
8 OFF M16 BASEPLATE SECURING
  0
LINE
  5
3C7
  8
DIM
 10
1132.4895087625539
 20
1179.0577945688481
 30
0.0
 11
1109.027583452576
 21
1242.809670793644
 31
0.0
  0
LINE
  5
3C8
  8
DIM
 10
1098.049322755797
 20
1242.809670793644
 30
0.0
 11
1109.027583452576
 21
1242.809670793644
 31
0.0
  0
TEXT
  5
3C9
  8
BORT
 10
26.80952380952381
 20
498.2766126271257
 30
0.0
 40
10.0
  1
1
 72
     4
 11
28.0
 21
503.2766126271257
 31
0.0
  0
TEXT
  5
3CA
  8
BORT
 10
110.4285714285714
 20
498.2766126271257
 30
0.0
 40
10.0
  1
CN915 JMO 19.6.97
 72
     4
 11
184.0
 21
503.2766126271257
 31
0.0
  0
TEXT
  5
3CB
  8
BORT
 10
24.666666666666661
 20
526.27661262712581
 30
0.0
 40
10.0
  1
2
 72
     4
 11
28.0
 21
531.27661262712581
 31
0.0
  0
LINE
  5
3CC
  8
BORT
 39
3.6000000000000001
 10
56.0
 20
489.2766126271257
 30
0.0
 11
56.0
 21
545.2766126271257
 31
0.0
  0
TEXT
  5
3CD
  8
BORT
 10
106.38095238095229
 20
526.27661262712581
 30
0.0
 40
10.0
  1
CN959 B.T. 20.11.97
 72
     4
 11
184.0
 21
531.27661262712581
 31
0.0
  0
LINE
  5
3CE
  8
BORT
 39
3.6000000000000001
 10
312.0
 20
517.27661262712581
 30
0.0
 11
0.0
 21
517.27661262712581
 31
0.0
  0
LINE
  5
3CF
  8
BORT
 39
3.6000000000000001
 10
312.0
 20
545.2766126271257
 30
0.0
 11
0.0
 21
545.2766126271257
 31
0.0
  0
TEXT
  5
3D0
  8
TXT
 10
1337.1428571428571
 20
1912.8393907080881
 30
0.0
 40
10.0
  1
(0.55"x0.35"x3.15")
 72
     4
 11
1410.0
 21
1917.1251049938021
 31
0.0
  0
TEXT
  5
3D1
  8
TXT
 10
1380.4761904761899
 20
1933.1251049938021
 30
0.0
 40
10.0
  1
14x9x80
 72
     4
 11
1410.0
 21
1938.1251049938021
 31
0.0
  0
TEXT
  5
3D2
  8
TXT
 10
1337.1428571428571
 20
1859.8393907080881
 30
0.0
 40
10.0
  1
(0.55"x0.35"x3.15")
 72
     4
 11
1410.0
 21
1864.1251049938021
 31
0.0
  0
TEXT
  5
3D3
  8
TXT
 10
1380.4761904761899
 20
1880.1251049938021
 30
0.0
 40
10.0
  1
14x9x80
 72
     4
 11
1410.0
 21
1885.1251049938021
 31
0.0
  0
TEXT
  5
3D4
  8
TXT
 10
1337.1428571428571
 20
1806.8393907080881
 30
0.0
 40
10.0
  1
(0.55"x0.35"x3.15")
 72
     4
 11
1410.0
 21
1811.1251049938021
 31
0.0
  0
TEXT
  5
3D5
  8
TXT
 10
1380.4761904761899
 20
1827.1251049938021
 30
0.0
 40
10.0
  1
14x9x80
 72
     4
 11
1410.0
 21
1832.1251049938021
 31
0.0
  0
LINE
  5
3D6
  8
DIM
 10
255.50394654357549
 20
1036.950075693152
 30
0.0
 11
148.5540017543253
 21
1036.950075693152
 31
0.0
  0
LINE
  5
3D7
  8
BORT
 39
3.6000000000000001
 10
312.0
 20
405.27661262712547
 30
0.0
 11
0.0000000000000071
 21
405.27661262712547
 31
0.0
  0
TEXT
  5
3D8
  8
TXT
 10
751.90476190476181
 20
2039.125104993803
 30
0.0
 40
10.0
  1
90
 72
     4
 11
760.0
 21
2044.125104993803
 31
0.0
  0
TEXT
  5
3D9
  8
TXT
 10
734.76190476190482
 20
2018.839390708089
 30
0.0
 40
10.0
  1
(3.54")
 72
     4
 11
760.0
 21
2023.125104993803
 31
0.0
  0
TEXT
  5
3DA
  8
TXT
 10
751.90476190476181
 20
1986.125104993803
 30
0.0
 40
10.0
  1
90
 72
     4
 11
760.0
 21
1991.125104993803
 31
0.0
  0
TEXT
  5
3DB
  8
TXT
 10
734.76190476190482
 20
1965.8393907080881
 30
0.0
 40
10.0
  1
(3.54")
 72
     4
 11
760.0
 21
1970.125104993803
 31
0.0
  0
TEXT
  5
3DC
  8
TXT
 10
751.90476190476181
 20
1933.1251049938021
 30
0.0
 40
10.0
  1
90
 72
     4
 11
760.0
 21
1938.125104993803
 31
0.0
  0
TEXT
  5
3DD
  8
TXT
 10
734.76190476190482
 20
1912.8393907080881
 30
0.0
 40
10.0
  1
(3.54")
 72
     4
 11
760.0
 21
1917.125104993803
 31
0.0
  0
TEXT
  5
3DE
  8
TXT
 10
751.90476190476181
 20
1880.125104993803
 30
0.0
 40
10.0
  1
90
 72
     4
 11
760.0
 21
1885.125104993803
 31
0.0
  0
TEXT
  5
3DF
  8
TXT
 10
734.76190476190482
 20
1859.8393907080881
 30
0.0
 40
10.0
  1
(3.54")
 72
     4
 11
760.0
 21
1864.125104993803
 31
0.0
  0
TEXT
  5
3E0
  8
TXT
 10
751.90476190476181
 20
1827.125104993803
 30
0.0
 40
10.0
  1
90
 72
     4
 11
760.0
 21
1832.125104993803
 31
0.0
  0
TEXT
  5
3E1
  8
TXT
 10
734.76190476190482
 20
1806.839390708089
 30
0.0
 40
10.0
  1
(3.54")
 72
     4
 11
760.0
 21
1811.1251049938021
 31
0.0
  0
INSERT
  5
5D6
  8
0
  2
ROTORK_GEARS_LOGO
 10
-2.0436622484522209
 20
179.91818927775921
 30
0.0
 41
1.4700000000000151
 42
1.4700000000000151
 43
1.4699999999999991
  0
ENDSEC
  0
EOF
