  0
SECTION
  2
HEADER
  9
$ACADVER
  1
AC1009
  9
$INSBASE
 10
0.0
 20
0.0
 30
0.0
  9
$EXTMIN
 10
0.0
 20
0.0
 30
0.0
  9
$EXTMAX
 10
1050.0
 20
1364.4582913068241
 30
2.52
  9
$LIMMIN
 10
0.0
 20
0.0
  9
$LIMMAX
 10
2000.0
 20
1500.0
  9
$ORTHOMODE
 70
     0
  9
$REGENMODE
 70
     1
  9
$FILLMODE
 70
     1
  9
$QTEXTMODE
 70
     0
  9
$MIRRTEXT
 70
     0
  9
$DRAGMODE
 70
     2
  9
$LTSCALE
 40
2.0
  9
$OSMODE
 70
    47
  9
$ATTMODE
 70
     1
  9
$TEXTSIZE
 40
7.0
  9
$TRACEWID
 40
10.0
  9
$TEXTSTYLE
  7
STANDARD
  9
$CLAYER
  8
DIM
  9
$CELTYPE
  6
BYLAYER
  9
$CECOLOR
 62
   256
  9
$DIMSCALE
 40
1.0
  9
$DIMASZ
 40
8.0
  9
$DIMEXO
 40
2.0
  9
$DIMDLI
 40
10.0
  9
$DIMRND
 40
0.0
  9
$DIMDLE
 40
1.25
  9
$DIMEXE
 40
2.0
  9
$DIMTP
 40
0.0
  9
$DIMTM
 40
0.0
  9
$DIMTXT
 40
7.0
  9
$DIMCEN
 40
-3.0
  9
$DIMTSZ
 40
0.0
  9
$DIMTOL
 70
     0
  9
$DIMLIM
 70
     0
  9
$DIMTIH
 70
     0
  9
$DIMTOH
 70
     0
  9
$DIMSE1
 70
     0
  9
$DIMSE2
 70
     0
  9
$DIMTAD
 70
     0
  9
$DIMZIN
 70
     0
  9
$DIMBLK
  1

  9
$DIMASO
 70
     0
  9
$DIMSHO
 70
     0
  9
$DIMPOST
  1

  9
$DIMAPOST
  1

  9
$DIMALT
 70
     0
  9
$DIMALTD
 70
     2
  9
$DIMALTF
 40
0.039
  9
$DIMLFAC
 40
1.0
  9
$DIMTOFL
 70
     0
  9
$DIMTVP
 40
1.1428571428571419
  9
$DIMTIX
 70
     0
  9
$DIMSOXD
 70
     0
  9
$DIMSAH
 70
     0
  9
$DIMBLK1
  1

  9
$DIMBLK2
  1

  9
$DIMSTYLE
  2
STD
  9
$DIMCLRD
 70
   256
  9
$DIMCLRE
 70
   256
  9
$DIMCLRT
 70
   256
  9
$DIMTFAC
 40
1.0
  9
$DIMGAP
 40
1.5
  9
$LUNITS
 70
     2
  9
$LUPREC
 70
     2
  9
$SKETCHINC
 40
1.0
  9
$FILLETRAD
 40
0.0
  9
$AUNITS
 70
     0
  9
$AUPREC
 70
     2
  9
$MENU
  1
ACAD
  9
$ELEVATION
 40
0.0
  9
$PELEVATION
 40
0.0
  9
$THICKNESS
 40
0.0
  9
$LIMCHECK
 70
     0
  9
$BLIPMODE
 70
     0
  9
$CHAMFERA
 40
0.0
  9
$CHAMFERB
 40
0.0
  9
$SKPOLY
 70
     1
  9
$TDCREATE
 40
2449647.616220139
  9
$TDUPDATE
 40
2452817.462281168
  9
$TDINDWG
 40
0.2035392245
  9
$TDUSRTIMER
 40
0.2035392245
  9
$USRTIMER
 70
     1
  9
$ANGBASE
 50
0.0
  9
$ANGDIR
 70
     0
  9
$PDMODE
 70
     3
  9
$PDSIZE
 40
0.0
  9
$PLINEWID
 40
0.0
  9
$COORDS
 70
     1
  9
$SPLFRAME
 70
     0
  9
$SPLINETYPE
 70
     6
  9
$SPLINESEGS
 70
     6
  9
$ATTDIA
 70
     0
  9
$ATTREQ
 70
     1
  9
$HANDLING
 70
  4097
  9
$HANDSEED
  5
750
  9
$SURFTAB1
 70
    18
  9
$SURFTAB2
 70
    18
  9
$SURFTYPE
 70
     6
  9
$SURFU
 70
    18
  9
$SURFV
 70
    18
  9
$UCSNAME
  2

  9
$UCSORG
 10
0.0
 20
0.0
 30
0.0
  9
$UCSXDIR
 10
1.0
 20
0.0
 30
0.0
  9
$UCSYDIR
 10
0.0
 20
1.0
 30
0.0
  9
$PUCSNAME
  2

  9
$PUCSORG
 10
0.0
 20
0.0
 30
0.0
  9
$PUCSXDIR
 10
1.0
 20
0.0
 30
0.0
  9
$PUCSYDIR
 10
0.0
 20
1.0
 30
0.0
  9
$USERI1
 70
     0
  9
$USERI2
 70
     0
  9
$USERI3
 70
     0
  9
$USERI4
 70
     0
  9
$USERI5
 70
     0
  9
$USERR1
 40
0.0
  9
$USERR2
 40
0.0
  9
$USERR3
 40
0.0
  9
$USERR4
 40
0.0
  9
$USERR5
 40
0.0
  9
$WORLDVIEW
 70
     0
  9
$SHADEDGE
 70
     3
  9
$SHADEDIF
 70
    70
  9
$TILEMODE
 70
     1
  9
$MAXACTVP
 70
    16
  9
$PLIMCHECK
 70
     0
  9
$PEXTMIN
 10
1.0000000000000000E+020
 20
1.0000000000000000E+020
 30
1.0000000000000000E+020
  9
$PEXTMAX
 10
-1.0000000000000000E+020
 20
-1.0000000000000000E+020
 30
-1.0000000000000000E+020
  9
$PLIMMIN
 10
0.0
 20
0.0
  9
$PLIMMAX
 10
420.0
 20
297.0
  9
$UNITMODE
 70
     0
  9
$VISRETAIN
 70
     0
  9
$PLINEGEN
 70
     0
  9
$PSLTSCALE
 70
     0
  0
ENDSEC
  0
SECTION
  2
TABLES
  0
TABLE
  2
VPORT
 70
     2
  0
VPORT
  2
*ACTIVE
 70
     0
 10
0.0
 20
0.0
 11
1.0
 21
1.0
 12
-356.31640921792768
 22
-79.407489097640223
 13
0.0
 23
0.0
 14
5.0
 24
5.0
 15
10.0
 25
10.0
 16
0.0
 26
0.0
 36
1.0
 17
1129.192546631105
 27
761.63351525806581
 37
0.0
 40
1374.8063402528719
 41
1.7512195121951211
 42
50.0
 43
0.0
 44
0.0
 50
0.0
 51
0.0
 71
     0
 72
  2000
 73
     1
 74
     2
 75
     0
 76
     0
 77
     0
 78
     1
  0
ENDTAB
  0
TABLE
  2
LTYPE
 70
    13
  0
LTYPE
  2
CONTINUOUS
 70
     0
  3
Solid line
 72
    65
 73
     0
 40
0.0
  0
LTYPE
  2
CENTER
 70
     0
  3
____ _ ____ _ ____ _ ____ _ ____ _ ____ _ ____ 
 72
    65
 73
     4
 40
50.0
 49
31.25
 49
-6.25
 49
6.25
 49
-6.25
  0
LTYPE
  2
HIDDEN
 70
     0
  3
_ _ _ _ _ _ _ _ _ _ _ _ _ _ _ _ _ _ _ _ _ _ _ _
 72
    65
 73
     2
 40
9.375
 49
6.25
 49
-3.125
  0
LTYPE
  2
PHANTOM2
 70
     0
  3
Phantom (.5x) ___ _ _ ___ _ _ ___ _ _ ___ _ _
 72
    65
 73
     6
 40
1.25
 49
0.625
 49
-0.125
 49
0.125
 49
-0.125
 49
0.125
 49
-0.125
  0
LTYPE
  2
ASULTYPE
 70
     0
  3
Solid line
 72
    65
 73
     2
 40
3.0
 49
2.5
 49
0.5
  0
LTYPE
  2
ASVLTYPE
 70
     0
  3
__ __ __ __ __ __ __ __ __ __ __ __ __ __ __ __ __ __ __ __ __
 72
    65
 73
     2
 40
0.75
 49
0.5
 49
-0.25
  0
LTYPE
  2
AM_ISO02W050
 70
     0
  3
__ __ __ __ __ __ __ __ __ __ __ __ __ __ __
 72
    65
 73
     2
 40
7.5
 49
6.0
 49
-1.5
  0
LTYPE
  2
AM_ISO08W050
 70
     0
  3
____ . ____ . ____ . ____ . ____ . ____ . ____
 72
    65
 73
     4
 40
18.0
 49
12.0
 49
-1.5
 49
3.0
 49
-1.5
  0
LTYPE
  2
AM_ISO09W050
 70
     0
  3
_____ . . _____ . . _____ . . ____ .. ____
 72
    65
 73
     6
 40
22.5
 49
12.0
 49
-1.5
 49
3.0
 49
-1.5
 49
3.0
 49
-1.5
  0
LTYPE
  2
AMCONSTR
 70
     0
  3
_______________________
 72
    65
 73
     2
 40
9999.0
 49
9999.0
 49
0.0
  0
LTYPE
  2
AM_ISO08W050X2
 70
     0
  3
__ . __ . __ . __ . __ . __
 72
    65
 73
     4
 40
9.0
 49
6.0
 49
-0.75
 49
1.5
 49
-0.75
  0
LTYPE
  2
AM_ISO02W050X2
 70
     0
  3
 _ _ _ _ _ _ _ _ _ _ _ _
 72
    65
 73
     2
 40
3.75
 49
3.0
 49
-0.75
  0
LTYPE
  2
AMZIGZAG
 70
     0
  3
/\/-/\/-/\/-/\/-/\/-/\/
 72
    65
 73
     2
 40
11.000099999999991
 49
0.0001
 49
-11.0
  0
ENDTAB
  0
TABLE
  2
LAYER
 70
    10
  0
LAYER
  2
0
 70
     0
 62
     7
  6
CONTINUOUS
  0
LAYER
  2
DRG
 70
     0
 62
     1
  6
CONTINUOUS
  0
LAYER
  2
CRS
 70
     0
 62
     3
  6
CENTER
  0
LAYER
  2
HID
 70
     0
 62
     6
  6
HIDDEN
  0
LAYER
  2
BORT
 70
     0
 62
     7
  6
CONTINUOUS
  0
LAYER
  2
TXT
 70
     0
 62
     4
  6
CONTINUOUS
  0
LAYER
  2
DIM
 70
     0
 62
     2
  6
CONTINUOUS
  0
LAYER
  2
DRG2
 70
     0
 62
     8
  6
CONTINUOUS
  0
LAYER
  2
BOR
 70
     0
 62
     1
  6
CONTINUOUS
  0
LAYER
  2
HATCH
 70
     0
 62
     7
  6
CONTINUOUS
  0
ENDTAB
  0
TABLE
  2
STYLE
 70
     2
  0
STYLE
  2
STANDARD
 70
     0
 40
0.0
 41
1.0
 50
0.0
 71
     0
 42
7.0
  3
SIMPLEX
  4

  0
STYLE
  2

 70
     1
 40
0.0
 41
1.0
 50
0.0
 71
     0
 42
7.0
  3
ltypeshp.shx
  4

  0
ENDTAB
  0
TABLE
  2
VIEW
 70
     0
  0
ENDTAB
  0
TABLE
  2
UCS
 70
     0
  0
ENDTAB
  0
TABLE
  2
APPID
 70
    12
  0
APPID
  2
ACAD
 70
     0
  0
APPID
  2
GENIUS_GENDIM_13
 70
     0
  0
APPID
  2
GENIUS_GENDTOL_13
 70
     0
  0
APPID
  2
GENIUS_GE3DTOL_13
 70
     0
  0
APPID
  2
MCAD_NO_VIS
 70
     0
  0
APPID
  2
ACAD_TEMP_GRAPHIC
 70
     0
  0
APPID
  2
AD_DRAW
 70
     0
  0
APPID
  2
ACATTRIBSERVICES
 70
     0
  0
APPID
  2
ASURF_PCURVE_APPNAME
 70
     0
  0
APPID
  2
DESIGNERASSEMBLIES
 70
     0
  0
APPID
  2
ACADM_DIM_EDIT
 70
     0
  0
APPID
  2
CONTENTBLOCKICON
 70
     0
  0
ENDTAB
  0
TABLE
  2
DIMSTYLE
 70
     1
  0
DIMSTYLE
  2
STD
 70
     0
  3

  4

  5

  6

  7

 40
1.0
 41
8.0
 42
2.0
 43
10.0
 44
2.0
 45
0.0
 46
1.25
 47
0.0
 48
0.0
140
7.0
141
-3.0
142
0.0
143
0.039
144
1.0
145
1.1428571428571419
146
1.0
147
1.5
 71
     0
 72
     0
 73
     0
 74
     0
 75
     0
 76
     0
 77
     0
 78
     0
170
     0
171
     2
172
     0
173
     0
174
     0
175
     0
176
   256
177
   256
178
   256
  0
ENDTAB
  0
ENDSEC
  0
SECTION
  2
BLOCKS
  0
BLOCK
  8
0
  2
$MODEL_SPACE
 70
     0
 10
0.0
 20
0.0
 30
0.0
  3
$MODEL_SPACE
  1

  0
ENDBLK
  5
393
  8
0
  0
BLOCK
 67
     1
  8
0
  2
$PAPER_SPACE
 70
     0
 10
0.0
 20
0.0
 30
0.0
  3
$PAPER_SPACE
  1

  0
ENDBLK
  5
391
 67
     1
  8
0
  0
BLOCK
  8
0
  2
*U0
 70
     1
 10
0.0
 20
0.0
 30
0.0
  3
*U0
  1

  0
ENDBLK
  5
449
  8
0
  0
BLOCK
  8
0
  2
LOGO
 70
     0
 10
0.0
 20
0.0
 30
0.0
  3
LOGO
  1

  0
INSERT
  5
474
  8
DRG
  6
CONTINUOUS
 62
     7
  2
*U3
 10
0.0
 20
0.0
 30
0.0
1001
ACAD
1002
{
1000
R14_HATCH_DATA
1000
474
1011
1.0
1021
0.0
1031
0.0
1021
0.0
1031
0.0
1011
0.0
1021
0.0
1031
0.0
1021
1.0
1031
0.0
1011
0.0
1021
0.0
1031
0.0
1021
0.0
1031
1.0
1040
0.0
1010
0.0
1020
0.0
1030
1.0
1000
SOLID
1070
     1
1070
     1
1071
       17
1071
        7
1070
     1
1070
     1
1071
        9
1040
18.821661727211438
1040
85.569427875032716
1040
-0.4142135623730951
1040
26.821661727211438
1040
93.569427875032716
1040
0.0
1040
28.191279411133561
1040
93.56942787503273
1040
0.0
1040
28.191279411133561
1040
102.0369718403326
1040
0.2674368359602434
1040
18.821661727211438
1040
97.915857504065912
1040
0.0
1040
18.821661727211438
1040
102.0369718403326
1040
0.0
1040
7.7802673214059723
1040
102.0369718403326
1040
0.0
1040
7.7802673214059723
1040
62.115696081838671
1040
0.0
1040
18.821661727211438
1040
62.115696081838678
1040
0.0
1071
        9
1005
497
1005
49E
1005
49D
1005
49C
1005
49B
1005
496
1005
486
1005
488
1005
484
1071
        7
1070
     1
1070
     1
1071
        8
1040
29.838142899665851
1040
72.897331735467191
1040
0.4142135623730863
1040
41.838142899665847
1040
60.89733173546756
1040
0.0
1040
47.650196927116667
1040
60.89733173546756
1040
0.4142126981028046
1040
59.650196927064421
1040
72.897296325816569
1040
0.0348233422700972
1040
59.650196927064421
1040
90.096337111694368
1040
0.4142126981028142
1040
47.650196927116667
1040
102.0963017020437
1040
0.0
1040
41.838142899665847
1040
102.0963017020437
1040
0.4142135623730893
1040
29.838142899665851
1040
90.096301702044016
1040
0.0348231985322414
1071
        8
1005
478
1005
49F
1005
49A
1005
499
1005
485
1005
495
1005
477
1005
4D6
1071
       22
1070
     1
1070
     1
1071
        4
1040
40.882971825549703
1040
90.337990088334166
1040
-1.0
1040
48.605370470334492
1040
90.337990088334735
1040
-0.0248818291691539
1040
48.605370470334492
1040
72.655643349175492
1040
-1.0
1040
40.882971825549703
1040
72.655643349177595
1040
-0.0248818291691501
1071
        4
1005
47A
1005
4D5
1005
479
1005
498
1071
        7
1070
     1
1070
     1
1071
       18
1040
67.331191210151701
1040
68.89733173546756
1040
0.4142135623730951
1040
75.331191210151701
1040
60.89733173546756
1040
0.0
1040
80.675802928262684
1040
60.89733173546756
1040
0.1450058980834471
1040
84.501142256151084
1040
62.072518178885289
1040
0.0
1040
84.501142256151084
1040
70.214764581409185
1040
-0.0833071563303517
1040
83.501142256151255
1040
69.876055965300111
1040
0.0
1040
80.482556033578916
1040
69.876055965300111
1040
-0.4142135623730951
1040
77.482556033578931
1040
72.876055965300111
1040
0.0
1040
77.482556033578931
1040
94.593352860836134
1040
0.0
1040
84.553623006881026
1040
94.593352860836134
1040
0.0
1040
84.553623006881026
1040
101.9948050433795
1040
0.0
1040
77.482556033578931
1040
101.9948050433795
1040
0.0
1040
77.482556033578931
1040
107.1280725498991
1040
0.0
1040
67.331191210151701
1040
107.1280725498991
1040
0.0
1040
67.331191210151701
1040
101.9948050433795
1040
0.0
1040
62.478989637268562
1040
101.9948050433795
1040
0.0
1040
62.478989637268569
1040
94.593352860836134
1040
0.0
1040
67.331191210151687
1040
94.593352860836134
1040
0.0
1071
       18
1005
4D3
1005
4E7
1005
4D4
1005
4DF
1005
4DD
1005
4DE
1005
4DA
1005
4DC
1005
4DB
1005
4D7
1005
4A9
1005
4BD
1005
4AC
1005
4AA
1005
4E4
1005
4D2
1005
4D9
1005
4D8
1071
        7
1070
     1
1070
     1
1071
        8
1040
85.849782736700035
1040
72.897331735467475
1040
0.4142135623730931
1040
97.849782736700035
1040
60.89733173546756
1040
0.0
1040
103.66183676415081
1040
60.89733173546756
1040
0.4142126981028048
1040
115.6618367640986
1040
72.897296325816569
1040
0.0348233422700971
1040
115.6618367640986
1040
90.096337111694325
1040
0.4142126981028151
1040
103.66183676415081
1040
102.0963017020437
1040
0.0
1040
97.849782736700035
1040
102.0963017020437
1040
0.4142135623730893
1040
85.849782736700035
1040
90.096301702044016
1040
0.0348231985322409
1071
        8
1005
4A8
1005
4E8
1005
4E6
1005
4E2
1005
4AB
1005
4D1
1005
4A7
1005
50F
1071
       22
1070
     1
1070
     1
1071
        4
1040
96.894611662583884
1040
90.337990088335033
1040
-1.0
1040
104.6170103073686
1040
90.337990088334763
1040
-0.0248818291691539
1040
104.6170103073686
1040
72.655643349175506
1040
-1.0
1040
96.894611662583884
1040
72.655643349177595
1040
-0.0248818291691514
1071
        4
1005
4E5
1005
4E0
1005
4E3
1005
4E1
1071
        7
1070
     1
1070
     1
1071
        9
1040
119.0096173095521
1040
62.115696081838678
1040
0.0
1040
130.05101171535759
1040
62.115696081838671
1040
0.0
1040
130.05101171535759
1040
85.569427875032716
1040
-0.4142135623730946
1040
138.05101171535759
1040
93.569427875032716
1040
0.0
1040
139.4206293992797
1040
93.56942787503273
1040
0.0
1040
139.4206293992797
1040
102.0369718403325
1040
0.2674368359602435
1040
130.05101171535759
1040
97.915857504065855
1040
0.0
1040
130.05101171535759
1040
102.0369718403326
1040
0.0
1040
119.0096173095521
1040
102.0369718403326
1040
0.0
1071
        9
1005
50E
1005
514
1005
513
1005
510
1005
512
1005
511
1005
4EA
1005
4F9
1005
4E9
1071
        7
1070
     0
1070
     1
1071
        4
1040
153.2899770207527
1040
102.0369718403326
1040
142.11987082690661
1040
102.0369718403326
1040
142.11987082690661
1040
62.115696081838678
1040
153.2899770207527
1040
62.115696081838678
1071
        4
1005
50D
1005
4EE
1005
4F2
1005
4ED
1071
        7
1070
     0
1070
     1
1071
        9
1040
161.3332883364622
1040
62.115696081838678
1040
171.78072804963571
1040
62.115696081838678
1040
165.4162645291251
1040
78.311404477182364
1040
176.9709164189357
1040
78.31140447718235
1040
176.9709164189357
1040
86.855763084496857
1040
165.4162645291251
1040
86.855763084496886
1040
171.38205787173379
1040
102.0369718403326
1040
160.9346181585602
1040
102.0369718403326
1040
153.2899770207527
1040
82.583583780839575
1071
        9
1005
51A
1005
519
1005
518
1005
515
1005
4EC
1005
508
1005
4EB
1005
517
1005
516
1071
        7
1070
     1
1070
     1
1071
       21
1040
152.52515784094209
1040
47.648154099737518
1040
-0.8501159182110916
1040
160.04745823702251
1040
46.421288526219293
1040
0.0
1040
160.04745823702251
1040
45.21828747592599
1040
0.0
1040
171.0912486890569
1040
45.21828747592599
1040
0.4103700463812956
1040
159.0922846938046
1040
57.06060729124669
1040
0.0
1040
153.28023066635379
1040
57.06060729124669
1040
0.3231315706904765
1040
141.8917942032017
1040
48.84260609145101
1040
0.1954153765693974
1040
142.3184035466634
1040
43.115005509834923
1040
0.2113556324406552
1040
155.72873071743231
1040
33.145354604103439
1040
-0.2264685134690167
1040
160.04745823702251
1040
29.300230626583549
1040
0.0
1040
160.04745823702251
1040
27.619948938379359
1040
-1.0
1040
152.32505959223769
1040
27.619948938379359
1040
0.0
1040
152.32505959223769
1040
29.959298931438969
1040
0.0
1040
141.28023066635379
1040
29.95929893143898
1040
0.0
1040
141.28023066635379
1040
27.861637324670479
1040
0.4142135623730951
1040
153.28023066635379
1040
15.861637324670481
1040
0.0
1040
159.0922846938046
1040
15.861637324670481
1040
0.4142135623730951
1040
171.0922846938046
1040
27.861637324670479
1040
0.0
1040
171.0922846938046
1040
29.95929893143904
1040
0.3201720163042325
1040
161.4128172083947
1040
39.98989916707626
1040
-0.1549843570040388
1040
153.4809683549079
1040
44.585756161105429
1040
-0.2969707756967668
1071
       21
1005
509
1005
50B
1005
506
1005
507
1005
50C
1005
4F1
1005
4FE
1005
4EF
1005
504
1005
501
1005
503
1005
502
1005
4F0
1005
4F6
1005
4A1
1005
4A5
1005
4A2
1005
505
1005
500
1005
4FF
1005
50A
1071
        7
1070
     1
1070
     1
1071
        9
1040
116.19314081319391
1040
17.28637227261407
1040
0.0
1040
127.2345352189994
1040
17.28637227261407
1040
0.0
1040
127.2345352189994
1040
40.740104065808097
1040
-0.4142135623730953
1040
135.23453521899941
1040
48.740104065808111
1040
0.0
1040
136.6041529029215
1040
48.740104065808111
1040
0.0
1040
136.6041529029215
1040
57.207648031108022
1040
0.2674368359602446
1040
127.2345352189994
1040
53.086533694841222
1040
0.0
1040
127.2345352189994
1040
57.207648031108022
1040
0.0
1040
116.19314081319391
1040
57.207648031108022
1040
0.0
1071
        9
1005
4F7
1005
4FB
1005
4FA
1005
4F4
1005
4F5
1005
4F3
1005
4F8
1005
4FD
1005
4FC
1071
        7
1070
     1
1070
     1
1071
       18
1040
111.2523129779601
1040
45.06060729124669
1040
0.4142135623730951
1040
99.252312977960173
1040
57.06060729124669
1040
0.0
1040
93.440258950509346
1040
57.06060729124669
1040
0.3935971290544443
1040
81.470405744524527
1040
45.910674481046733
1040
0.0
1040
92.485087876393209
1040
45.910674481046733
1040
0.0
1040
92.485087876393209
1040
47.313129977668268
1040
-1.0
1040
100.2074865211779
1040
47.313129977668268
1040
0.0
1040
100.207486521178
1040
42.948196427274922
1040
0.0
1040
93.358174068518778
1040
42.948196427274922
1040
0.3803366342075343
1040
81.440258950509346
1040
32.349374231810209
1040
0.0
1040
81.440258950509346
1040
27.861637324670479
1040
0.212203934851876
1040
85.398663329684837
1040
18.95474449545469
1040
0.2715779457989354
1040
94.991749269489972
1040
17.839408458597308
1040
0.2212147422997974
1040
102.1211660476033
1040
23.542010892025001
1040
0.0
1040
102.1211660476033
1040
21.102600968374279
1040
0.048558820350044
1040
102.6710305977499
1040
17.89352120355198
1040
0.0
1040
111.8021775281067
1040
17.893521203552009
1040
-0.0850534761391249
1040
111.2523129779601
1040
23.54201089202471
1040
0.0
1071
       18
1005
4A6
1005
4CD
1005
4AF
1005
4CE
1005
4CF
1005
4CC
1005
4D0
1005
4CB
1005
4AD
1005
4C3
1005
4AE
1005
4A0
1005
4BF
1005
4C7
1005
4C6
1005
4C5
1005
4C8
1005
4BE
1071
       22
1070
     1
1070
     1
1071
        6
1040
101.5095597489034
1040
37.384730871555568
1040
0.0
1040
101.5095597489034
1040
29.984856014372749
1040
-0.4101584254678068
1040
95.863486513980718
1040
23.758749615986972
1040
-0.4142135623730822
1040
92.002287191588479
1040
27.619948938379359
1040
0.0
1040
92.002287191588479
1040
33.041326503689838
1040
-0.3592987923427892
1040
97.969021393668683
1040
37.384730871555568
1040
0.0
1071
        6
1005
4C9
1005
4C1
1005
4C4
1005
4C2
1005
4C0
1005
4CA
1071
        7
1070
     1
1070
     1
1071
       14
1040
74.280536421539182
1040
35.629722934820848
1040
0.0
1040
74.280536421539182
1040
45.06060729124669
1040
0.4142135623730951
1040
62.280536421539182
1040
57.06060729124669
1040
0.0
1040
56.468482394088369
1040
57.06060729124669
1040
0.4142135623730892
1040
44.468482394088362
1040
45.060607291246939
1040
0.0348231985322411
1040
44.468482394088362
1040
27.861637324670291
1040
0.4142135623730907
1040
56.468482394088369
1040
15.861637324670481
1040
0.0
1040
62.280536421539182
1040
15.861637324670481
1040
0.4142135623730951
1040
74.280536421539182
1040
27.861637324670479
1040
0.0
1040
74.280536421539196
1040
30.816887788353831
1040
0.0
1040
63.235709964757
1040
30.81688778835381
1040
0.0
1040
63.235709964757007
1040
27.61994893837937
1040
-1.0
1040
55.513311319972217
1040
27.61994893837937
1040
0.0
1040
55.513311319972232
1040
35.629722934820848
1040
0.0
1071
       14
1005
4B7
1005
4BC
1005
476
1005
48A
1005
475
1005
4A4
1005
4A3
1005
4B6
1005
4B1
1005
4B3
1005
4B5
1005
4B4
1005
4B2
1005
4B0
1071
       22
1070
     1
1070
     1
1071
        4
1040
63.235709964756971
1040
41.923431282527652
1040
0.0
1040
55.51331131997221
1040
41.923431282527638
1040
0.0
1040
55.513311319972217
1040
46.690614073903141
1040
-1.0
1040
63.235709964757007
1040
46.690614073903127
1040
0.0
1071
        4
1005
4B8
1005
4BA
1005
4B9
1005
4BB
1071
        7
1070
     1
1070
     1
1071
       15
1040
37.639779947293832
1040
57.06060729124669
1040
0.0
1040
27.267121908897028
1040
57.06060729124669
1040
0.0
1040
27.267121908897021
1040
51.255838552818979
1040
0.3392741364964821
1040
18.58303542025671
1040
58.127888502333931
1040
0.3975671648689696
1040
7.030577403887583
1040
46.170226698962978
1040
0.0322586733839356
1040
7.0565934473582743
1040
30.23514359210488
1040
0.381674351628262
1040
18.58303542025671
1040
18.945146626805109
1040
0.3392741364964824
1040
27.267121908897021
1040
25.817196576320061
1040
0.0
1040
27.267121908897021
1040
13.51984597021351
1040
-1.0
1040
19.544723264112228
1040
13.51984597021351
1040
0.0
1040
19.544723264112239
1040
14.846027306936771
1040
0.0
1040
7.7279273094568479
1040
14.846027306936771
1040
0.435111756420548
1040
18.100585347853119
1040
3.392610111620797
1040
0.0
1040
25.69916102541525
1040
3.392610111620797
1040
0.3589835117613411
1040
37.639779947293839
1040
13.760967175618781
1040
0.0
1071
       15
1005
490
1005
494
1005
493
1005
487
1005
489
1005
47B
1005
48F
1005
47C
1005
482
1005
483
1005
47E
1005
47F
1005
481
1005
480
1005
47D
1071
       22
1070
     1
1070
     1
1071
        6
1040
27.387732575171409
1040
32.086434320449378
1040
-0.3635850888704513
1040
22.683854862926161
1040
25.455509253088579
1040
-0.4081657147783189
1040
17.256300807526252
1040
30.5191262631974
1040
0.0
1040
17.256300807526252
1040
46.312783983787632
1040
-0.4081657147783226
1040
22.683854862926282
1040
51.376400993896397
1040
-0.3635850888704468
1040
27.387732575171409
1040
44.745475926535612
1040
0.0
1071
        6
1005
48E
1005
48D
1005
48C
1005
491
1005
492
1005
48B
1070
     0
1070
     1
1040
0.2228598800114194
1071
       17
1040
17.63743802729277
1040
76.626905651017751
1040
0.0
1040
33.91754890401171
1040
77.741205688022092
1040
0.0
1040
33.91754890401171
1040
77.741205688022092
1040
0.0
1040
69.153945982282949
1040
79.301225382558854
1040
0.0
1040
91.455465417142008
1040
80.861243290751887
1040
0.0
1040
91.455465417142008
1040
80.861243290751887
1040
0.0
1040
120.67045393727309
1040
80.861243290751887
1040
0.0
1040
151.44655150816561
1040
79.746945040091759
1040
0.0
1040
157.69097519808881
1040
82.198402263350317
1040
0.0
1040
149.43941532211869
1040
47.209401108474808
1040
0.0
1040
122.2315629880345
1040
49.21514046054449
1040
0.0
1040
107.73557316557979
1040
43.19792419067948
1040
0.0
1040
107.73557316557979
1040
43.19792419067948
1040
0.0
1040
69.376961114066034
1040
40.30074552354403
1040
0.0
1040
69.376961114066034
1040
40.30074552354403
1040
0.0
1040
30.572318798986078
1040
42.306483089269697
1040
0.0
1040
30.572318798986078
1040
42.306483089269697
1040
0.0
1002
}
  0
ARC
  5
475
  8
DRG
 62
     7
 10
56.468482394088369
 20
27.861637324670479
 30
0.0
 40
12.0
 50
180.0
 51
270.0
  0
ARC
  5
476
  8
DRG
 62
     7
 10
56.468482394088369
 20
45.06060729124669
 30
0.0
 40
12.0
 50
90.0
 51
180.0
  0
ARC
  5
477
  8
DRG
 62
     7
 10
47.650196927116667
 20
72.89733173546756
 30
0.0
 40
12.0
 50
270.0
 51
0.0
  0
ARC
  5
478
  8
DRG
 62
     7
 10
47.650196927116667
 20
90.096301702043775
 30
0.0
 40
12.0
 50
0.0
 51
90.0
  0
ARC
  5
479
  8
DRG
 62
     7
 10
44.74417114794209
 20
72.655643349176444
 30
0.0
 40
3.8611993223923942
 50
180.0
 51
0.0
  0
ARC
  5
47A
  8
DRG
 62
     7
 10
44.74417114794209
 20
90.337990088334877
 30
0.0
 40
3.8611993223923942
 50
0.0
 51
180.0
  0
ARC
  5
47B
  8
DRG
 62
     7
 10
19.137584483414571
 20
31.0402274344309
 30
0.0
 40
12.107786932649869
 50
183.81258486583951
 51
267.37487616930952
  0
LINE
  5
47C
  8
DRG
 62
     7
 10
27.267121908897021
 20
13.51984597021351
 30
0.0
 11
27.267121908897021
 21
25.817196576319979
 31
0.0
  0
LINE
  5
47D
  8
DRG
 62
     7
 10
37.639779947293839
 20
13.760967175618591
 30
0.0
 11
37.639779947293839
 21
57.06060729124669
 31
0.0
  0
LINE
  5
47E
  8
DRG
 62
     7
 10
7.7279273094568453
 20
14.846027306936771
 30
0.0
 11
19.544723264112228
 21
14.846027306936771
 31
0.0
  0
ARC
  5
47F
  8
DRG
 62
     7
 10
18.249110221157022
 20
13.95076893658401
 30
0.0
 40
10.559203445863639
 50
175.13635846835899
 51
269.19405577571678
  0
ARC
  5
480
  8
DRG
 62
     7
 10
25.379351800633462
 20
15.82074347040526
 30
0.0
 40
12.432247452652581
 50
271.47404887186468
 51
350.4632534986161
  0
LINE
  5
481
  8
DRG
 62
     7
 10
18.100585347854121
 20
3.392610111620797
 30
0.0
 11
25.699161025414639
 21
3.392610111620797
 31
0.0
  0
ARC
  5
482
  8
DRG
 62
     7
 10
23.40592258650463
 20
13.51984597021351
 30
0.0
 40
3.8611993223923942
 50
180.0
 51
0.0
  0
LINE
  5
483
  8
DRG
 62
     7
 10
19.544723264112228
 20
13.51984597021351
 30
0.0
 11
19.544723264112228
 21
14.846027306936771
 31
0.0
  0
LINE
  5
484
  8
DRG
 62
     7
 10
18.821661727211438
 20
62.115696081838678
 30
0.0
 11
18.821661727211438
 21
85.569427875032716
 31
0.0
  0
ARC
  5
485
  8
DRG
 62
     7
 10
41.838142899665847
 20
72.89733173546756
 30
0.0
 40
12.0
 50
180.0
 51
270.0
  0
LINE
  5
486
  8
DRG
 62
     7
 10
7.7802673214059723
 20
102.0369718403326
 30
0.0
 11
7.7802673214059723
 21
62.115696081838678
 31
0.0
  0
ARC
  5
487
  8
DRG
 62
     7
 10
19.137584483414571
 20
46.032807694708133
 30
0.0
 40
12.107786932649869
 50
92.625123830690427
 51
179.34969965531249
  0
LINE
  5
488
  8
DRG
 62
     7
 10
7.7802673214059723
 20
62.115696081838678
 30
0.0
 11
18.821661727211438
 21
62.115696081838678
 31
0.0
  0
ARC
  5
489
  8
DRG
 62
     7
 10
130.4096373956734
 20
38.404095866101891
 30
0.0
 40
123.62323904739679
 50
176.39825231050591
 51
183.7888327716102
  0
ARC
  5
48A
  8
DRG
 62
     7
 10
167.7922598686371
 20
36.46112230795859
 30
0.0
 40
123.62323904739679
 50
176.01116722839041
 51
183.98883277160959
  0
LINE
  5
48B
  8
DRG
 62
     7
 10
27.387732575171409
 20
32.086434320449371
 30
0.0
 11
27.387732575171409
 21
44.745475926535619
 31
0.0
  0
LINE
  5
48C
  8
DRG
 62
     7
 10
17.256300807526252
 20
30.519126263197901
 30
0.0
 11
17.256300807526252
 21
46.312783983787199
 31
0.0
  0
ARC
  5
48D
  8
DRG
 62
     7
 10
22.554825927420261
 20
30.757839296791811
 30
0.0
 40
5.3038997311936118
 50
182.57958705316651
 51
271.39398239048438
  0
ARC
  5
48E
  8
DRG
 62
     7
 10
21.079116203706629
 20
31.577778829510549
 30
0.0
 40
6.3290892655085571
 50
284.68766481341447
 51
4.6097118352224014
  0
ARC
  5
48F
  8
DRG
 62
     7
 10
18.444167318675341
 20
28.04361904615444
 30
0.0
 40
9.0995321151857773
 50
270.87442572940842
 51
345.83740798549388
  0
LINE
  5
490
  8
DRG
 62
     7
 10
37.639779947293839
 20
57.06060729124669
 30
0.0
 11
27.267121908897021
 21
57.06060729124669
 31
0.0
  0
ARC
  5
491
  8
DRG
 62
     7
 10
22.554825927420261
 20
46.074070950193168
 30
0.0
 40
5.3038997311936118
 50
88.606017609515575
 51
177.42041294683341
  0
ARC
  5
492
  8
DRG
 62
     7
 10
21.079116203706629
 20
45.254131417474468
 30
0.0
 40
6.3290892655085571
 50
355.39028816477759
 51
75.312335186585557
  0
ARC
  5
493
  8
DRG
 62
     7
 10
18.444167318675341
 20
49.029416082984589
 30
0.0
 40
9.0995321151857773
 50
14.16259201450603
 51
89.125574270591571
  0
LINE
  5
494
  8
DRG
 62
     7
 10
27.267121908897021
 20
51.255838552819107
 30
0.0
 11
27.267121908897021
 21
57.06060729124669
 31
0.0
  0
LINE
  5
495
  8
DRG
 62
     7
 10
41.838142899665847
 20
60.89733173546756
 30
0.0
 11
47.650196927116667
 21
60.89733173546756
 31
0.0
  0
LINE
  5
496
  8
DRG
 62
     7
 10
7.7802673214059723
 20
102.0369718403326
 30
0.0
 11
18.821661727211438
 21
102.0369718403326
 31
0.0
  0
ARC
  5
497
  8
DRG
 62
     7
 10
26.821661727211438
 20
85.569427875032716
 30
0.0
 40
8.0
 50
90.0
 51
180.0
  0
ARC
  5
498
  8
DRG
 62
     7
 10
218.4362314981995
 20
81.496816718755667
 30
0.0
 40
177.77324423808651
 50
177.14934059322539
 51
182.85065940677461
  0
ARC
  5
499
  8
DRG
 62
     7
 10
153.16192037421459
 20
81.496816718755667
 30
0.0
 40
123.62323904739679
 50
176.01116722839041
 51
183.98883277160959
  0
ARC
  5
49A
  8
DRG
 62
     7
 10
41.838142899665847
 20
90.096301702043775
 30
0.0
 40
12.0
 50
90.0
 51
180.0
  0
LINE
  5
49B
  8
DRG
 62
     7
 10
18.821661727211438
 20
97.915857504065912
 30
0.0
 11
18.821661727211438
 21
102.0369718403326
 31
0.0
  0
ARC
  5
49C
  8
DRG
 62
     7
 10
27.083354510939952
 20
91.844139685506846
 30
0.0
 40
10.2528691067876
 50
83.7965056449153
 51
143.68693404466879
  0
LINE
  5
49D
  8
DRG
 62
     7
 10
28.191279411133561
 20
102.0369718403326
 30
0.0
 11
28.191279411133561
 21
93.569427875032716
 31
0.0
  0
LINE
  5
49E
  8
DRG
 62
     7
 10
28.191279411133561
 20
93.569427875032716
 30
0.0
 11
26.821661727211438
 21
93.569427875032716
 31
0.0
  0
LINE
  5
49F
  8
DRG
 62
     7
 10
41.838142899665847
 20
102.0963017020437
 30
0.0
 11
47.650196927116667
 21
102.0963017020437
 31
0.0
  0
ARC
  5
4A0
  8
DRG
 62
     7
 10
91.146199293645054
 20
26.576636016635941
 30
0.0
 40
9.5460672539884595
 50
232.98068850611
 51
293.75592135571679
  0
ARC
  5
4A1
  8
DRG
 62
     7
 10
153.28023066635379
 20
27.861637324670479
 30
0.0
 40
12.0
 50
180.0
 51
270.0
  0
ARC
  5
4A2
  8
DRG
 62
     7
 10
159.0922846938046
 20
27.861637324670479
 30
0.0
 40
12.0
 50
270.0
 51
0.0
  0
ARC
  5
4A3
  8
DRG
 62
     7
 10
62.280536421539182
 20
27.861637324670479
 30
0.0
 40
12.0
 50
270.0
 51
0.0
  0
LINE
  5
4A4
  8
DRG
 62
     7
 10
56.468482394088369
 20
15.861637324670481
 30
0.0
 11
62.280536421539182
 21
15.861637324670481
 31
0.0
  0
LINE
  5
4A5
  8
DRG
 62
     7
 10
153.28023066635379
 20
15.861637324670481
 30
0.0
 11
159.0922846938046
 21
15.861637324670481
 31
0.0
  0
ARC
  5
4A6
  8
DRG
 62
     7
 10
99.252312977960173
 20
45.06060729124669
 30
0.0
 40
12.0
 50
0.0
 51
90.0
  0
ARC
  5
4A7
  8
DRG
 62
     7
 10
103.66183676415081
 20
72.89733173546756
 30
0.0
 40
12.0
 50
270.0
 51
0.0
  0
ARC
  5
4A8
  8
DRG
 62
     7
 10
103.66183676415081
 20
90.096301702043775
 30
0.0
 40
12.0
 50
0.0
 51
90.0
  0
ARC
  5
4A9
  8
DRG
 62
     7
 10
75.331191210151701
 20
68.89733173546756
 30
0.0
 40
8.0
 50
180.0
 51
270.0
  0
LINE
  5
4AA
  8
DRG
 62
     7
 10
84.501142256151084
 20
62.072518178885268
 30
0.0
 11
84.501142256151084
 21
70.214764581409213
 31
0.0
  0
ARC
  5
4AB
  8
DRG
 62
     7
 10
97.849782736700035
 20
72.89733173546756
 30
0.0
 40
12.0
 50
180.0
 51
270.0
  0
ARC
  5
4AC
  8
DRG
 62
     7
 10
80.604973725058926
 20
67.941395133310024
 30
0.0
 40
7.044419488421358
 50
270.57609896713558
 51
303.5789717876612
  0
ARC
  5
4AD
  8
DRG
 62
     7
 10
93.358174068518778
 20
30.948196427274919
 30
0.0
 40
12.0
 50
90.0
 51
173.29457252003729
  0
ARC
  5
4AE
  8
DRG
 62
     7
 10
93.44025895050936
 20
27.861637324670479
 30
0.0
 40
12.0
 50
180.0
 51
227.9226718038604
  0
ARC
  5
4AF
  8
DRG
 62
     7
 10
93.44025895050936
 20
45.06060729124669
 30
0.0
 40
12.0
 50
90.0
 51
175.93782586434531
  0
LINE
  5
4B0
  8
DRG
 62
     7
 10
74.280536421539182
 20
45.06060729124669
 30
0.0
 11
74.280536421539182
 21
35.629722934820848
 31
0.0
  0
LINE
  5
4B1
  8
DRG
 62
     7
 10
63.235709964757007
 20
30.816887788353821
 30
0.0
 11
74.280536421539182
 21
30.816887788353821
 31
0.0
  0
LINE
  5
4B2
  8
DRG
 62
     7
 10
55.513311319972217
 20
35.629722934820848
 30
0.0
 11
74.280536421539182
 21
35.629722934820848
 31
0.0
  0
LINE
  5
4B3
  8
DRG
 62
     7
 10
63.235709964757007
 20
30.816887788353821
 30
0.0
 11
63.235709964757007
 21
27.619948938379359
 31
0.0
  0
LINE
  5
4B4
  8
DRG
 62
     7
 10
55.513311319972217
 20
35.629722934820848
 30
0.0
 11
55.513311319972217
 21
27.619948938379359
 31
0.0
  0
ARC
  5
4B5
  8
DRG
 62
     7
 10
59.374510642364612
 20
27.619948938379359
 30
0.0
 40
3.8611993223923942
 50
180.0
 51
0.0
  0
LINE
  5
4B6
  8
DRG
 62
     7
 10
74.280536421539182
 20
30.816887788353821
 30
0.0
 11
74.280536421539182
 21
27.861637324670479
 31
0.0
  0
ARC
  5
4B7
  8
DRG
 62
     7
 10
62.280536421539182
 20
45.06060729124669
 30
0.0
 40
12.0
 50
0.0
 51
90.0
  0
LINE
  5
4B8
  8
DRG
 62
     7
 10
55.513311319972217
 20
41.923431282527652
 30
0.0
 11
63.235709964757007
 21
41.923431282527652
 31
0.0
  0
ARC
  5
4B9
  8
DRG
 62
     7
 10
59.374510642364612
 20
46.690614073903127
 30
0.0
 40
3.8611993223923942
 50
0.0
 51
180.0
  0
LINE
  5
4BA
  8
DRG
 62
     7
 10
55.513311319972217
 20
46.690614073903127
 30
0.0
 11
55.513311319972217
 21
41.923431282527652
 31
0.0
  0
LINE
  5
4BB
  8
DRG
 62
     7
 10
63.235709964757007
 20
46.690614073903127
 30
0.0
 11
63.235709964757007
 21
41.923431282527652
 31
0.0
  0
LINE
  5
4BC
  8
DRG
 62
     7
 10
56.468482394088369
 20
57.06060729124669
 30
0.0
 11
62.280536421539182
 21
57.06060729124669
 31
0.0
  0
LINE
  5
4BD
  8
DRG
 62
     7
 10
75.331191210151701
 20
60.89733173546756
 30
0.0
 11
80.675802928264815
 21
60.89733173546756
 31
0.0
  0
LINE
  5
4BE
  8
DRG
 62
     7
 10
111.2523129779601
 20
45.06060729124669
 30
0.0
 11
111.2523129779601
 21
21.10260096837424
 31
0.0
  0
ARC
  5
4BF
  8
DRG
 62
     7
 10
92.427187023305351
 20
28.353548776339029
 30
0.0
 40
10.822390038051561
 50
283.70766965543032
 51
333.6028219757398
  0
ARC
  5
4C0
  8
DRG
 62
     7
 10
97.617648860406234
 20
31.597336783954741
 30
0.0
 40
5.7980507916306081
 50
86.525641605078704
 51
165.57884810514051
  0
ARC
  5
4C1
  8
DRG
 62
     7
 10
95.530005668639475
 20
29.734254501986349
 30
0.0
 40
5.9848030975807349
 50
273.19424815916329
 51
2.3998464036014582
  0
LINE
  5
4C2
  8
DRG
 62
     7
 10
92.002287191588479
 20
27.619948938379359
 30
0.0
 11
92.002287191588479
 21
33.041326503689788
 31
0.0
  0
LINE
  5
4C3
  8
DRG
 62
     7
 10
81.440258950509346
 20
32.349374231809861
 30
0.0
 11
81.440258950509346
 21
27.861637324670479
 31
0.0
  0
ARC
  5
4C4
  8
DRG
 62
     7
 10
95.863486513980874
 20
27.619948938379359
 30
0.0
 40
3.8611993223923942
 50
180.0
 51
270.0
  0
LINE
  5
4C5
  8
DRG
 62
     7
 10
102.6710305977499
 20
17.89352120355198
 30
0.0
 11
111.8021775281067
 21
17.893521203552009
 31
0.0
  0
ARC
  5
4C6
  8
DRG
 62
     7
 10
118.87875205644769
 20
22.322305930199491
 30
0.0
 40
16.801915635954131
 50
175.83705377070211
 51
195.28307330703629
  0
LINE
  5
4C7
  8
DRG
 62
     7
 10
102.1211660476033
 20
23.542010892025068
 30
0.0
 11
102.1211660476033
 21
21.102600968374329
 31
0.0
  0
ARC
  5
4C8
  8
DRG
 62
     7
 10
128.00989898680459
 20
22.322305930199519
 30
0.0
 40
16.801915635954131
 50
175.83705377070211
 51
195.28307330703629
  0
LINE
  5
4C9
  8
DRG
 62
     7
 10
101.5095597489034
 20
37.384730871555568
 30
0.0
 11
101.5095597489034
 21
29.483652989600269
 31
0.0
  0
LINE
  5
4CA
  8
DRG
 62
     7
 10
101.5095597489034
 20
37.384730871555568
 30
0.0
 11
97.266276327143615
 21
37.384730871555568
 31
0.0
  0
LINE
  5
4CB
  8
DRG
 62
     7
 10
100.2074865211779
 20
42.948196427274922
 30
0.0
 11
93.358174068518778
 21
42.948196427274922
 31
0.0
  0
ARC
  5
4CC
  8
DRG
 62
     7
 10
96.346287198785603
 20
47.313129977668268
 30
0.0
 40
3.8611993223923942
 50
0.0
 51
180.0
  0
LINE
  5
4CD
  8
DRG
 62
     7
 10
93.44025895050936
 20
57.06060729124669
 30
0.0
 11
99.252312977960173
 21
57.06060729124669
 31
0.0
  0
LINE
  5
4CE
  8
DRG
 62
     7
 10
92.485087876393209
 20
45.910674481046733
 30
0.0
 11
81.470405744524555
 21
45.910674481046733
 31
0.0
  0
LINE
  5
4CF
  8
DRG
 62
     7
 10
92.485087876393209
 20
47.313129977668268
 30
0.0
 11
92.485087876393209
 21
45.910674481046733
 31
0.0
  0
LINE
  5
4D0
  8
DRG
 62
     7
 10
100.2074865211779
 20
47.313129977668268
 30
0.0
 11
100.2074865211779
 21
42.948196427274922
 31
0.0
  0
LINE
  5
4D1
  8
DRG
 62
     7
 10
97.849782736700035
 20
60.89733173546756
 30
0.0
 11
103.66183676415081
 21
60.89733173546756
 31
0.0
  0
LINE
  5
4D2
  8
DRG
 62
     7
 10
80.482556033578916
 20
69.876055965300111
 30
0.0
 11
83.501142256151056
 21
69.876055965300111
 31
0.0
  0
LINE
  5
4D3
  8
DRG
 62
     7
 10
77.482556033578931
 20
94.593352860836134
 30
0.0
 11
84.553623006881026
 21
94.593352860836134
 31
0.0
  0
LINE
  5
4D4
  8
DRG
 62
     7
 10
77.482556033578931
 20
101.9948050433795
 30
0.0
 11
84.553623006881026
 21
101.9948050433795
 31
0.0
  0
ARC
  5
4D5
  8
DRG
 62
     7
 10
-128.9478892023152
 20
81.496816718755667
 30
0.0
 40
177.77324423808651
 50
357.1493405932253
 51
2.8506594067746178
  0
ARC
  5
4D6
  8
DRG
 62
     7
 10
-63.673578078330422
 20
81.496816718755667
 30
0.0
 40
123.62323904739679
 50
356.01116722839038
 51
3.9888327716095779
  0
LINE
  5
4D7
  8
DRG
 62
     7
 10
67.331191210151701
 20
94.593352860836134
 30
0.0
 11
67.331191210151701
 21
68.89733173546756
 31
0.0
  0
LINE
  5
4D8
  8
DRG
 62
     7
 10
77.482556033578931
 20
94.593352860836134
 30
0.0
 11
77.482556033578931
 21
72.876055965300111
 31
0.0
  0
ARC
  5
4D9
  8
DRG
 62
     7
 10
80.482556033578916
 20
72.876055965300111
 30
0.0
 40
3.0
 50
180.0
 51
270.0
  0
LINE
  5
4DA
  8
DRG
 62
     7
 10
62.478989637268569
 20
101.9948050433795
 30
0.0
 11
67.331191210151701
 21
101.9948050433795
 31
0.0
  0
LINE
  5
4DB
  8
DRG
 62
     7
 10
62.478989637268569
 20
94.593352860836134
 30
0.0
 11
67.331191210151701
 21
94.593352860836134
 31
0.0
  0
LINE
  5
4DC
  8
DRG
 62
     7
 10
62.478989637268569
 20
94.593352860836134
 30
0.0
 11
62.478989637268569
 21
101.9948050433795
 31
0.0
  0
LINE
  5
4DD
  8
DRG
 62
     7
 10
67.331191210151701
 20
107.1280725498991
 30
0.0
 11
77.482556033578931
 21
107.1280725498991
 31
0.0
  0
LINE
  5
4DE
  8
DRG
 62
     7
 10
67.331191210151701
 20
107.1280725498991
 30
0.0
 11
67.331191210151701
 21
101.9948050433795
 31
0.0
  0
LINE
  5
4DF
  8
DRG
 62
     7
 10
77.482556033578931
 20
101.9948050433795
 30
0.0
 11
77.482556033578931
 21
107.1280725498991
 31
0.0
  0
ARC
  5
4E0
  8
DRG
 62
     7
 10
-72.936249365281071
 20
81.496816718755667
 30
0.0
 40
177.77324423808651
 50
357.1493405932253
 51
2.8506594067746178
  0
ARC
  5
4E1
  8
DRG
 62
     7
 10
274.44787133523357
 20
81.496816718755667
 30
0.0
 40
177.77324423808651
 50
177.14934059322539
 51
182.85065940677461
  0
ARC
  5
4E2
  8
DRG
 62
     7
 10
209.1735602112488
 20
81.496816718755667
 30
0.0
 40
123.62323904739679
 50
176.01116722839041
 51
183.98883277160959
  0
ARC
  5
4E3
  8
DRG
 62
     7
 10
100.75581098497619
 20
72.655643349176444
 30
0.0
 40
3.8611993223923942
 50
180.0
 51
0.0
  0
ARC
  5
4E4
  8
DRG
 62
     7
 10
82.991751330883176
 20
73.025526152493626
 30
0.0
 40
3.1903983410800212
 50
279.18737892597682
 51
298.2359877234839
  0
ARC
  5
4E5
  8
DRG
 62
     7
 10
100.75581098497619
 20
90.337990088334877
 30
0.0
 40
3.8611993223923942
 50
0.0
 51
180.0
  0
ARC
  5
4E6
  8
DRG
 62
     7
 10
97.849782736700035
 20
90.096301702043775
 30
0.0
 40
12.0
 50
90.0
 51
180.0
  0
LINE
  5
4E7
  8
DRG
 62
     7
 10
84.553623006881026
 20
101.9948050433795
 30
0.0
 11
84.553623006881026
 21
94.593352860836134
 31
0.0
  0
LINE
  5
4E8
  8
DRG
 62
     7
 10
97.849782736700035
 20
102.0963017020437
 30
0.0
 11
103.66183676415081
 21
102.0963017020437
 31
0.0
  0
LINE
  5
4E9
  8
DRG
 62
     7
 10
130.05101171535759
 20
62.115696081838678
 30
0.0
 11
130.05101171535759
 21
85.569427875032716
 31
0.0
  0
LINE
  5
4EA
  8
DRG
 62
     7
 10
119.0096173095521
 20
102.0369718403326
 30
0.0
 11
119.0096173095521
 21
62.115696081838678
 31
0.0
  0
LINE
  5
4EB
  8
DRG
 62
     7
 10
165.4162645291251
 20
78.31140447718235
 30
0.0
 11
171.78072804963571
 21
62.115696081838678
 31
0.0
  0
LINE
  5
4EC
  8
DRG
 62
     7
 10
153.2899770207527
 20
82.583583780839604
 30
0.0
 11
161.3332883364622
 21
62.115696081838678
 31
0.0
  0
LINE
  5
4ED
  8
DRG
 62
     7
 10
153.2899770207527
 20
102.0369718403326
 30
0.0
 11
153.2899770207527
 21
62.115696081838678
 31
0.0
  0
LINE
  5
4EE
  8
DRG
 62
     7
 10
142.11987082690661
 20
102.0369718403326
 30
0.0
 11
142.11987082690661
 21
62.115696081838678
 31
0.0
  0
ARC
  5
4EF
  8
DRG
 62
     7
 10
160.28928843394391
 20
53.283870983727013
 30
0.0
 40
20.648450998997479
 50
209.50344874889601
 51
257.2400493880096
  0
LINE
  5
4F0
  8
DRG
 62
     7
 10
141.28023066635379
 20
29.95929893143898
 30
0.0
 11
152.32505959223769
 21
29.95929893143898
 31
0.0
  0
ARC
  5
4F1
  8
DRG
 62
     7
 10
153.28023066635379
 20
45.06060729124669
 30
0.0
 40
12.0
 50
90.0
 51
161.62913043773071
  0
LINE
  5
4F2
  8
DRG
 62
     7
 10
153.2899770207527
 20
62.115696081838678
 30
0.0
 11
142.11987082690661
 21
62.115696081838678
 31
0.0
  0
LINE
  5
4F3
  8
DRG
 62
     7
 10
127.2345352189994
 20
17.28637227261407
 30
0.0
 11
127.2345352189994
 21
40.740104065808111
 31
0.0
  0
LINE
  5
4F4
  8
DRG
 62
     7
 10
116.19314081319391
 20
57.207648031108022
 30
0.0
 11
116.19314081319391
 21
17.28637227261407
 31
0.0
  0
LINE
  5
4F5
  8
DRG
 62
     7
 10
116.19314081319391
 20
17.28637227261407
 30
0.0
 11
127.2345352189994
 21
17.28637227261407
 31
0.0
  0
LINE
  5
4F6
  8
DRG
 62
     7
 10
141.28023066635379
 20
29.95929893143898
 30
0.0
 11
141.28023066635379
 21
27.861637324670479
 31
0.0
  0
ARC
  5
4F7
  8
DRG
 62
     7
 10
135.496228002728
 20
47.014815876282221
 30
0.0
 40
10.2528691067876
 50
83.7965056449153
 51
143.68693404466879
  0
ARC
  5
4F8
  8
DRG
 62
     7
 10
135.23453521899941
 20
40.740104065808111
 30
0.0
 40
8.0
 50
90.0
 51
180.0
  0
LINE
  5
4F9
  8
DRG
 62
     7
 10
119.0096173095521
 20
62.115696081838678
 30
0.0
 11
130.05101171535759
 21
62.115696081838678
 31
0.0
  0
LINE
  5
4FA
  8
DRG
 62
     7
 10
116.19314081319391
 20
57.207648031108022
 30
0.0
 11
127.2345352189994
 21
57.207648031108022
 31
0.0
  0
LINE
  5
4FB
  8
DRG
 62
     7
 10
127.2345352189994
 20
53.0865336948413
 30
0.0
 11
127.2345352189994
 21
57.207648031108079
 31
0.0
  0
LINE
  5
4FC
  8
DRG
 62
     7
 10
136.6041529029215
 20
57.207648031108022
 30
0.0
 11
136.6041529029215
 21
48.740104065808111
 31
0.0
  0
LINE
  5
4FD
  8
DRG
 62
     7
 10
136.6041529029215
 20
48.740104065808111
 30
0.0
 11
135.23453521899941
 21
48.740104065808111
 31
0.0
  0
ARC
  5
4FE
  8
DRG
 62
     7
 10
149.15275272984229
 20
46.50373678022958
 30
0.0
 40
7.6283568598071962
 50
162.14543119997589
 51
216.29372603558031
  0
ARC
  5
4FF
  8
DRG
 62
     7
 10
164.68224204875119
 20
54.775095406185869
 30
0.0
 40
15.14236331012172
 50
222.29150451995909
 51
257.53093545652467
  0
ARC
  5
500
  8
DRG
 62
     7
 10
159.223234097084
 20
28.191351553125511
 30
0.0
 40
12.0
 50
8.4721667757414814
 51
79.486612768212169
  0
LINE
  5
501
  8
DRG
 62
     7
 10
160.04745823702251
 20
29.300230626583438
 30
0.0
 11
160.04745823702251
 21
27.619948938379359
 31
0.0
  0
LINE
  5
502
  8
DRG
 62
     7
 10
152.32505959223769
 20
27.619948938379359
 30
0.0
 11
152.32505959223769
 21
29.95929893143898
 31
0.0
  0
ARC
  5
503
  8
DRG
 62
     7
 10
156.18625891463009
 20
27.619948938379359
 30
0.0
 40
3.8611993223923942
 50
180.0
 51
0.0
  0
ARC
  5
504
  8
DRG
 62
     7
 10
153.8611380906755
 20
26.699836406787622
 30
0.0
 40
6.7106338785129491
 50
22.799249772319211
 51
73.841024038773142
  0
LINE
  5
505
  8
DRG
 62
     7
 10
171.0922846938046
 20
29.95929893143915
 30
0.0
 11
171.0922846938046
 21
27.861637324670479
 31
0.0
  0
LINE
  5
506
  8
DRG
 62
     7
 10
171.0912486890569
 20
45.21828747592599
 30
0.0
 11
160.04745823702251
 21
45.21828747592599
 31
0.0
  0
ARC
  5
507
  8
DRG
 62
     7
 10
159.0922846938046
 20
45.06060729124669
 30
0.0
 40
12.0
 50
0.7528890912800703
 51
90.0
  0
LINE
  5
508
  8
DRG
 62
     7
 10
161.3332883364622
 20
62.115696081838678
 30
0.0
 11
171.78072804963571
 21
62.115696081838678
 31
0.0
  0
ARC
  5
509
  8
DRG
 62
     7
 10
156.18625891463009
 20
46.421288526219307
 30
0.0
 40
3.8611993223923942
 50
0.0
 51
161.4735686305323
  0
ARC
  5
50A
  8
DRG
 62
     7
 10
155.35373214152469
 20
46.850626662257177
 30
0.0
 40
2.938857360854815
 50
164.25399710017811
 51
230.4135202949499
  0
LINE
  5
50B
  8
DRG
 62
     7
 10
160.04745823702251
 20
46.421288526219307
 30
0.0
 11
160.04745823702251
 21
45.21828747592599
 31
0.0
  0
LINE
  5
50C
  8
DRG
 62
     7
 10
153.28023066635379
 20
57.06060729124669
 30
0.0
 11
159.0922846938046
 21
57.06060729124669
 31
0.0
  0
LINE
  5
50D
  8
DRG
 62
     7
 10
142.11987082690661
 20
102.0369718403326
 30
0.0
 11
153.2899770207527
 21
102.0369718403326
 31
0.0
  0
ARC
  5
50E
  8
DRG
 62
     7
 10
138.05101171535759
 20
85.569427875032716
 30
0.0
 40
8.0
 50
90.0
 51
180.0
  0
ARC
  5
50F
  8
DRG
 62
     7
 10
-7.66193824129624
 20
81.496816718755667
 30
0.0
 40
123.62323904739679
 50
356.01116722839038
 51
3.9888327716095779
  0
ARC
  5
510
  8
DRG
 62
     7
 10
138.3127044990861
 20
91.844139685506775
 30
0.0
 40
10.2528691067876
 50
83.7965056449153
 51
143.68693404466879
  0
LINE
  5
511
  8
DRG
 62
     7
 10
119.0096173095521
 20
102.0369718403326
 30
0.0
 11
130.05101171535759
 21
102.0369718403326
 31
0.0
  0
LINE
  5
512
  8
DRG
 62
     7
 10
130.05101171535759
 20
97.915857504065855
 30
0.0
 11
130.05101171535759
 21
102.0369718403326
 31
0.0
  0
LINE
  5
513
  8
DRG
 62
     7
 10
139.4206293992797
 20
102.0369718403326
 30
0.0
 11
139.4206293992797
 21
93.569427875032716
 31
0.0
  0
LINE
  5
514
  8
DRG
 62
     7
 10
139.4206293992797
 20
93.569427875032716
 30
0.0
 11
138.05101171535759
 21
93.569427875032716
 31
0.0
  0
LINE
  5
515
  8
DRG
 62
     7
 10
153.2899770207527
 20
82.583583780839604
 30
0.0
 11
160.9346181585602
 21
102.0369718403326
 31
0.0
  0
LINE
  5
516
  8
DRG
 62
     7
 10
176.9709164189357
 20
78.31140447718235
 30
0.0
 11
176.9709164189357
 21
86.855763084496857
 31
0.0
  0
LINE
  5
517
  8
DRG
 62
     7
 10
176.9709164189357
 20
78.31140447718235
 30
0.0
 11
165.4162645291251
 21
78.31140447718235
 31
0.0
  0
LINE
  5
518
  8
DRG
 62
     7
 10
160.9346181585602
 20
102.0369718403326
 30
0.0
 11
171.38205787173379
 21
102.0369718403326
 31
0.0
  0
LINE
  5
519
  8
DRG
 62
     7
 10
165.4162645291251
 20
86.855763084496857
 30
0.0
 11
171.38205787173379
 21
102.0369718403326
 31
0.0
  0
LINE
  5
51A
  8
DRG
 62
     7
 10
176.9709164189357
 20
86.855763084496857
 30
0.0
 11
165.4162645291251
 21
86.855763084496857
 31
0.0
  0
ENDBLK
  5
51C
  8
0
  0
BLOCK
  8
0
  2
ROTORK_GEARS_LOGO
 70
     0
 10
0.0
 20
0.0
 30
0.0
  3
ROTORK_GEARS_LOGO
  1

  0
INSERT
  5
51E
  8
0
  2
LOGO
 10
16.592937132437999
 20
3.1720898939720419
 30
0.0
  0
ENDBLK
  5
520
  8
0
  0
BLOCK
  8
0
  2
*U3
 70
     1
 10
0.0
 20
0.0
 30
0.0
  3
*U3
  1

  0
SOLID
  5
545
  8
DRG
  6
CONTINUOUS
 62
     7
 10
27.825551270471632
 20
3.6315316469217538
 30
0.0
 11
18.100585347853119
 21
3.392610111620797
 31
0.0
 12
25.69916102541524
 22
3.392610111620797
 32
0.0
 13
25.69916102541524
 23
3.392610111620797
 33
0.0
210
0.0
220
0.0
230
1.0
  0
SOLID
  5
546
  8
DRG
  6
CONTINUOUS
 62
     7
 10
15.95231832006648
 20
3.6443862358386379
 30
0.0
 11
18.100585347853119
 21
3.392610111620797
 31
0.0
 12
27.825551270471632
 22
3.6315316469217538
 32
0.0
 13
27.825551270471632
 23
3.6315316469217538
 33
0.0
210
0.0
220
0.0
230
1.0
  0
SOLID
  5
547
  8
DRG
  6
CONTINUOUS
 62
     7
 10
29.879476718540559
 20
4.2315393369361187
 30
0.0
 11
15.95231832006648
 21
3.6443862358386379
 31
0.0
 12
27.825551270471632
 22
3.6315316469217538
 32
0.0
 13
27.825551270471632
 23
3.6315316469217538
 33
0.0
210
0.0
220
0.0
230
1.0
  0
SOLID
  5
548
  8
DRG
  6
CONTINUOUS
 62
     7
 10
13.90042545621565
 20
4.3286216592708353
 30
0.0
 11
15.95231832006648
 21
3.6443862358386379
 31
0.0
 12
29.879476718540559
 22
4.2315393369361187
 32
0.0
 13
29.879476718540559
 23
4.2315393369361187
 33
0.0
210
0.0
220
0.0
230
1.0
  0
SOLID
  5
549
  8
DRG
  6
CONTINUOUS
 62
     7
 10
31.800093071167691
 20
5.1748589011998876
 30
0.0
 11
13.90042545621565
 21
4.3286216592708353
 31
0.0
 12
29.879476718540559
 22
4.2315393369361187
 32
0.0
 13
29.879476718540559
 23
4.2315393369361187
 33
0.0
  0
SOLID
  5
54A
  8
DRG
  6
CONTINUOUS
 62
     7
 10
12.031004873916579
 20
5.4166056324423328
 30
0.0
 11
13.90042545621565
 21
4.3286216592708353
 31
0.0
 12
31.800093071167691
 22
5.1748589011998876
 32
0.0
 13
31.800093071167691
 23
5.1748589011998876
 33
0.0
210
0.0
220
0.0
230
1.0
  0
SOLID
  5
54B
  8
DRG
  6
CONTINUOUS
 62
     7
 10
33.5305051013693
 20
6.4335459870298388
 30
0.0
 11
12.031004873916579
 21
5.4166056324423328
 31
0.0
 12
31.800093071167691
 22
5.1748589011998876
 32
0.0
 13
31.800093071167691
 23
5.1748589011998876
 33
0.0
210
0.0
220
0.0
230
1.0
  0
SOLID
  5
54C
  8
DRG
  6
CONTINUOUS
 62
     7
 10
10.42249809221936
 20
6.8626859803606237
 30
0.0
 11
12.031004873916579
 21
5.4166056324423328
 31
0.0
 12
33.5305051013693
 22
6.4335459870298388
 32
0.0
 13
33.5305051013693
 23
6.4335459870298388
 33
0.0
210
0.0
220
0.0
230
1.0
  0
SOLID
  5
54D
  8
DRG
  6
CONTINUOUS
 62
     7
 10
35.019452084899733
 20
7.9703139768504068
 30
0.0
 11
10.42249809221936
 21
6.8626859803606237
 31
0.0
 12
33.5305051013693
 22
6.4335459870298388
 32
0.0
 13
33.5305051013693
 23
6.4335459870298388
 33
0.0
210
0.0
220
0.0
230
1.0
  0
SOLID
  5
54E
  8
DRG
  6
CONTINUOUS
 62
     7
 10
9.1423985989743972
 20
8.6061846831979381
 30
0.0
 11
10.42249809221936
 21
6.8626859803606237
 31
0.0
 12
35.019452084899733
 22
7.9703139768504068
 32
0.0
 13
35.019452084899733
 23
7.9703139768504068
 33
0.0
210
0.0
220
0.0
230
1.0
  0
SOLID
  5
54F
  8
DRG
  6
CONTINUOUS
 62
     7
 10
23.40592258650463
 20
9.658646647821115
 30
0.0
 11
9.1423985989743972
 21
8.6061846831979381
 31
0.0
 12
35.019452084899733
 22
7.9703139768504068
 32
0.0
 13
35.019452084899733
 23
7.9703139768504068
 33
0.0
  0
SOLID
  5
550
  8
DRG
  6
CONTINUOUS
 62
     7
 10
36.222826318271608
 20
9.7396385453674927
 30
0.0
 11
23.40592258650463
 21
9.658646647821115
 31
0.0
 12
35.019452084899733
 22
7.9703139768504068
 32
0.0
 13
35.019452084899733
 23
7.9703139768504068
 33
0.0
210
0.0
220
0.0
230
1.0
  0
SOLID
  5
551
  8
DRG
  6
CONTINUOUS
 62
     7
 10
22.212746377216352
 20
9.8476271939377913
 30
0.0
 11
9.1423985989743972
 21
8.6061846831979381
 31
0.0
 12
23.40592258650463
 22
9.658646647821115
 32
0.0
 13
23.40592258650463
 23
9.658646647821115
 33
0.0
210
0.0
220
0.0
230
1.0
  0
SOLID
  5
552
  8
DRG
  6
CONTINUOUS
 62
     7
 10
24.599098795792909
 20
9.8476271939377931
 30
0.0
 11
23.40592258650463
 21
9.658646647821115
 31
0.0
 12
36.222826318271608
 22
9.7396385453674927
 32
0.0
 13
36.222826318271608
 23
9.7396385453674927
 33
0.0
210
0.0
220
0.0
230
1.0
  0
SOLID
  5
553
  8
DRG
  6
CONTINUOUS
 62
     7
 10
21.136366568640689
 20
10.39607009972903
 30
0.0
 11
9.1423985989743972
 21
8.6061846831979381
 31
0.0
 12
22.212746377216352
 22
9.8476271939377913
 32
0.0
 13
22.212746377216352
 23
9.8476271939377913
 33
0.0
210
0.0
220
0.0
230
1.0
  0
SOLID
  5
554
  8
DRG
  6
CONTINUOUS
 62
     7
 10
25.675478604368571
 20
10.39607009972903
 30
0.0
 11
24.599098795792909
 21
9.8476271939377931
 31
0.0
 12
36.222826318271608
 22
9.7396385453674927
 32
0.0
 13
36.222826318271608
 23
9.7396385453674927
 33
0.0
210
0.0
220
0.0
230
1.0
  0
SOLID
  5
555
  8
DRG
  6
CONTINUOUS
 62
     7
 10
8.2444198012855416
 20
10.57394394649787
 30
0.0
 11
9.1423985989743972
 21
8.6061846831979381
 31
0.0
 12
21.136366568640689
 22
10.39607009972903
 32
0.0
 13
21.136366568640689
 23
10.39607009972903
 33
0.0
210
0.0
220
0.0
230
1.0
  0
SOLID
  5
556
  8
DRG
  6
CONTINUOUS
 62
     7
 10
20.282146716020151
 20
11.25028995234956
 30
0.0
 11
8.2444198012855416
 21
10.57394394649787
 31
0.0
 12
21.136366568640689
 22
10.39607009972903
 32
0.0
 13
21.136366568640689
 23
10.39607009972903
 33
0.0
210
0.0
220
0.0
230
1.0
  0
SOLID
  5
557
  8
DRG
  6
CONTINUOUS
 62
     7
 10
26.529698456989109
 20
11.25028995234957
 30
0.0
 11
25.675478604368571
 21
10.39607009972903
 31
0.0
 12
36.222826318271608
 22
9.7396385453674927
 32
0.0
 13
36.222826318271608
 23
9.7396385453674927
 33
0.0
  0
SOLID
  5
558
  8
DRG
  6
CONTINUOUS
 62
     7
 10
37.104979739829929
 20
11.68910624582689
 30
0.0
 11
26.529698456989109
 21
11.25028995234957
 31
0.0
 12
36.222826318271608
 22
9.7396385453674927
 32
0.0
 13
36.222826318271608
 23
9.7396385453674927
 33
0.0
210
0.0
220
0.0
230
1.0
  0
SOLID
  5
559
  8
DRG
  6
CONTINUOUS
 62
     7
 10
19.73370381022891
 20
12.32666976092522
 30
0.0
 11
8.2444198012855416
 21
10.57394394649787
 31
0.0
 12
20.282146716020151
 22
11.25028995234956
 32
0.0
 13
20.282146716020151
 23
11.25028995234956
 33
0.0
210
0.0
220
0.0
230
1.0
  0
SOLID
  5
55A
  8
DRG
  6
CONTINUOUS
 62
     7
 10
27.07814136278035
 20
12.326669760925229
 30
0.0
 11
26.529698456989109
 21
11.25028995234957
 31
0.0
 12
37.104979739829929
 22
11.68910624582689
 32
0.0
 13
37.104979739829929
 23
11.68910624582689
 33
0.0
210
0.0
220
0.0
230
1.0
  0
SOLID
  5
55B
  8
DRG
  6
CONTINUOUS
 62
     7
 10
7.7662411928057731
 20
12.6833959269406
 30
0.0
 11
8.2444198012855416
 21
10.57394394649787
 31
0.0
 12
19.73370381022891
 22
12.32666976092522
 32
0.0
 13
19.73370381022891
 23
12.32666976092522
 33
0.0
210
0.0
220
0.0
230
1.0
  0
SOLID
  5
55C
  8
DRG
  6
CONTINUOUS
 62
     7
 10
19.544723264112228
 20
13.51984597021351
 30
0.0
 11
7.7662411928057731
 21
12.6833959269406
 31
0.0
 12
19.73370381022891
 22
12.32666976092522
 32
0.0
 13
19.73370381022891
 23
12.32666976092522
 33
0.0
  0
SOLID
  5
55D
  8
DRG
  6
CONTINUOUS
 62
     7
 10
27.267121908897021
 20
13.51984597021351
 30
0.0
 11
27.07814136278035
 21
12.326669760925229
 31
0.0
 12
37.104979739829929
 22
11.68910624582689
 32
0.0
 13
37.104979739829929
 23
11.68910624582689
 33
0.0
210
0.0
220
0.0
230
1.0
  0
SOLID
  5
55E
  8
DRG
  6
CONTINUOUS
 62
     7
 10
37.639779947293839
 20
13.760967175618781
 30
0.0
 11
27.267121908897021
 21
13.51984597021351
 31
0.0
 12
37.104979739829929
 22
11.68910624582689
 32
0.0
 13
37.104979739829929
 23
11.68910624582689
 33
0.0
210
0.0
220
0.0
230
1.0
  0
SOLID
  5
55F
  8
DRG
  6
CONTINUOUS
 62
     7
 10
19.544723264112228
 20
13.51984597021351
 30
0.0
 11
19.544723264112239
 21
14.846027306936771
 31
0.0
 12
7.7279273094568479
 22
14.846027306936771
 32
0.0
 13
7.7279273094568479
 23
14.846027306936771
 33
0.0
210
0.0
220
0.0
230
1.0
  0
SOLID
  5
560
  8
DRG
  6
CONTINUOUS
 62
     7
 10
7.7279273094568479
 20
14.846027306936771
 30
0.0
 11
7.7662411928057731
 21
12.6833959269406
 31
0.0
 12
19.544723264112228
 22
13.51984597021351
 32
0.0
 13
19.544723264112228
 23
13.51984597021351
 33
0.0
210
0.0
220
0.0
230
1.0
  0
SOLID
  5
561
  8
DRG
  6
CONTINUOUS
 62
     7
 10
54.127398529894847
 20
16.09221395983171
 30
0.0
 11
56.468482394088369
 21
15.861637324670481
 31
0.0
 12
62.280536421539182
 22
15.861637324670481
 32
0.0
 13
62.280536421539182
 23
15.861637324670481
 33
0.0
210
0.0
220
0.0
230
1.0
  0
SOLID
  5
562
  8
DRG
  6
CONTINUOUS
 62
     7
 10
161.43336855799819
 20
16.09221395983171
 30
0.0
 11
153.28023066635379
 21
15.861637324670481
 31
0.0
 12
159.0922846938046
 22
15.861637324670481
 32
0.0
 13
159.0922846938046
 23
15.861637324670481
 33
0.0
210
0.0
220
0.0
230
1.0
  0
SOLID
  5
563
  8
DRG
  6
CONTINUOUS
 62
     7
 10
64.621620285732703
 20
16.09221395983171
 30
0.0
 11
54.127398529894847
 21
16.09221395983171
 31
0.0
 12
62.280536421539182
 22
15.861637324670481
 32
0.0
 13
62.280536421539182
 23
15.861637324670481
 33
0.0
210
0.0
220
0.0
230
1.0
  0
SOLID
  5
564
  8
DRG
  6
CONTINUOUS
 62
     7
 10
150.93914680216031
 20
16.09221395983171
 30
0.0
 11
153.28023066635379
 21
15.861637324670481
 31
0.0
 12
161.43336855799819
 22
16.09221395983171
 32
0.0
 13
161.43336855799819
 23
16.09221395983171
 33
0.0
210
0.0
220
0.0
230
1.0
  0
SOLID
  5
565
  8
DRG
  6
CONTINUOUS
 62
     7
 10
51.876281205707329
 20
16.775082934535021
 30
0.0
 11
54.127398529894847
 21
16.09221395983171
 31
0.0
 12
64.621620285732703
 22
16.09221395983171
 32
0.0
 13
64.621620285732703
 23
16.09221395983171
 33
0.0
210
0.0
220
0.0
230
1.0
  0
SOLID
  5
566
  8
DRG
  6
CONTINUOUS
 62
     7
 10
163.6844858821857
 20
16.775082934535039
 30
0.0
 11
150.93914680216031
 21
16.09221395983171
 31
0.0
 12
161.43336855799819
 22
16.09221395983171
 32
0.0
 13
161.43336855799819
 23
16.09221395983171
 33
0.0
210
0.0
220
0.0
230
1.0
  0
SOLID
  5
567
  8
DRG
  6
CONTINUOUS
 62
     7
 10
66.87273760992025
 20
16.775082934535039
 30
0.0
 11
51.876281205707329
 21
16.775082934535021
 31
0.0
 12
64.621620285732703
 22
16.09221395983171
 32
0.0
 13
64.621620285732703
 23
16.09221395983171
 33
0.0
210
0.0
220
0.0
230
1.0
  0
SOLID
  5
568
  8
DRG
  6
CONTINUOUS
 62
     7
 10
148.6880294779728
 20
16.775082934535039
 30
0.0
 11
150.93914680216031
 21
16.09221395983171
 31
0.0
 12
163.6844858821857
 22
16.775082934535039
 32
0.0
 13
163.6844858821857
 23
16.775082934535039
 33
0.0
210
0.0
220
0.0
230
1.0
  0
SOLID
  5
569
  8
DRG
  6
CONTINUOUS
 62
     7
 10
89.046034371584071
 20
17.264455427868601
 30
0.0
 11
91.053870003696062
 21
17.031015276218469
 31
0.0
 12
93.065845423427419
 22
17.225574111478739
 32
0.0
 13
93.065845423427419
 23
17.225574111478739
 33
0.0
210
0.0
220
0.0
230
1.0
  0
SOLID
  5
56A
  8
DRG
  6
CONTINUOUS
 62
     7
 10
94.991749269489972
 20
17.839408458597301
 30
0.0
 11
89.046034371584071
 21
17.264455427868601
 31
0.0
 12
93.065845423427419
 22
17.225574111478739
 32
0.0
 13
93.065845423427419
 23
17.225574111478739
 33
0.0
210
0.0
220
0.0
230
1.0
  0
SOLID
  5
56B
  8
DRG
  6
CONTINUOUS
 62
     7
 10
49.801639597853189
 20
17.884001977039901
 30
0.0
 11
51.876281205707329
 21
16.775082934535021
 31
0.0
 12
66.87273760992025
 22
16.775082934535039
 32
0.0
 13
66.87273760992025
 23
16.775082934535039
 33
0.0
210
0.0
220
0.0
230
1.0
  0
SOLID
  5
56C
  8
DRG
  6
CONTINUOUS
 62
     7
 10
165.7591274900399
 20
17.88400197703994
 30
0.0
 11
148.6880294779728
 21
16.775082934535039
 31
0.0
 12
163.6844858821857
 22
16.775082934535039
 32
0.0
 13
163.6844858821857
 23
16.775082934535039
 33
0.0
210
0.0
220
0.0
230
1.0
  0
SOLID
  5
56D
  8
DRG
  6
CONTINUOUS
 62
     7
 10
68.947379217774412
 20
17.88400197703994
 30
0.0
 11
49.801639597853189
 21
17.884001977039901
 31
0.0
 12
66.87273760992025
 22
16.775082934535039
 32
0.0
 13
66.87273760992025
 23
16.775082934535039
 33
0.0
210
0.0
220
0.0
230
1.0
  0
SOLID
  5
56E
  8
DRG
  6
CONTINUOUS
 62
     7
 10
146.6133878701186
 20
17.88400197703994
 30
0.0
 11
148.6880294779728
 21
16.775082934535039
 31
0.0
 12
165.7591274900399
 22
17.88400197703994
 32
0.0
 13
165.7591274900399
 23
17.88400197703994
 33
0.0
210
0.0
220
0.0
230
1.0
  0
SOLID
  5
56F
  8
DRG
  6
CONTINUOUS
 62
     7
 10
87.132364271859174
 20
17.915427761689291
 30
0.0
 11
89.046034371584071
 21
17.264455427868601
 31
0.0
 12
94.991749269489972
 22
17.839408458597301
 32
0.0
 13
94.991749269489972
 23
17.839408458597301
 33
0.0
210
0.0
220
0.0
230
1.0
  0
SOLID
  5
570
  8
DRG
  6
CONTINUOUS
 62
     7
 10
97.202192775961791
 20
18.641522921873062
 30
0.0
 11
87.132364271859174
 21
17.915427761689291
 31
0.0
 12
94.991749269489972
 22
17.839408458597301
 32
0.0
 13
94.991749269489972
 23
17.839408458597301
 33
0.0
210
0.0
220
0.0
230
1.0
  0
SOLID
  5
571
  8
DRG
  6
CONTINUOUS
 62
     7
 10
85.398663329684837
 20
18.95474449545469
 30
0.0
 11
87.132364271859174
 21
17.915427761689291
 31
0.0
 12
97.202192775961791
 22
18.641522921873062
 32
0.0
 13
97.202192775961791
 23
18.641522921873062
 33
0.0
210
0.0
220
0.0
230
1.0
  0
SOLID
  5
572
  8
DRG
  6
CONTINUOUS
 62
     7
 10
16.093232463699319
 20
19.321420959942859
 30
0.0
 11
18.58303542025671
 21
18.945146626805109
 31
0.0
 12
20.548060271541839
 22
19.190646711498921
 32
0.0
 13
20.548060271541839
 23
19.190646711498921
 33
0.0
210
0.0
220
0.0
230
1.0
  0
SOLID
  5
573
  8
DRG
  6
CONTINUOUS
 62
     7
 10
47.983201019849858
 20
19.37635595043184
 30
0.0
 11
49.801639597853189
 21
17.884001977039901
 31
0.0
 12
68.947379217774412
 22
17.88400197703994
 32
0.0
 13
68.947379217774412
 23
17.88400197703994
 33
0.0
210
0.0
220
0.0
230
1.0
  0
SOLID
  5
574
  8
DRG
  6
CONTINUOUS
 62
     7
 10
70.76581779577775
 20
19.376355950431911
 30
0.0
 11
47.983201019849858
 21
19.37635595043184
 31
0.0
 12
68.947379217774412
 22
17.88400197703994
 32
0.0
 13
68.947379217774412
 23
17.88400197703994
 33
0.0
210
0.0
220
0.0
230
1.0
  0
SOLID
  5
575
  8
DRG
  6
CONTINUOUS
 62
     7
 10
167.57756606804321
 20
19.376355950431911
 30
0.0
 11
146.6133878701186
 21
17.88400197703994
 31
0.0
 12
165.7591274900399
 22
17.88400197703994
 32
0.0
 13
165.7591274900399
 23
17.88400197703994
 33
0.0
210
0.0
220
0.0
230
1.0
  0
SOLID
  5
576
  8
DRG
  6
CONTINUOUS
 62
     7
 10
144.79494929211521
 20
19.376355950431911
 30
0.0
 11
146.6133878701186
 21
17.88400197703994
 31
0.0
 12
167.57756606804321
 22
19.376355950431911
 32
0.0
 13
167.57756606804321
 23
19.376355950431911
 33
0.0
210
0.0
220
0.0
230
1.0
  0
SOLID
  5
577
  8
DRG
  6
CONTINUOUS
 62
     7
 10
102.3181837587821
 20
19.484710699009419
 30
0.0
 11
102.6710305977499
 21
17.89352120355198
 31
0.0
 12
111.8021775281067
 22
17.893521203552009
 32
0.0
 13
111.8021775281067
 23
17.893521203552009
 33
0.0
210
0.0
220
0.0
230
1.0
  0
SOLID
  5
578
  8
DRG
  6
CONTINUOUS
 62
     7
 10
22.41344183966368
 20
19.855435823220908
 30
0.0
 11
16.093232463699319
 21
19.321420959942859
 31
0.0
 12
20.548060271541839
 22
19.190646711498921
 32
0.0
 13
20.548060271541839
 23
19.190646711498921
 33
0.0
  0
SOLID
  5
579
  8
DRG
  6
CONTINUOUS
 62
     7
 10
99.18720752242109
 20
19.902143627652059
 30
0.0
 11
85.398663329684837
 21
18.95474449545469
 31
0.0
 12
97.202192775961791
 22
18.641522921873062
 32
0.0
 13
97.202192775961791
 23
18.641522921873062
 33
0.0
210
0.0
220
0.0
230
1.0
  0
SOLID
  5
57A
  8
DRG
  6
CONTINUOUS
 62
     7
 10
13.73510429051534
 20
20.204558919208651
 30
0.0
 11
16.093232463699319
 21
19.321420959942859
 31
0.0
 12
22.41344183966368
 22
19.855435823220908
 32
0.0
 13
22.41344183966368
 23
19.855435823220908
 33
0.0
210
0.0
220
0.0
230
1.0
  0
SOLID
  5
57B
  8
DRG
  6
CONTINUOUS
 62
     7
 10
111.2870334115631
 20
20.69438210209054
 30
0.0
 11
102.3181837587821
 21
19.484710699009419
 31
0.0
 12
111.8021775281067
 22
17.893521203552009
 32
0.0
 13
111.8021775281067
 23
17.893521203552009
 33
0.0
210
0.0
220
0.0
230
1.0
  0
SOLID
  5
57C
  8
DRG
  6
CONTINUOUS
 62
     7
 10
83.724920350627414
 20
20.818044783243639
 30
0.0
 11
85.398663329684837
 21
18.95474449545469
 31
0.0
 12
99.18720752242109
 22
19.902143627652059
 32
0.0
 13
99.18720752242109
 23
19.902143627652059
 33
0.0
210
0.0
220
0.0
230
1.0
  0
SOLID
  5
57D
  8
DRG
  6
CONTINUOUS
 62
     7
 10
24.090833070868062
 20
20.90802862921548
 30
0.0
 11
13.73510429051534
 21
20.204558919208651
 31
0.0
 12
22.41344183966368
 22
19.855435823220908
 32
0.0
 13
22.41344183966368
 23
19.855435823220908
 33
0.0
  0
SOLID
  5
57E
  8
DRG
  6
CONTINUOUS
 62
     7
 10
102.1211660476033
 20
21.102600968374279
 30
0.0
 11
102.3181837587821
 21
19.484710699009419
 31
0.0
 12
111.2870334115631
 22
20.69438210209054
 32
0.0
 13
111.2870334115631
 23
20.69438210209054
 33
0.0
210
0.0
220
0.0
230
1.0
  0
SOLID
  5
57F
  8
DRG
  6
CONTINUOUS
 62
     7
 10
46.490847046457887
 20
21.19479452843516
 30
0.0
 11
47.983201019849858
 21
19.37635595043184
 31
0.0
 12
70.76581779577775
 22
19.376355950431911
 32
0.0
 13
70.76581779577775
 23
19.376355950431911
 33
0.0
210
0.0
220
0.0
230
1.0
  0
SOLID
  5
580
  8
DRG
  6
CONTINUOUS
 62
     7
 10
72.258171769169721
 20
21.194794528435249
 30
0.0
 11
46.490847046457887
 21
21.19479452843516
 31
0.0
 12
70.76581779577775
 22
19.376355950431911
 32
0.0
 13
70.76581779577775
 23
19.376355950431911
 33
0.0
  0
SOLID
  5
581
  8
DRG
  6
CONTINUOUS
 62
     7
 10
169.06992004143521
 20
21.194794528435249
 30
0.0
 11
144.79494929211521
 21
19.376355950431911
 31
0.0
 12
167.57756606804321
 22
19.376355950431911
 32
0.0
 13
167.57756606804321
 23
19.376355950431911
 33
0.0
210
0.0
220
0.0
230
1.0
  0
SOLID
  5
582
  8
DRG
  6
CONTINUOUS
 62
     7
 10
143.30259531872329
 20
21.194794528435249
 30
0.0
 11
144.79494929211521
 21
19.376355950431911
 31
0.0
 12
169.06992004143521
 22
21.194794528435249
 32
0.0
 13
169.06992004143521
 23
21.194794528435249
 33
0.0
210
0.0
220
0.0
230
1.0
  0
SOLID
  5
583
  8
DRG
  6
CONTINUOUS
 62
     7
 10
11.61064502436718
 20
21.55636288529891
 30
0.0
 11
13.73510429051534
 21
20.204558919208651
 31
0.0
 12
24.090833070868062
 22
20.90802862921548
 32
0.0
 13
24.090833070868062
 23
20.90802862921548
 33
0.0
210
0.0
220
0.0
230
1.0
  0
SOLID
  5
584
  8
DRG
  6
CONTINUOUS
 62
     7
 10
100.8530806557153
 20
21.561756477466091
 30
0.0
 11
83.724920350627414
 21
20.818044783243639
 31
0.0
 12
99.18720752242109
 22
19.902143627652059
 32
0.0
 13
99.18720752242109
 23
19.902143627652059
 33
0.0
210
0.0
220
0.0
230
1.0
  0
SOLID
  5
585
  8
DRG
  6
CONTINUOUS
 62
     7
 10
25.500790394036571
 20
22.298572876838069
 30
0.0
 11
11.61064502436718
 21
21.55636288529891
 31
0.0
 12
24.090833070868062
 22
20.90802862921548
 32
0.0
 13
24.090833070868062
 23
20.90802862921548
 33
0.0
210
0.0
220
0.0
230
1.0
  0
SOLID
  5
586
  8
DRG
  6
CONTINUOUS
 62
     7
 10
82.474422287265327
 20
22.98819641756462
 30
0.0
 11
83.724920350627414
 21
20.818044783243639
 31
0.0
 12
100.8530806557153
 22
21.561756477466091
 32
0.0
 13
100.8530806557153
 23
21.561756477466091
 33
0.0
210
0.0
220
0.0
230
1.0
  0
SOLID
  5
587
  8
DRG
  6
CONTINUOUS
 62
     7
 10
45.381928003952979
 20
23.269436136289279
 30
0.0
 11
46.490847046457887
 21
21.19479452843516
 31
0.0
 12
72.258171769169721
 22
21.194794528435249
 32
0.0
 13
72.258171769169721
 23
21.194794528435249
 33
0.0
210
0.0
220
0.0
230
1.0
  0
SOLID
  5
588
  8
DRG
  6
CONTINUOUS
 62
     7
 10
73.367090811674615
 20
23.2694361362894
 30
0.0
 11
45.381928003952979
 21
23.269436136289279
 31
0.0
 12
72.258171769169721
 22
21.194794528435249
 32
0.0
 13
72.258171769169721
 23
21.194794528435249
 33
0.0
210
0.0
220
0.0
230
1.0
  0
SOLID
  5
589
  8
DRG
  6
CONTINUOUS
 62
     7
 10
170.17883908394009
 20
23.2694361362894
 30
0.0
 11
143.30259531872329
 21
21.194794528435249
 31
0.0
 12
169.06992004143521
 22
21.194794528435249
 32
0.0
 13
169.06992004143521
 23
21.194794528435249
 33
0.0
210
0.0
220
0.0
230
1.0
  0
SOLID
  5
58A
  8
DRG
  6
CONTINUOUS
 62
     7
 10
142.19367627621841
 20
23.2694361362894
 30
0.0
 11
143.30259531872329
 21
21.194794528435249
 31
0.0
 12
170.17883908394009
 22
23.2694361362894
 32
0.0
 13
170.17883908394009
 23
23.2694361362894
 33
0.0
210
0.0
220
0.0
230
1.0
  0
SOLID
  5
58B
  8
DRG
  6
CONTINUOUS
 62
     7
 10
9.8117421052893903
 20
23.318364424456458
 30
0.0
 11
11.61064502436718
 21
21.55636288529891
 31
0.0
 12
25.500790394036571
 22
22.298572876838069
 32
0.0
 13
25.500790394036571
 23
22.298572876838069
 33
0.0
210
0.0
220
0.0
230
1.0
  0
SOLID
  5
58C
  8
DRG
  6
CONTINUOUS
 62
     7
 10
111.2523129779601
 20
23.54201089202471
 30
0.0
 11
102.1211660476033
 21
21.102600968374279
 31
0.0
 12
111.2870334115631
 22
20.69438210209054
 32
0.0
 13
111.2870334115631
 23
20.69438210209054
 33
0.0
210
0.0
220
0.0
230
1.0
  0
SOLID
  5
58D
  8
DRG
  6
CONTINUOUS
 62
     7
 10
102.1211660476033
 20
23.542010892025001
 30
0.0
 11
82.474422287265327
 21
22.98819641756462
 31
0.0
 12
100.8530806557153
 22
21.561756477466091
 32
0.0
 13
100.8530806557153
 23
21.561756477466091
 33
0.0
210
0.0
220
0.0
230
1.0
  0
SOLID
  5
58E
  8
DRG
  6
CONTINUOUS
 62
     7
 10
102.1211660476033
 20
23.542010892025001
 30
0.0
 11
102.1211660476033
 21
21.102600968374279
 31
0.0
 12
111.2523129779601
 22
23.54201089202471
 32
0.0
 13
111.2523129779601
 23
23.54201089202471
 33
0.0
210
0.0
220
0.0
230
1.0
  0
SOLID
  5
58F
  8
DRG
  6
CONTINUOUS
 62
     7
 10
95.863486513980718
 20
23.758749615986972
 30
0.0
 11
102.1211660476033
 21
23.542010892025001
 31
0.0
 12
111.2523129779601
 22
23.54201089202471
 32
0.0
 13
111.2523129779601
 23
23.54201089202471
 33
0.0
210
0.0
220
0.0
230
1.0
  0
SOLID
  5
590
  8
DRG
  6
CONTINUOUS
 62
     7
 10
95.863486513980718
 20
23.758749615986972
 30
0.0
 11
82.474422287265327
 21
22.98819641756462
 31
0.0
 12
102.1211660476033
 22
23.542010892025001
 32
0.0
 13
102.1211660476033
 23
23.542010892025001
 33
0.0
210
0.0
220
0.0
230
1.0
  0
SOLID
  5
591
  8
DRG
  6
CONTINUOUS
 62
     7
 10
156.18625891463009
 20
23.758749615986972
 30
0.0
 11
142.19367627621841
 21
23.2694361362894
 31
0.0
 12
170.17883908394009
 22
23.2694361362894
 32
0.0
 13
170.17883908394009
 23
23.2694361362894
 33
0.0
210
0.0
220
0.0
230
1.0
  0
SOLID
  5
592
  8
DRG
  6
CONTINUOUS
 62
     7
 10
59.374510642364612
 20
23.758749615986979
 30
0.0
 11
45.381928003952979
 21
23.269436136289279
 31
0.0
 12
73.367090811674615
 22
23.2694361362894
 32
0.0
 13
73.367090811674615
 23
23.2694361362894
 33
0.0
210
0.0
220
0.0
230
1.0
  0
SOLID
  5
593
  8
DRG
  6
CONTINUOUS
 62
     7
 10
154.99308270534181
 20
23.947730162103639
 30
0.0
 11
142.19367627621841
 21
23.2694361362894
 31
0.0
 12
156.18625891463009
 22
23.758749615986972
 32
0.0
 13
156.18625891463009
 23
23.758749615986972
 33
0.0
210
0.0
220
0.0
230
1.0
  0
SOLID
  5
594
  8
DRG
  6
CONTINUOUS
 62
     7
 10
157.3794351239184
 20
23.947730162103639
 30
0.0
 11
156.18625891463009
 21
23.758749615986972
 31
0.0
 12
170.17883908394009
 22
23.2694361362894
 32
0.0
 13
170.17883908394009
 23
23.2694361362894
 33
0.0
210
0.0
220
0.0
230
1.0
  0
SOLID
  5
595
  8
DRG
  6
CONTINUOUS
 62
     7
 10
58.18133443307633
 20
23.94773016210365
 30
0.0
 11
45.381928003952979
 21
23.269436136289279
 31
0.0
 12
59.374510642364612
 22
23.758749615986979
 32
0.0
 13
59.374510642364612
 23
23.758749615986979
 33
0.0
210
0.0
220
0.0
230
1.0
  0
SOLID
  5
596
  8
DRG
  6
CONTINUOUS
 62
     7
 10
60.567686851652887
 20
23.94773016210365
 30
0.0
 11
59.374510642364612
 21
23.758749615986979
 31
0.0
 12
73.367090811674615
 22
23.2694361362894
 32
0.0
 13
73.367090811674615
 23
23.2694361362894
 33
0.0
210
0.0
220
0.0
230
1.0
  0
SOLID
  5
597
  8
DRG
  6
CONTINUOUS
 62
     7
 10
94.670310304692478
 20
23.947730162103682
 30
0.0
 11
82.474422287265327
 21
22.98819641756462
 31
0.0
 12
95.863486513980718
 22
23.758749615986972
 32
0.0
 13
95.863486513980718
 23
23.758749615986972
 33
0.0
210
0.0
220
0.0
230
1.0
  0
SOLID
  5
598
  8
DRG
  6
CONTINUOUS
 62
     7
 10
26.5765362782073
 20
23.961210465262731
 30
0.0
 11
9.8117421052893903
 21
23.318364424456458
 31
0.0
 12
25.500790394036571
 22
22.298572876838069
 32
0.0
 13
25.500790394036571
 23
22.298572876838069
 33
0.0
210
0.0
220
0.0
230
1.0
  0
SOLID
  5
599
  8
DRG
  6
CONTINUOUS
 62
     7
 10
97.385554555218334
 20
24.044368172161469
 30
0.0
 11
95.863486513980718
 21
23.758749615986972
 31
0.0
 12
111.2523129779601
 22
23.54201089202471
 32
0.0
 13
111.2523129779601
 23
23.54201089202471
 33
0.0
210
0.0
220
0.0
230
1.0
  0
SOLID
  5
59A
  8
DRG
  6
CONTINUOUS
 62
     7
 10
153.91670289676611
 20
24.49617306789488
 30
0.0
 11
142.19367627621841
 21
23.2694361362894
 31
0.0
 12
154.99308270534181
 22
23.947730162103639
 32
0.0
 13
154.99308270534181
 23
23.947730162103639
 33
0.0
210
0.0
220
0.0
230
1.0
  0
SOLID
  5
59B
  8
DRG
  6
CONTINUOUS
 62
     7
 10
158.45581493249401
 20
24.49617306789488
 30
0.0
 11
157.3794351239184
 21
23.947730162103639
 31
0.0
 12
170.17883908394009
 22
23.2694361362894
 32
0.0
 13
170.17883908394009
 23
23.2694361362894
 33
0.0
210
0.0
220
0.0
230
1.0
  0
SOLID
  5
59C
  8
DRG
  6
CONTINUOUS
 62
     7
 10
57.104954624500678
 20
24.49617306789489
 30
0.0
 11
45.381928003952979
 21
23.269436136289279
 31
0.0
 12
58.18133443307633
 22
23.94773016210365
 32
0.0
 13
58.18133443307633
 23
23.94773016210365
 33
0.0
210
0.0
220
0.0
230
1.0
  0
SOLID
  5
59D
  8
DRG
  6
CONTINUOUS
 62
     7
 10
61.64406666022856
 20
24.49617306789489
 30
0.0
 11
60.567686851652887
 21
23.94773016210365
 31
0.0
 12
73.367090811674615
 22
23.2694361362894
 32
0.0
 13
73.367090811674615
 23
23.2694361362894
 33
0.0
210
0.0
220
0.0
230
1.0
  0
SOLID
  5
59E
  8
DRG
  6
CONTINUOUS
 62
     7
 10
93.593930496116869
 20
24.496173067894951
 30
0.0
 11
82.474422287265327
 21
22.98819641756462
 31
0.0
 12
94.670310304692478
 22
23.947730162103682
 32
0.0
 13
94.670310304692478
 23
23.947730162103682
 33
0.0
210
0.0
220
0.0
230
1.0
  0
SOLID
  5
59F
  8
DRG
  6
CONTINUOUS
 62
     7
 10
98.783379983525563
 20
24.710966367302891
 30
0.0
 11
97.385554555218334
 21
24.044368172161469
 31
0.0
 12
111.2523129779601
 22
23.54201089202471
 32
0.0
 13
111.2523129779601
 23
23.54201089202471
 33
0.0
210
0.0
220
0.0
230
1.0
  0
SOLID
  5
5A0
  8
DRG
  6
CONTINUOUS
 62
     7
 10
153.06248304414561
 20
25.350392920515421
 30
0.0
 11
142.19367627621841
 21
23.2694361362894
 31
0.0
 12
153.91670289676611
 22
24.49617306789488
 32
0.0
 13
153.91670289676611
 23
24.49617306789488
 33
0.0
210
0.0
220
0.0
230
1.0
  0
SOLID
  5
5A1
  8
DRG
  6
CONTINUOUS
 62
     7
 10
159.3100347851146
 20
25.350392920515429
 30
0.0
 11
158.45581493249401
 21
24.49617306789488
 31
0.0
 12
170.17883908394009
 22
23.2694361362894
 32
0.0
 13
170.17883908394009
 23
23.2694361362894
 33
0.0
210
0.0
220
0.0
230
1.0
  0
SOLID
  5
5A2
  8
DRG
  6
CONTINUOUS
 62
     7
 10
56.250734771880133
 20
25.350392920515429
 30
0.0
 11
45.381928003952979
 21
23.269436136289279
 31
0.0
 12
57.104954624500678
 22
24.49617306789489
 32
0.0
 13
57.104954624500678
 23
24.49617306789489
 33
0.0
210
0.0
220
0.0
230
1.0
  0
SOLID
  5
5A3
  8
DRG
  6
CONTINUOUS
 62
     7
 10
62.498286512849091
 20
25.350392920515429
 30
0.0
 11
61.64406666022856
 21
24.49617306789489
 31
0.0
 12
73.367090811674615
 22
23.2694361362894
 32
0.0
 13
73.367090811674615
 23
23.2694361362894
 33
0.0
210
0.0
220
0.0
230
1.0
  0
SOLID
  5
5A4
  8
DRG
  6
CONTINUOUS
 62
     7
 10
92.739710643496366
 20
25.350392920515478
 30
0.0
 11
82.474422287265327
 21
22.98819641756462
 31
0.0
 12
93.593930496116869
 22
24.496173067894951
 32
0.0
 13
93.593930496116869
 23
24.496173067894951
 33
0.0
  0
SOLID
  5
5A5
  8
DRG
  6
CONTINUOUS
 62
     7
 10
81.701646597276806
 20
25.370657593613689
 30
0.0
 11
82.474422287265327
 21
22.98819641756462
 31
0.0
 12
92.739710643496366
 22
25.350392920515478
 32
0.0
 13
92.739710643496366
 23
25.350392920515478
 33
0.0
210
0.0
220
0.0
230
1.0
  0
SOLID
  5
5A6
  8
DRG
  6
CONTINUOUS
 62
     7
 10
8.4162019599518825
 20
25.41435317419046
 30
0.0
 11
9.8117421052893903
 21
23.318364424456458
 31
0.0
 12
26.5765362782073
 22
23.961210465262731
 32
0.0
 13
26.5765362782073
 23
23.961210465262731
 33
0.0
  0
SOLID
  5
5A7
  8
DRG
  6
CONTINUOUS
 62
     7
 10
22.683854862926161
 20
25.455509253088579
 30
0.0
 11
8.4162019599518825
 21
25.41435317419046
 31
0.0
 12
26.5765362782073
 22
23.961210465262731
 32
0.0
 13
26.5765362782073
 23
23.961210465262731
 33
0.0
210
0.0
220
0.0
230
1.0
  0
SOLID
  5
5A8
  8
DRG
  6
CONTINUOUS
 62
     7
 10
44.699059029249632
 20
25.52055346047678
 30
0.0
 11
45.381928003952979
 21
23.269436136289279
 31
0.0
 12
56.250734771880133
 22
25.350392920515429
 32
0.0
 13
56.250734771880133
 23
25.350392920515429
 33
0.0
210
0.0
220
0.0
230
1.0
  0
SOLID
  5
5A9
  8
DRG
  6
CONTINUOUS
 62
     7
 10
74.04995978637794
 20
25.52055346047694
 30
0.0
 11
62.498286512849091
 21
25.350392920515429
 31
0.0
 12
73.367090811674615
 22
23.2694361362894
 32
0.0
 13
73.367090811674615
 23
23.2694361362894
 33
0.0
210
0.0
220
0.0
230
1.0
  0
SOLID
  5
5AA
  8
DRG
  6
CONTINUOUS
 62
     7
 10
170.86170805864339
 20
25.52055346047694
 30
0.0
 11
159.3100347851146
 21
25.350392920515429
 31
0.0
 12
170.17883908394009
 22
23.2694361362894
 32
0.0
 13
170.17883908394009
 23
23.2694361362894
 33
0.0
210
0.0
220
0.0
230
1.0
  0
SOLID
  5
5AB
  8
DRG
  6
CONTINUOUS
 62
     7
 10
141.51080730151509
 20
25.52055346047694
 30
0.0
 11
142.19367627621841
 21
23.2694361362894
 31
0.0
 12
153.06248304414561
 22
25.350392920515421
 32
0.0
 13
153.06248304414561
 23
25.350392920515421
 33
0.0
  0
SOLID
  5
5AC
  8
DRG
  6
CONTINUOUS
 62
     7
 10
21.324900358829058
 20
25.598514200010129
 30
0.0
 11
8.4162019599518825
 21
25.41435317419046
 31
0.0
 12
22.683854862926161
 22
25.455509253088579
 32
0.0
 13
22.683854862926161
 23
25.455509253088579
 33
0.0
210
0.0
220
0.0
230
1.0
  0
SOLID
  5
5AD
  8
DRG
  6
CONTINUOUS
 62
     7
 10
99.963368130020584
 20
25.713910561123939
 30
0.0
 11
98.783379983525563
 21
24.710966367302891
 31
0.0
 12
111.2523129779601
 22
23.54201089202471
 32
0.0
 13
111.2523129779601
 23
23.54201089202471
 33
0.0
  0
SOLID
  5
5AE
  8
DRG
  6
CONTINUOUS
 62
     7
 10
27.267121908897021
 20
25.817196576320061
 30
0.0
 11
22.683854862926161
 21
25.455509253088579
 31
0.0
 12
26.5765362782073
 22
23.961210465262731
 32
0.0
 13
26.5765362782073
 23
23.961210465262731
 33
0.0
210
0.0
220
0.0
230
1.0
  0
SOLID
  5
5AF
  8
DRG
  6
CONTINUOUS
 62
     7
 10
27.267121908897021
 20
25.817196576320061
 30
0.0
 11
27.267121908897021
 21
13.51984597021351
 31
0.0
 12
37.639779947293839
 22
13.760967175618781
 32
0.0
 13
37.639779947293839
 23
13.760967175618781
 33
0.0
  0
SOLID
  5
5B0
  8
DRG
  6
CONTINUOUS
 62
     7
 10
20.047581694184561
 20
26.08396737797953
 30
0.0
 11
8.4162019599518825
 21
25.41435317419046
 31
0.0
 12
21.324900358829058
 22
25.598514200010129
 32
0.0
 13
21.324900358829058
 23
25.598514200010129
 33
0.0
210
0.0
220
0.0
230
1.0
  0
SOLID
  5
5B1
  8
DRG
  6
CONTINUOUS
 62
     7
 10
24.307735067847531
 20
26.13412278224882
 30
0.0
 11
22.683854862926161
 21
25.455509253088579
 31
0.0
 12
27.267121908897021
 22
25.817196576320061
 32
0.0
 13
27.267121908897021
 23
25.817196576320061
 33
0.0
210
0.0
220
0.0
230
1.0
  0
SOLID
  5
5B2
  8
DRG
  6
CONTINUOUS
 62
     7
 10
152.5140401383544
 20
26.426772729091081
 30
0.0
 11
141.51080730151509
 21
25.52055346047694
 31
0.0
 12
153.06248304414561
 22
25.350392920515421
 32
0.0
 13
153.06248304414561
 23
25.350392920515421
 33
0.0
210
0.0
220
0.0
230
1.0
  0
SOLID
  5
5B3
  8
DRG
  6
CONTINUOUS
 62
     7
 10
159.8584776909058
 20
26.426772729091081
 30
0.0
 11
159.3100347851146
 21
25.350392920515429
 31
0.0
 12
170.86170805864339
 22
25.52055346047694
 32
0.0
 13
170.86170805864339
 23
25.52055346047694
 33
0.0
  0
SOLID
  5
5B4
  8
DRG
  6
CONTINUOUS
 62
     7
 10
55.702291866088899
 20
26.426772729091091
 30
0.0
 11
44.699059029249632
 21
25.52055346047678
 31
0.0
 12
56.250734771880133
 22
25.350392920515429
 32
0.0
 13
56.250734771880133
 23
25.350392920515429
 33
0.0
210
0.0
220
0.0
230
1.0
  0
SOLID
  5
5B5
  8
DRG
  6
CONTINUOUS
 62
     7
 10
63.046729418640332
 20
26.426772729091091
 30
0.0
 11
62.498286512849091
 21
25.350392920515429
 31
0.0
 12
74.04995978637794
 22
25.52055346047694
 32
0.0
 13
74.04995978637794
 23
25.52055346047694
 33
0.0
210
0.0
220
0.0
230
1.0
  0
SOLID
  5
5B6
  8
DRG
  6
CONTINUOUS
 62
     7
 10
92.191267737705175
 20
26.426772729091109
 30
0.0
 11
81.701646597276806
 21
25.370657593613689
 31
0.0
 12
92.739710643496366
 22
25.350392920515478
 32
0.0
 13
92.739710643496366
 23
25.350392920515478
 33
0.0
210
0.0
220
0.0
230
1.0
  0
SOLID
  5
5B7
  8
DRG
  6
CONTINUOUS
 62
     7
 10
18.936680407078839
 20
26.879647017882871
 30
0.0
 11
8.4162019599518825
 21
25.41435317419046
 31
0.0
 12
20.047581694184561
 22
26.08396737797953
 32
0.0
 13
20.047581694184561
 23
26.08396737797953
 33
0.0
  0
SOLID
  5
5B8
  8
DRG
  6
CONTINUOUS
 62
     7
 10
100.8465101302062
 20
26.98604628080799
 30
0.0
 11
99.963368130020584
 21
25.713910561123939
 31
0.0
 12
111.2523129779601
 22
23.54201089202471
 32
0.0
 13
111.2523129779601
 23
23.54201089202471
 33
0.0
  0
SOLID
  5
5B9
  8
DRG
  6
CONTINUOUS
 62
     7
 10
25.68195691611335
 20
27.233676125040169
 30
0.0
 11
24.307735067847531
 21
26.13412278224882
 31
0.0
 12
27.267121908897021
 22
25.817196576320061
 32
0.0
 13
27.267121908897021
 23
25.817196576320061
 33
0.0
210
0.0
220
0.0
230
1.0
  0
SOLID
  5
5BA
  8
DRG
  6
CONTINUOUS
 62
     7
 10
152.32505959223769
 20
27.619948938379359
 30
0.0
 11
141.51080730151509
 21
25.52055346047694
 31
0.0
 12
152.5140401383544
 22
26.426772729091081
 32
0.0
 13
152.5140401383544
 23
26.426772729091081
 33
0.0
210
0.0
220
0.0
230
1.0
  0
SOLID
  5
5BB
  8
DRG
  6
CONTINUOUS
 62
     7
 10
92.002287191588479
 20
27.619948938379359
 30
0.0
 11
81.701646597276806
 21
25.370657593613689
 31
0.0
 12
92.191267737705175
 22
26.426772729091109
 32
0.0
 13
92.191267737705175
 23
26.426772729091109
 33
0.0
210
0.0
220
0.0
230
1.0
  0
SOLID
  5
5BC
  8
DRG
  6
CONTINUOUS
 62
     7
 10
160.04745823702251
 20
27.619948938379359
 30
0.0
 11
159.8584776909058
 21
26.426772729091081
 31
0.0
 12
170.86170805864339
 22
25.52055346047694
 32
0.0
 13
170.86170805864339
 23
25.52055346047694
 33
0.0
  0
SOLID
  5
5BD
  8
DRG
  6
CONTINUOUS
 62
     7
 10
55.513311319972217
 20
27.61994893837937
 30
0.0
 11
44.699059029249632
 21
25.52055346047678
 31
0.0
 12
55.702291866088899
 22
26.426772729091091
 32
0.0
 13
55.702291866088899
 23
26.426772729091091
 33
0.0
210
0.0
220
0.0
230
1.0
  0
SOLID
  5
5BE
  8
DRG
  6
CONTINUOUS
 62
     7
 10
63.235709964757007
 20
27.61994893837937
 30
0.0
 11
63.046729418640332
 21
26.426772729091091
 31
0.0
 12
74.04995978637794
 22
25.52055346047694
 32
0.0
 13
74.04995978637794
 23
25.52055346047694
 33
0.0
  0
SOLID
  5
5BF
  8
DRG
  6
CONTINUOUS
 62
     7
 10
7.4843847060861783
 20
27.75367310563599
 30
0.0
 11
8.4162019599518825
 21
25.41435317419046
 31
0.0
 12
18.936680407078839
 22
26.879647017882871
 32
0.0
 13
18.936680407078839
 23
26.879647017882871
 33
0.0
210
0.0
220
0.0
230
1.0
  0
SOLID
  5
5C0
  8
DRG
  6
CONTINUOUS
 62
     7
 10
44.468482394088362
 20
27.861637324670291
 30
0.0
 11
44.699059029249632
 21
25.52055346047678
 31
0.0
 12
55.513311319972217
 22
27.61994893837937
 32
0.0
 13
55.513311319972217
 23
27.61994893837937
 33
0.0
210
0.0
220
0.0
230
1.0
  0
SOLID
  5
5C1
  8
DRG
  6
CONTINUOUS
 62
     7
 10
171.0922846938046
 20
27.861637324670479
 30
0.0
 11
160.04745823702251
 21
27.619948938379359
 31
0.0
 12
170.86170805864339
 22
25.52055346047694
 32
0.0
 13
170.86170805864339
 23
25.52055346047694
 33
0.0
210
0.0
220
0.0
230
1.0
  0
SOLID
  5
5C2
  8
DRG
  6
CONTINUOUS
 62
     7
 10
74.280536421539182
 20
27.861637324670479
 30
0.0
 11
63.235709964757007
 21
27.61994893837937
 31
0.0
 12
74.04995978637794
 22
25.52055346047694
 32
0.0
 13
74.04995978637794
 23
25.52055346047694
 33
0.0
210
0.0
220
0.0
230
1.0
  0
SOLID
  5
5C3
  8
DRG
  6
CONTINUOUS
 62
     7
 10
81.440258950509346
 20
27.861637324670479
 30
0.0
 11
81.701646597276806
 21
25.370657593613689
 31
0.0
 12
92.002287191588479
 22
27.619948938379359
 32
0.0
 13
92.002287191588479
 23
27.619948938379359
 33
0.0
210
0.0
220
0.0
230
1.0
  0
SOLID
  5
5C4
  8
DRG
  6
CONTINUOUS
 62
     7
 10
141.28023066635379
 20
27.861637324670479
 30
0.0
 11
141.51080730151509
 21
25.52055346047694
 31
0.0
 12
152.32505959223769
 22
27.619948938379359
 32
0.0
 13
152.32505959223769
 23
27.619948938379359
 33
0.0
  0
SOLID
  5
5C5
  8
DRG
  6
CONTINUOUS
 62
     7
 10
18.065932145780231
 20
27.932740187785338
 30
0.0
 11
7.4843847060861783
 21
27.75367310563599
 31
0.0
 12
18.936680407078839
 22
26.879647017882871
 32
0.0
 13
18.936680407078839
 23
26.879647017882871
 33
0.0
210
0.0
220
0.0
230
1.0
  0
SOLID
  5
5C6
  8
DRG
  6
CONTINUOUS
 62
     7
 10
101.373673147171
 20
28.442194705705901
 30
0.0
 11
100.8465101302062
 21
26.98604628080799
 31
0.0
 12
111.2523129779601
 22
23.54201089202471
 32
0.0
 13
111.2523129779601
 23
23.54201089202471
 33
0.0
210
0.0
220
0.0
230
1.0
  0
SOLID
  5
5C7
  8
DRG
  6
CONTINUOUS
 62
     7
 10
26.7002564035921
 20
28.66914447916551
 30
0.0
 11
25.68195691611335
 21
27.233676125040169
 31
0.0
 12
27.267121908897021
 22
25.817196576320061
 32
0.0
 13
27.267121908897021
 23
25.817196576320061
 33
0.0
  0
SOLID
  5
5C8
  8
DRG
  6
CONTINUOUS
 62
     7
 10
26.7002564035921
 20
28.66914447916551
 30
0.0
 11
27.267121908897021
 21
25.817196576320061
 31
0.0
 12
37.639779947293839
 22
13.760967175618781
 32
0.0
 13
37.639779947293839
 23
13.760967175618781
 33
0.0
  0
SOLID
  5
5C9
  8
DRG
  6
CONTINUOUS
 62
     7
 10
17.493132493272189
 20
29.17334823109978
 30
0.0
 11
7.4843847060861783
 21
27.75367310563599
 31
0.0
 12
18.065932145780231
 22
27.932740187785338
 32
0.0
 13
18.065932145780231
 23
27.932740187785338
 33
0.0
210
0.0
220
0.0
230
1.0
  0
SOLID
  5
5CA
  8
DRG
  6
CONTINUOUS
 62
     7
 10
160.04745823702251
 20
29.300230626583549
 30
0.0
 11
160.04745823702251
 21
27.619948938379359
 31
0.0
 12
171.0922846938046
 22
27.861637324670479
 32
0.0
 13
171.0922846938046
 23
27.861637324670479
 33
0.0
210
0.0
220
0.0
230
1.0
  0
SOLID
  5
5CB
  8
DRG
  6
CONTINUOUS
 62
     7
 10
152.32505959223769
 20
29.959298931438969
 30
0.0
 11
141.28023066635379
 21
27.861637324670479
 31
0.0
 12
152.32505959223769
 22
27.619948938379359
 32
0.0
 13
152.32505959223769
 23
27.619948938379359
 33
0.0
210
0.0
220
0.0
230
1.0
  0
SOLID
  5
5CC
  8
DRG
  6
CONTINUOUS
 62
     7
 10
141.28023066635379
 20
29.95929893143898
 30
0.0
 11
141.28023066635379
 21
27.861637324670479
 31
0.0
 12
152.32505959223769
 22
29.959298931438969
 32
0.0
 13
152.32505959223769
 23
29.959298931438969
 33
0.0
210
0.0
220
0.0
230
1.0
  0
SOLID
  5
5CD
  8
DRG
  6
CONTINUOUS
 62
     7
 10
171.0922846938046
 20
29.95929893143904
 30
0.0
 11
160.04745823702251
 21
29.300230626583549
 31
0.0
 12
171.0922846938046
 22
27.861637324670479
 32
0.0
 13
171.0922846938046
 23
27.861637324670479
 33
0.0
210
0.0
220
0.0
230
1.0
  0
SOLID
  5
5CE
  8
DRG
  6
CONTINUOUS
 62
     7
 10
101.5095597489034
 20
29.984856014372749
 30
0.0
 11
101.373673147171
 21
28.442194705705901
 31
0.0
 12
111.2523129779601
 22
23.54201089202471
 32
0.0
 13
111.2523129779601
 23
23.54201089202471
 33
0.0
210
0.0
220
0.0
230
1.0
  0
SOLID
  5
5CF
  8
DRG
  6
CONTINUOUS
 62
     7
 10
7.0565934473582743
 20
30.23514359210488
 30
0.0
 11
7.4843847060861783
 21
27.75367310563599
 31
0.0
 12
17.493132493272189
 22
29.17334823109978
 32
0.0
 13
17.493132493272189
 23
29.17334823109978
 33
0.0
  0
SOLID
  5
5D0
  8
DRG
  6
CONTINUOUS
 62
     7
 10
27.2838918183243
 20
30.329527851933712
 30
0.0
 11
26.7002564035921
 21
28.66914447916551
 31
0.0
 12
37.639779947293839
 22
13.760967175618781
 32
0.0
 13
37.639779947293839
 23
13.760967175618781
 33
0.0
210
0.0
220
0.0
230
1.0
  0
SOLID
  5
5D1
  8
DRG
  6
CONTINUOUS
 62
     7
 10
17.256300807526252
 20
30.5191262631974
 30
0.0
 11
7.0565934473582743
 21
30.23514359210488
 31
0.0
 12
17.493132493272189
 22
29.17334823109978
 32
0.0
 13
17.493132493272189
 23
29.17334823109978
 33
0.0
210
0.0
220
0.0
230
1.0
  0
SOLID
  5
5D2
  8
DRG
  6
CONTINUOUS
 62
     7
 10
63.235709964757
 20
30.81688778835381
 30
0.0
 11
63.235709964757007
 21
27.61994893837937
 31
0.0
 12
74.280536421539182
 22
27.861637324670479
 32
0.0
 13
74.280536421539182
 23
27.861637324670479
 33
0.0
210
0.0
220
0.0
230
1.0
  0
SOLID
  5
5D3
  8
DRG
  6
CONTINUOUS
 62
     7
 10
74.280536421539196
 20
30.816887788353831
 30
0.0
 11
63.235709964757
 21
30.81688778835381
 31
0.0
 12
74.280536421539182
 22
27.861637324670479
 32
0.0
 13
74.280536421539182
 23
27.861637324670479
 33
0.0
210
0.0
220
0.0
230
1.0
  0
SOLID
  5
5D4
  8
DRG
  6
CONTINUOUS
 62
     7
 10
159.01581968400799
 20
30.996563617445211
 30
0.0
 11
160.04745823702251
 21
29.300230626583549
 31
0.0
 12
171.0922846938046
 22
29.95929893143904
 32
0.0
 13
171.0922846938046
 23
29.95929893143904
 33
0.0
210
0.0
220
0.0
230
1.0
  0
SOLID
  5
5D5
  8
DRG
  6
CONTINUOUS
 62
     7
 10
27.387732575171409
 20
32.086434320449378
 30
0.0
 11
27.2838918183243
 21
30.329527851933712
 31
0.0
 12
37.639779947293839
 22
13.760967175618781
 32
0.0
 13
37.639779947293839
 23
13.760967175618781
 33
0.0
210
0.0
220
0.0
230
1.0
  0
SOLID
  5
5D6
  8
DRG
  6
CONTINUOUS
 62
     7
 10
157.53297815821909
 20
32.316792661720299
 30
0.0
 11
159.01581968400799
 21
30.996563617445211
 31
0.0
 12
171.0922846938046
 22
29.95929893143904
 32
0.0
 13
171.0922846938046
 23
29.95929893143904
 33
0.0
210
0.0
220
0.0
230
1.0
  0
SOLID
  5
5D7
  8
DRG
  6
CONTINUOUS
 62
     7
 10
81.440258950509346
 20
32.349374231810209
 30
0.0
 11
81.440258950509346
 21
27.861637324670479
 31
0.0
 12
92.002287191588479
 22
27.619948938379359
 32
0.0
 13
92.002287191588479
 23
27.619948938379359
 33
0.0
210
0.0
220
0.0
230
1.0
  0
SOLID
  5
5D8
  8
DRG
  6
CONTINUOUS
 62
     7
 10
170.47732661026529
 20
32.356132664391282
 30
0.0
 11
157.53297815821909
 21
32.316792661720299
 31
0.0
 12
171.0922846938046
 22
29.95929893143904
 32
0.0
 13
171.0922846938046
 23
29.95929893143904
 33
0.0
210
0.0
220
0.0
230
1.0
  0
SOLID
  5
5D9
  8
DRG
  6
CONTINUOUS
 62
     7
 10
92.002287191588479
 20
33.041326503689838
 30
0.0
 11
81.440258950509346
 21
32.349374231810209
 31
0.0
 12
92.002287191588479
 22
27.619948938379359
 32
0.0
 13
92.002287191588479
 23
27.619948938379359
 33
0.0
210
0.0
220
0.0
230
1.0
  0
SOLID
  5
5DA
  8
DRG
  6
CONTINUOUS
 62
     7
 10
155.72873071743231
 20
33.145354604103439
 30
0.0
 11
157.53297815821909
 21
32.316792661720299
 31
0.0
 12
170.47732661026529
 22
32.356132664391282
 32
0.0
 13
170.47732661026529
 23
32.356132664391282
 33
0.0
210
0.0
220
0.0
230
1.0
  0
SOLID
  5
5DB
  8
DRG
  6
CONTINUOUS
 62
     7
 10
152.98516973426729
 20
33.970446153339353
 30
0.0
 11
155.72873071743231
 21
33.145354604103439
 31
0.0
 12
170.47732661026529
 22
32.356132664391282
 32
0.0
 13
170.47732661026529
 23
32.356132664391282
 33
0.0
210
0.0
220
0.0
230
1.0
  0
SOLID
  5
5DC
  8
DRG
  6
CONTINUOUS
 62
     7
 10
92.608158805665866
 20
34.516652178663861
 30
0.0
 11
81.440258950509346
 21
32.349374231810209
 31
0.0
 12
92.002287191588479
 22
33.041326503689838
 32
0.0
 13
92.002287191588479
 23
33.041326503689838
 33
0.0
210
0.0
220
0.0
230
1.0
  0
SOLID
  5
5DD
  8
DRG
  6
CONTINUOUS
 62
     7
 10
169.3838362766385
 20
34.575876856453249
 30
0.0
 11
152.98516973426729
 21
33.970446153339353
 31
0.0
 12
170.47732661026529
 22
32.356132664391282
 32
0.0
 13
170.47732661026529
 23
32.356132664391282
 33
0.0
210
0.0
220
0.0
230
1.0
  0
SOLID
  5
5DE
  8
DRG
  6
CONTINUOUS
 62
     7
 10
81.985263960363469
 20
34.77663157388757
 30
0.0
 11
81.440258950509346
 21
32.349374231810209
 31
0.0
 12
92.608158805665866
 22
34.516652178663861
 32
0.0
 13
92.608158805665866
 23
34.516652178663861
 33
0.0
210
0.0
220
0.0
230
1.0
  0
SOLID
  5
5DF
  8
DRG
  6
CONTINUOUS
 62
     7
 10
150.3822216232935
 20
35.167343836745772
 30
0.0
 11
152.98516973426729
 21
33.970446153339353
 31
0.0
 12
169.3838362766385
 22
34.575876856453249
 32
0.0
 13
169.3838362766385
 23
34.575876856453249
 33
0.0
210
0.0
220
0.0
230
1.0
  0
SOLID
  5
5E0
  8
DRG
  6
CONTINUOUS
 62
     7
 10
55.513311319972232
 20
35.629722934820848
 30
0.0
 11
44.468482394088362
 21
27.861637324670291
 31
0.0
 12
55.513311319972217
 22
27.61994893837937
 32
0.0
 13
55.513311319972217
 23
27.61994893837937
 33
0.0
210
0.0
220
0.0
230
1.0
  0
SOLID
  5
5E1
  8
DRG
  6
CONTINUOUS
 62
     7
 10
93.593074411603624
 20
35.771087314158173
 30
0.0
 11
81.985263960363469
 21
34.77663157388757
 31
0.0
 12
92.608158805665866
 22
34.516652178663861
 32
0.0
 13
92.608158805665866
 23
34.516652178663861
 33
0.0
210
0.0
220
0.0
230
1.0
  0
SOLID
  5
5E2
  8
DRG
  6
CONTINUOUS
 62
     7
 10
44.169020821240288
 20
36.461122307958632
 30
0.0
 11
55.513311319972232
 21
35.629722934820848
 31
0.0
 12
74.280536421539182
 22
35.629722934820848
 32
0.0
 13
74.280536421539182
 23
35.629722934820848
 33
0.0
210
0.0
220
0.0
230
1.0
  0
SOLID
  5
5E3
  8
DRG
  6
CONTINUOUS
 62
     7
 10
44.169020821240288
 20
36.461122307958632
 30
0.0
 11
44.468482394088362
 21
27.861637324670291
 31
0.0
 12
55.513311319972232
 22
35.629722934820848
 32
0.0
 13
55.513311319972232
 23
35.629722934820848
 33
0.0
210
0.0
220
0.0
230
1.0
  0
SOLID
  5
5E4
  8
DRG
  6
CONTINUOUS
 62
     7
 10
167.85830970219251
 20
36.524146360035118
 30
0.0
 11
150.3822216232935
 21
35.167343836745772
 31
0.0
 12
169.3838362766385
 22
34.575876856453249
 32
0.0
 13
169.3838362766385
 23
34.575876856453249
 33
0.0
  0
SOLID
  5
5E5
  8
DRG
  6
CONTINUOUS
 62
     7
 10
94.88251018784689
 20
36.709714843546827
 30
0.0
 11
81.985263960363469
 21
34.77663157388757
 31
0.0
 12
93.593074411603624
 22
35.771087314158173
 32
0.0
 13
93.593074411603624
 23
35.771087314158173
 33
0.0
210
0.0
220
0.0
230
1.0
  0
SOLID
  5
5E6
  8
DRG
  6
CONTINUOUS
 62
     7
 10
147.96999619585119
 20
36.713005966762211
 30
0.0
 11
150.3822216232935
 21
35.167343836745772
 31
0.0
 12
167.85830970219251
 22
36.524146360035118
 32
0.0
 13
167.85830970219251
 23
36.524146360035118
 33
0.0
210
0.0
220
0.0
230
1.0
  0
SOLID
  5
5E7
  8
DRG
  6
CONTINUOUS
 62
     7
 10
83.019036262207464
 20
37.03935636788588
 30
0.0
 11
81.985263960363469
 21
34.77663157388757
 31
0.0
 12
94.88251018784689
 22
36.709714843546827
 32
0.0
 13
94.88251018784689
 23
36.709714843546827
 33
0.0
210
0.0
220
0.0
230
1.0
  0
SOLID
  5
5E8
  8
DRG
  6
CONTINUOUS
 62
     7
 10
96.378900737811577
 20
37.261513341151442
 30
0.0
 11
83.019036262207464
 21
37.03935636788588
 31
0.0
 12
94.88251018784689
 22
36.709714843546827
 32
0.0
 13
94.88251018784689
 23
36.709714843546827
 33
0.0
210
0.0
220
0.0
230
1.0
  0
SOLID
  5
5E9
  8
DRG
  6
CONTINUOUS
 62
     7
 10
97.969021393668683
 20
37.384730871555568
 30
0.0
 11
83.019036262207464
 21
37.03935636788588
 31
0.0
 12
96.378900737811577
 22
37.261513341151442
 32
0.0
 13
96.378900737811577
 23
37.261513341151442
 33
0.0
210
0.0
220
0.0
230
1.0
  0
SOLID
  5
5EA
  8
DRG
  6
CONTINUOUS
 62
     7
 10
101.5095597489034
 20
37.384730871555568
 30
0.0
 11
101.5095597489034
 21
29.984856014372749
 31
0.0
 12
111.2523129779601
 22
23.54201089202471
 32
0.0
 13
111.2523129779601
 23
23.54201089202471
 33
0.0
210
0.0
220
0.0
230
1.0
  0
SOLID
  5
5EB
  8
DRG
  6
CONTINUOUS
 62
     7
 10
165.96561339334559
 20
38.118099329982897
 30
0.0
 11
147.96999619585119
 21
36.713005966762211
 31
0.0
 12
167.85830970219251
 22
36.524146360035118
 32
0.0
 13
167.85830970219251
 23
36.524146360035118
 33
0.0
210
0.0
220
0.0
230
1.0
  0
SOLID
  5
5EC
  8
DRG
  6
CONTINUOUS
 62
     7
 10
6.7865631049779154
 20
38.202265524009427
 30
0.0
 11
7.0565934473582743
 21
30.23514359210488
 31
0.0
 12
17.256300807526252
 22
30.5191262631974
 32
0.0
 13
17.256300807526252
 23
30.5191262631974
 33
0.0
210
0.0
220
0.0
230
1.0
  0
SOLID
  5
5ED
  8
DRG
  6
CONTINUOUS
 62
     7
 10
145.79493162739621
 20
38.577676730199528
 30
0.0
 11
147.96999619585119
 21
36.713005966762211
 31
0.0
 12
165.96561339334559
 22
38.118099329982897
 32
0.0
 13
165.96561339334559
 23
38.118099329982897
 33
0.0
210
0.0
220
0.0
230
1.0
  0
SOLID
  5
5EE
  8
DRG
  6
CONTINUOUS
 62
     7
 10
84.497147993365729
 20
39.040304736946602
 30
0.0
 11
83.019036262207464
 21
37.03935636788588
 31
0.0
 12
97.969021393668683
 22
37.384730871555568
 32
0.0
 13
97.969021393668683
 23
37.384730871555568
 33
0.0
  0
SOLID
  5
5EF
  8
DRG
  6
CONTINUOUS
 62
     7
 10
163.78622618233979
 20
39.289959719462992
 30
0.0
 11
145.79493162739621
 21
38.577676730199528
 31
0.0
 12
165.96561339334559
 22
38.118099329982897
 32
0.0
 13
165.96561339334559
 23
38.118099329982897
 33
0.0
  0
SOLID
  5
5F0
  8
DRG
  6
CONTINUOUS
 62
     7
 10
161.4128172083947
 20
39.98989916707626
 30
0.0
 11
145.79493162739621
 21
38.577676730199528
 31
0.0
 12
163.78622618233979
 22
39.289959719462992
 32
0.0
 13
163.78622618233979
 23
39.289959719462992
 33
0.0
210
0.0
220
0.0
230
1.0
  0
SOLID
  5
5F1
  8
DRG
  6
CONTINUOUS
 62
     7
 10
159.18695030849
 20
40.665065806460063
 30
0.0
 11
145.79493162739621
 21
38.577676730199528
 31
0.0
 12
161.4128172083947
 22
39.98989916707626
 32
0.0
 13
161.4128172083947
 23
39.98989916707626
 33
0.0
210
0.0
220
0.0
230
1.0
  0
SOLID
  5
5F2
  8
DRG
  6
CONTINUOUS
 62
     7
 10
86.356075160311036
 20
40.693483025404078
 30
0.0
 11
84.497147993365729
 21
39.040304736946602
 31
0.0
 12
97.969021393668683
 22
37.384730871555568
 32
0.0
 13
97.969021393668683
 23
37.384730871555568
 33
0.0
210
0.0
220
0.0
230
1.0
  0
SOLID
  5
5F3
  8
DRG
  6
CONTINUOUS
 62
     7
 10
86.356075160311036
 20
40.693483025404078
 30
0.0
 11
97.969021393668683
 21
37.384730871555568
 31
0.0
 12
101.5095597489034
 22
37.384730871555568
 32
0.0
 13
101.5095597489034
 23
37.384730871555568
 33
0.0
210
0.0
220
0.0
230
1.0
  0
SOLID
  5
5F4
  8
DRG
  6
CONTINUOUS
 62
     7
 10
143.89890046802631
 20
40.725459022626843
 30
0.0
 11
145.79493162739621
 21
38.577676730199528
 31
0.0
 12
159.18695030849
 22
40.665065806460063
 32
0.0
 13
159.18695030849
 23
40.665065806460063
 33
0.0
210
0.0
220
0.0
230
1.0
  0
SOLID
  5
5F5
  8
DRG
  6
CONTINUOUS
 62
     7
 10
127.2345352189994
 20
40.740104065808097
 30
0.0
 11
116.19314081319391
 21
17.28637227261407
 31
0.0
 12
127.2345352189994
 22
17.28637227261407
 32
0.0
 13
127.2345352189994
 23
17.28637227261407
 33
0.0
210
0.0
220
0.0
230
1.0
  0
SOLID
  5
5F6
  8
DRG
  6
CONTINUOUS
 62
     7
 10
157.0907498111003
 20
41.67317141688541
 30
0.0
 11
143.89890046802631
 21
40.725459022626843
 31
0.0
 12
159.18695030849
 22
40.665065806460063
 32
0.0
 13
159.18695030849
 23
40.665065806460063
 33
0.0
210
0.0
220
0.0
230
1.0
  0
SOLID
  5
5F7
  8
DRG
  6
CONTINUOUS
 62
     7
 10
55.51331131997221
 20
41.923431282527638
 30
0.0
 11
44.169020821240288
 21
36.461122307958632
 31
0.0
 12
74.280536421539182
 22
35.629722934820848
 32
0.0
 13
74.280536421539182
 23
35.629722934820848
 33
0.0
210
0.0
220
0.0
230
1.0
  0
SOLID
  5
5F8
  8
DRG
  6
CONTINUOUS
 62
     7
 10
63.235709964756971
 20
41.923431282527652
 30
0.0
 11
55.51331131997221
 21
41.923431282527638
 31
0.0
 12
74.280536421539182
 22
35.629722934820848
 32
0.0
 13
74.280536421539182
 23
35.629722934820848
 33
0.0
210
0.0
220
0.0
230
1.0
  0
SOLID
  5
5F9
  8
DRG
  6
CONTINUOUS
 62
     7
 10
88.515927674336666
 20
41.927843500748189
 30
0.0
 11
86.356075160311036
 21
40.693483025404078
 31
0.0
 12
101.5095597489034
 22
37.384730871555568
 32
0.0
 13
101.5095597489034
 23
37.384730871555568
 33
0.0
210
0.0
220
0.0
230
1.0
  0
SOLID
  5
5FA
  8
DRG
  6
CONTINUOUS
 62
     7
 10
127.4351119215448
 20
42.520271537458619
 30
0.0
 11
116.19314081319391
 21
17.28637227261407
 31
0.0
 12
127.2345352189994
 22
40.740104065808097
 32
0.0
 13
127.2345352189994
 23
40.740104065808097
 33
0.0
210
0.0
220
0.0
230
1.0
  0
SOLID
  5
5FB
  8
DRG
  6
CONTINUOUS
 62
     7
 10
90.883882743884527
 20
42.690337732881808
 30
0.0
 11
88.515927674336666
 21
41.927843500748189
 31
0.0
 12
101.5095597489034
 22
37.384730871555568
 32
0.0
 13
101.5095597489034
 23
37.384730871555568
 33
0.0
210
0.0
220
0.0
230
1.0
  0
SOLID
  5
5FC
  8
DRG
  6
CONTINUOUS
 62
     7
 10
93.358174068518778
 20
42.948196427274922
 30
0.0
 11
90.883882743884527
 21
42.690337732881808
 31
0.0
 12
101.5095597489034
 22
37.384730871555568
 32
0.0
 13
101.5095597489034
 23
37.384730871555568
 33
0.0
210
0.0
220
0.0
230
1.0
  0
SOLID
  5
5FD
  8
DRG
  6
CONTINUOUS
 62
     7
 10
101.5095597489034
 20
37.384730871555568
 30
0.0
 11
100.207486521178
 21
42.948196427274922
 31
0.0
 12
93.358174068518778
 22
42.948196427274922
 32
0.0
 13
93.358174068518778
 23
42.948196427274922
 33
0.0
  0
SOLID
  5
5FE
  8
DRG
  6
CONTINUOUS
 62
     7
 10
100.207486521178
 20
42.948196427274922
 30
0.0
 11
101.5095597489034
 21
37.384730871555568
 31
0.0
 12
111.2523129779601
 22
23.54201089202471
 32
0.0
 13
111.2523129779601
 23
23.54201089202471
 33
0.0
  0
SOLID
  5
5FF
  8
DRG
  6
CONTINUOUS
 62
     7
 10
155.17367747190539
 20
42.990428830347881
 30
0.0
 11
143.89890046802631
 21
40.725459022626843
 31
0.0
 12
157.0907498111003
 22
41.67317141688541
 32
0.0
 13
157.0907498111003
 23
41.67317141688541
 33
0.0
210
0.0
220
0.0
230
1.0
  0
SOLID
  5
600
  8
DRG
  6
CONTINUOUS
 62
     7
 10
142.3184035466634
 20
43.11500550983493
 30
0.0
 11
143.89890046802631
 21
40.725459022626843
 31
0.0
 12
155.17367747190539
 22
42.990428830347881
 32
0.0
 13
155.17367747190539
 23
42.990428830347881
 33
0.0
  0
SOLID
  5
601
  8
DRG
  6
CONTINUOUS
 62
     7
 10
128.02678427577999
 20
44.211173978748569
 30
0.0
 11
116.19314081319391
 21
17.28637227261407
 31
0.0
 12
127.4351119215448
 22
42.520271537458619
 32
0.0
 13
127.4351119215448
 23
42.520271537458619
 33
0.0
210
0.0
220
0.0
230
1.0
  0
SOLID
  5
602
  8
DRG
  6
CONTINUOUS
 62
     7
 10
153.4809683549079
 20
44.585756161105429
 30
0.0
 11
142.3184035466634
 21
43.11500550983493
 31
0.0
 12
155.17367747190539
 22
42.990428830347881
 32
0.0
 13
155.17367747190539
 23
42.990428830347881
 33
0.0
210
0.0
220
0.0
230
1.0
  0
SOLID
  5
603
  8
DRG
  6
CONTINUOUS
 62
     7
 10
27.387732575171409
 20
44.745475926535612
 30
0.0
 11
27.387732575171409
 21
32.086434320449378
 31
0.0
 12
37.639779947293839
 22
13.760967175618781
 32
0.0
 13
37.639779947293839
 23
13.760967175618781
 33
0.0
210
0.0
220
0.0
230
1.0
  0
SOLID
  5
604
  8
DRG
  6
CONTINUOUS
 62
     7
 10
141.68103748780231
 20
44.96578368522475
 30
0.0
 11
142.3184035466634
 21
43.11500550983493
 31
0.0
 12
153.4809683549079
 22
44.585756161105429
 32
0.0
 13
153.4809683549079
 23
44.585756161105429
 33
0.0
210
0.0
220
0.0
230
1.0
  0
SOLID
  5
605
  8
DRG
  6
CONTINUOUS
 62
     7
 10
111.2523129779601
 20
45.06060729124669
 30
0.0
 11
100.207486521178
 21
42.948196427274922
 31
0.0
 12
111.2523129779601
 22
23.54201089202471
 32
0.0
 13
111.2523129779601
 23
23.54201089202471
 33
0.0
  0
SOLID
  5
606
  8
DRG
  6
CONTINUOUS
 62
     7
 10
74.280536421539182
 20
45.06060729124669
 30
0.0
 11
63.235709964756971
 21
41.923431282527652
 31
0.0
 12
74.280536421539182
 22
35.629722934820848
 32
0.0
 13
74.280536421539182
 23
35.629722934820848
 33
0.0
  0
SOLID
  5
607
  8
DRG
  6
CONTINUOUS
 62
     7
 10
44.468482394088362
 20
45.06060729124696
 30
0.0
 11
44.169020821240288
 21
36.461122307958632
 31
0.0
 12
55.51331131997221
 22
41.923431282527638
 32
0.0
 13
55.51331131997221
 23
41.923431282527638
 33
0.0
210
0.0
220
0.0
230
1.0
  0
SOLID
  5
608
  8
DRG
  6
CONTINUOUS
 62
     7
 10
152.7676036732239
 20
45.45462446566345
 30
0.0
 11
141.68103748780231
 21
44.96578368522475
 31
0.0
 12
153.4809683549079
 22
44.585756161105429
 32
0.0
 13
153.4809683549079
 23
44.585756161105429
 33
0.0
  0
SOLID
  5
609
  8
DRG
  6
CONTINUOUS
 62
     7
 10
7.0305774038875759
 20
46.17022669896302
 30
0.0
 11
6.7865631049779154
 21
38.202265524009427
 31
0.0
 12
17.256300807526252
 22
30.5191262631974
 32
0.0
 13
17.256300807526252
 23
30.5191262631974
 33
0.0
  0
SOLID
  5
60A
  8
DRG
  6
CONTINUOUS
 62
     7
 10
17.256300807526252
 20
46.312783983787632
 30
0.0
 11
7.0305774038875759
 21
46.17022669896302
 31
0.0
 12
17.256300807526252
 22
30.5191262631974
 32
0.0
 13
17.256300807526252
 23
30.5191262631974
 33
0.0
210
0.0
220
0.0
230
1.0
  0
SOLID
  5
60B
  8
DRG
  6
CONTINUOUS
 62
     7
 10
160.04745823702251
 20
46.421288526219293
 30
0.0
 11
160.04745823702251
 21
45.21828747592599
 31
0.0
 12
171.0912486890569
 22
45.21828747592599
 32
0.0
 13
171.0912486890569
 23
45.21828747592599
 33
0.0
210
0.0
220
0.0
230
1.0
  0
SOLID
  5
60C
  8
DRG
  6
CONTINUOUS
 62
     7
 10
27.28389181832431
 20
46.502382395051256
 30
0.0
 11
27.387732575171409
 21
44.745475926535612
 31
0.0
 12
37.639779947293839
 22
13.760967175618781
 32
0.0
 13
37.639779947293839
 23
13.760967175618781
 33
0.0
210
0.0
220
0.0
230
1.0
  0
SOLID
  5
60D
  8
DRG
  6
CONTINUOUS
 62
     7
 10
152.43266305936851
 20
46.527767552548831
 30
0.0
 11
141.68103748780231
 21
44.96578368522475
 31
0.0
 12
152.7676036732239
 22
45.45462446566345
 32
0.0
 13
152.7676036732239
 23
45.45462446566345
 33
0.0
210
0.0
220
0.0
230
1.0
  0
SOLID
  5
60E
  8
DRG
  6
CONTINUOUS
 62
     7
 10
63.235709964757007
 20
46.690614073903127
 30
0.0
 11
63.235709964756971
 21
41.923431282527652
 31
0.0
 12
74.280536421539182
 22
45.06060729124669
 32
0.0
 13
74.280536421539182
 23
45.06060729124669
 33
0.0
210
0.0
220
0.0
230
1.0
  0
SOLID
  5
60F
  8
DRG
  6
CONTINUOUS
 62
     7
 10
55.513311319972217
 20
46.690614073903141
 30
0.0
 11
44.468482394088362
 21
45.06060729124696
 31
0.0
 12
55.51331131997221
 22
41.923431282527638
 32
0.0
 13
55.51331131997221
 23
41.923431282527638
 33
0.0
210
0.0
220
0.0
230
1.0
  0
SOLID
  5
610
  8
DRG
  6
CONTINUOUS
 62
     7
 10
141.53564323306159
 20
46.917827705777547
 30
0.0
 11
141.68103748780231
 21
44.96578368522475
 31
0.0
 12
152.43266305936851
 22
46.527767552548831
 32
0.0
 13
152.43266305936851
 23
46.527767552548831
 33
0.0
  0
SOLID
  5
611
  8
DRG
  6
CONTINUOUS
 62
     7
 10
92.485087876393209
 20
47.313129977668268
 30
0.0
 11
81.470405744524527
 21
45.910674481046733
 31
0.0
 12
92.485087876393209
 22
45.910674481046733
 32
0.0
 13
92.485087876393209
 23
45.910674481046733
 33
0.0
210
0.0
220
0.0
230
1.0
  0
SOLID
  5
612
  8
DRG
  6
CONTINUOUS
 62
     7
 10
100.2074865211779
 20
47.313129977668268
 30
0.0
 11
100.207486521178
 21
42.948196427274922
 31
0.0
 12
111.2523129779601
 22
45.06060729124669
 32
0.0
 13
111.2523129779601
 23
45.06060729124669
 33
0.0
210
0.0
220
0.0
230
1.0
  0
SOLID
  5
613
  8
DRG
  6
CONTINUOUS
 62
     7
 10
111.0217363427989
 20
47.401691155440233
 30
0.0
 11
100.2074865211779
 21
47.313129977668268
 31
0.0
 12
111.2523129779601
 22
45.06060729124669
 32
0.0
 13
111.2523129779601
 23
45.06060729124669
 33
0.0
210
0.0
220
0.0
230
1.0
  0
SOLID
  5
614
  8
DRG
  6
CONTINUOUS
 62
     7
 10
74.04995978637794
 20
47.401691155440233
 30
0.0
 11
63.235709964757007
 21
46.690614073903127
 31
0.0
 12
74.280536421539182
 22
45.06060729124669
 32
0.0
 13
74.280536421539182
 23
45.06060729124669
 33
0.0
210
0.0
220
0.0
230
1.0
  0
SOLID
  5
615
  8
DRG
  6
CONTINUOUS
 62
     7
 10
44.699059029249632
 20
47.401691155440453
 30
0.0
 11
44.468482394088362
 21
45.06060729124696
 31
0.0
 12
55.513311319972217
 22
46.690614073903141
 32
0.0
 13
55.513311319972217
 23
46.690614073903141
 33
0.0
210
0.0
220
0.0
230
1.0
  0
SOLID
  5
616
  8
DRG
  6
CONTINUOUS
 62
     7
 10
170.83401328102289
 20
47.536856427359872
 30
0.0
 11
160.04745823702251
 21
46.421288526219293
 31
0.0
 12
171.0912486890569
 22
45.21828747592599
 32
0.0
 13
171.0912486890569
 23
45.21828747592599
 33
0.0
210
0.0
220
0.0
230
1.0
  0
SOLID
  5
617
  8
DRG
  6
CONTINUOUS
 62
     7
 10
159.85969387221371
 20
47.610715203087587
 30
0.0
 11
160.04745823702251
 21
46.421288526219293
 31
0.0
 12
170.83401328102289
 22
47.536856427359872
 32
0.0
 13
170.83401328102289
 23
47.536856427359872
 33
0.0
  0
SOLID
  5
618
  8
DRG
  6
CONTINUOUS
 62
     7
 10
152.52515784094209
 20
47.648154099737518
 30
0.0
 11
141.53564323306159
 21
46.917827705777547
 31
0.0
 12
152.43266305936851
 22
46.527767552548831
 32
0.0
 13
152.43266305936851
 23
46.527767552548831
 33
0.0
210
0.0
220
0.0
230
1.0
  0
SOLID
  5
619
  8
DRG
  6
CONTINUOUS
 62
     7
 10
17.493132493272199
 20
47.658562015885273
 30
0.0
 11
7.0305774038875759
 21
46.17022669896302
 31
0.0
 12
17.256300807526252
 22
46.312783983787632
 32
0.0
 13
17.256300807526252
 23
46.312783983787632
 33
0.0
210
0.0
220
0.0
230
1.0
  0
SOLID
  5
61A
  8
DRG
  6
CONTINUOUS
 62
     7
 10
63.046729418640332
 20
47.883790283191409
 30
0.0
 11
63.235709964757007
 21
46.690614073903127
 31
0.0
 12
74.04995978637794
 22
47.401691155440233
 32
0.0
 13
74.04995978637794
 23
47.401691155440233
 33
0.0
  0
SOLID
  5
61B
  8
DRG
  6
CONTINUOUS
 62
     7
 10
55.702291866088892
 20
47.883790283191423
 30
0.0
 11
44.699059029249632
 21
47.401691155440453
 31
0.0
 12
55.513311319972217
 22
46.690614073903141
 32
0.0
 13
55.513311319972217
 23
46.690614073903141
 33
0.0
210
0.0
220
0.0
230
1.0
  0
SOLID
  5
61C
  8
DRG
  6
CONTINUOUS
 62
     7
 10
81.838613850140788
 20
48.126847817541709
 30
0.0
 11
81.470405744524527
 21
45.910674481046733
 31
0.0
 12
92.485087876393209
 22
47.313129977668268
 32
0.0
 13
92.485087876393209
 23
47.313129977668268
 33
0.0
  0
SOLID
  5
61D
  8
DRG
  6
CONTINUOUS
 62
     7
 10
7.2724805460411552
 20
48.444821990224007
 30
0.0
 11
7.0305774038875759
 21
46.17022669896302
 31
0.0
 12
17.493132493272199
 22
47.658562015885273
 32
0.0
 13
17.493132493272199
 23
47.658562015885273
 33
0.0
210
0.0
220
0.0
230
1.0
  0
SOLID
  5
61E
  8
DRG
  6
CONTINUOUS
 62
     7
 10
92.674068422509905
 20
48.50630618695655
 30
0.0
 11
81.838613850140788
 21
48.126847817541709
 31
0.0
 12
92.485087876393209
 22
47.313129977668268
 32
0.0
 13
92.485087876393209
 23
47.313129977668268
 33
0.0
  0
SOLID
  5
61F
  8
DRG
  6
CONTINUOUS
 62
     7
 10
100.0185059750613
 20
48.50630618695655
 30
0.0
 11
100.2074865211779
 21
47.313129977668268
 31
0.0
 12
111.0217363427989
 22
47.401691155440233
 32
0.0
 13
111.0217363427989
 23
47.401691155440233
 33
0.0
210
0.0
220
0.0
230
1.0
  0
SOLID
  5
620
  8
DRG
  6
CONTINUOUS
 62
     7
 10
159.3146621798796
 20
48.684461788967788
 30
0.0
 11
159.85969387221371
 21
47.610715203087587
 31
0.0
 12
170.83401328102289
 22
47.536856427359872
 32
0.0
 13
170.83401328102289
 23
47.536856427359872
 33
0.0
210
0.0
220
0.0
230
1.0
  0
SOLID
  5
621
  8
DRG
  6
CONTINUOUS
 62
     7
 10
153.08112265405759
 20
48.716280685360893
 30
0.0
 11
141.53564323306159
 21
46.917827705777547
 31
0.0
 12
152.52515784094209
 22
47.648154099737518
 32
0.0
 13
152.52515784094209
 23
47.648154099737518
 33
0.0
210
0.0
220
0.0
230
1.0
  0
SOLID
  5
622
  8
DRG
  6
CONTINUOUS
 62
     7
 10
141.8917942032017
 20
48.84260609145101
 30
0.0
 11
141.53564323306159
 21
46.917827705777547
 31
0.0
 12
153.08112265405759
 22
48.716280685360893
 32
0.0
 13
153.08112265405759
 23
48.716280685360893
 33
0.0
210
0.0
220
0.0
230
1.0
  0
SOLID
  5
623
  8
DRG
  6
CONTINUOUS
 62
     7
 10
18.06593214578028
 20
48.899170059199712
 30
0.0
 11
7.2724805460411552
 21
48.444821990224007
 31
0.0
 12
17.493132493272199
 22
47.658562015885273
 32
0.0
 13
17.493132493272199
 23
47.658562015885273
 33
0.0
210
0.0
220
0.0
230
1.0
  0
SOLID
  5
624
  8
DRG
  6
CONTINUOUS
 62
     7
 10
56.250734771880133
 20
48.960170091767068
 30
0.0
 11
44.699059029249632
 21
47.401691155440453
 31
0.0
 12
55.702291866088892
 22
47.883790283191423
 32
0.0
 13
55.702291866088892
 23
47.883790283191423
 33
0.0
210
0.0
220
0.0
230
1.0
  0
SOLID
  5
625
  8
DRG
  6
CONTINUOUS
 62
     7
 10
62.498286512849091
 20
48.960170091767068
 30
0.0
 11
63.046729418640332
 21
47.883790283191409
 31
0.0
 12
74.04995978637794
 22
47.401691155440233
 32
0.0
 13
74.04995978637794
 23
47.401691155440233
 33
0.0
210
0.0
220
0.0
230
1.0
  0
SOLID
  5
626
  8
DRG
  6
CONTINUOUS
 62
     7
 10
158.46537131679571
 20
49.538098893491913
 30
0.0
 11
159.3146621798796
 21
48.684461788967788
 31
0.0
 12
170.83401328102289
 22
47.536856427359872
 32
0.0
 13
170.83401328102289
 23
47.536856427359872
 33
0.0
210
0.0
220
0.0
230
1.0
  0
SOLID
  5
627
  8
DRG
  6
CONTINUOUS
 62
     7
 10
153.9390837584445
 20
49.561203178668571
 30
0.0
 11
141.8917942032017
 21
48.84260609145101
 31
0.0
 12
153.08112265405759
 22
48.716280685360893
 32
0.0
 13
153.08112265405759
 23
48.716280685360893
 33
0.0
210
0.0
220
0.0
230
1.0
  0
SOLID
  5
628
  8
DRG
  6
CONTINUOUS
 62
     7
 10
93.222511328301124
 20
49.582685995532209
 30
0.0
 11
81.838613850140788
 21
48.126847817541709
 31
0.0
 12
92.674068422509905
 22
48.50630618695655
 32
0.0
 13
92.674068422509905
 23
48.50630618695655
 33
0.0
210
0.0
220
0.0
230
1.0
  0
SOLID
  5
629
  8
DRG
  6
CONTINUOUS
 62
     7
 10
99.470063069270083
 20
49.582685995532209
 30
0.0
 11
100.0185059750613
 21
48.50630618695655
 31
0.0
 12
111.0217363427989
 22
47.401691155440233
 32
0.0
 13
111.0217363427989
 23
47.401691155440233
 33
0.0
210
0.0
220
0.0
230
1.0
  0
SOLID
  5
62A
  8
DRG
  6
CONTINUOUS
 62
     7
 10
110.33886736809561
 20
49.652808479627772
 30
0.0
 11
99.470063069270083
 21
49.582685995532209
 31
0.0
 12
111.0217363427989
 22
47.401691155440233
 32
0.0
 13
111.0217363427989
 23
47.401691155440233
 33
0.0
210
0.0
220
0.0
230
1.0
  0
SOLID
  5
62B
  8
DRG
  6
CONTINUOUS
 62
     7
 10
73.367090811674615
 20
49.652808479627772
 30
0.0
 11
62.498286512849091
 21
48.960170091767068
 31
0.0
 12
74.04995978637794
 22
47.401691155440233
 32
0.0
 13
74.04995978637794
 23
47.401691155440233
 33
0.0
210
0.0
220
0.0
230
1.0
  0
SOLID
  5
62C
  8
DRG
  6
CONTINUOUS
 62
     7
 10
45.381928003952993
 20
49.65280847962795
 30
0.0
 11
44.699059029249632
 21
47.401691155440453
 31
0.0
 12
56.250734771880133
 22
48.960170091767068
 32
0.0
 13
56.250734771880133
 23
48.960170091767068
 33
0.0
210
0.0
220
0.0
230
1.0
  0
SOLID
  5
62D
  8
DRG
  6
CONTINUOUS
 62
     7
 10
170.1330439217615
 20
49.761844965549727
 30
0.0
 11
158.46537131679571
 21
49.538098893491913
 31
0.0
 12
170.83401328102289
 22
47.536856427359872
 32
0.0
 13
170.83401328102289
 23
47.536856427359872
 33
0.0
210
0.0
220
0.0
230
1.0
  0
SOLID
  5
62E
  8
DRG
  6
CONTINUOUS
 62
     7
 10
57.104954624500678
 20
49.814389944387607
 30
0.0
 11
45.381928003952993
 21
49.65280847962795
 31
0.0
 12
56.250734771880133
 22
48.960170091767068
 32
0.0
 13
56.250734771880133
 23
48.960170091767068
 33
0.0
210
0.0
220
0.0
230
1.0
  0
SOLID
  5
62F
  8
DRG
  6
CONTINUOUS
 62
     7
 10
61.64406666022856
 20
49.814389944387607
 30
0.0
 11
62.498286512849091
 21
48.960170091767068
 31
0.0
 12
73.367090811674615
 22
49.652808479627772
 32
0.0
 13
73.367090811674615
 23
49.652808479627772
 33
0.0
210
0.0
220
0.0
230
1.0
  0
SOLID
  5
630
  8
DRG
  6
CONTINUOUS
 62
     7
 10
18.93668040707891
 20
49.952263229102194
 30
0.0
 11
7.2724805460411552
 21
48.444821990224007
 31
0.0
 12
18.06593214578028
 22
48.899170059199712
 32
0.0
 13
18.06593214578028
 23
48.899170059199712
 33
0.0
210
0.0
220
0.0
230
1.0
  0
SOLID
  5
631
  8
DRG
  6
CONTINUOUS
 62
     7
 10
157.39442077919639
 20
50.088604317946377
 30
0.0
 11
158.46537131679571
 21
49.538098893491913
 31
0.0
 12
170.1330439217615
 22
49.761844965549727
 32
0.0
 13
170.1330439217615
 23
49.761844965549727
 33
0.0
210
0.0
220
0.0
230
1.0
  0
SOLID
  5
632
  8
DRG
  6
CONTINUOUS
 62
     7
 10
155.01559841605931
 20
50.100746938041553
 30
0.0
 11
141.8917942032017
 21
48.84260609145101
 31
0.0
 12
153.9390837584445
 22
49.561203178668571
 32
0.0
 13
153.9390837584445
 23
49.561203178668571
 33
0.0
210
0.0
220
0.0
230
1.0
  0
SOLID
  5
633
  8
DRG
  6
CONTINUOUS
 62
     7
 10
82.613443621275053
 20
50.235553651032191
 30
0.0
 11
81.838613850140788
 21
48.126847817541709
 31
0.0
 12
93.222511328301124
 22
49.582685995532209
 32
0.0
 13
93.222511328301124
 23
49.582685995532209
 33
0.0
210
0.0
220
0.0
230
1.0
  0
SOLID
  5
634
  8
DRG
  6
CONTINUOUS
 62
     7
 10
156.20596802213339
 20
50.282437546695562
 30
0.0
 11
141.8917942032017
 21
48.84260609145101
 31
0.0
 12
155.01559841605931
 22
50.100746938041553
 32
0.0
 13
155.01559841605931
 23
50.100746938041553
 33
0.0
210
0.0
220
0.0
230
1.0
  0
SOLID
  5
635
  8
DRG
  6
CONTINUOUS
 62
     7
 10
156.20596802213339
 20
50.282437546695562
 30
0.0
 11
157.39442077919639
 21
50.088604317946377
 31
0.0
 12
170.1330439217615
 22
49.761844965549727
 32
0.0
 13
170.1330439217615
 23
49.761844965549727
 33
0.0
210
0.0
220
0.0
230
1.0
  0
SOLID
  5
636
  8
DRG
  6
CONTINUOUS
 62
     7
 10
58.18133443307633
 20
50.362832850178847
 30
0.0
 11
45.381928003952993
 21
49.65280847962795
 31
0.0
 12
57.104954624500678
 22
49.814389944387607
 32
0.0
 13
57.104954624500678
 23
49.814389944387607
 33
0.0
210
0.0
220
0.0
230
1.0
  0
SOLID
  5
637
  8
DRG
  6
CONTINUOUS
 62
     7
 10
60.567686851652887
 20
50.362832850178847
 30
0.0
 11
61.64406666022856
 21
49.814389944387607
 31
0.0
 12
73.367090811674615
 22
49.652808479627772
 32
0.0
 13
73.367090811674615
 23
49.652808479627772
 33
0.0
210
0.0
220
0.0
230
1.0
  0
SOLID
  5
638
  8
DRG
  6
CONTINUOUS
 62
     7
 10
94.076731180921669
 20
50.436905848152747
 30
0.0
 11
82.613443621275053
 21
50.235553651032191
 31
0.0
 12
93.222511328301124
 22
49.582685995532209
 32
0.0
 13
93.222511328301124
 23
49.582685995532209
 33
0.0
  0
SOLID
  5
639
  8
DRG
  6
CONTINUOUS
 62
     7
 10
98.615843216649537
 20
50.436905848152747
 30
0.0
 11
99.470063069270083
 21
49.582685995532209
 31
0.0
 12
110.33886736809561
 22
49.652808479627772
 32
0.0
 13
110.33886736809561
 23
49.652808479627772
 33
0.0
  0
SOLID
  5
63A
  8
DRG
  6
CONTINUOUS
 62
     7
 10
59.374510642364612
 20
50.551813396295529
 30
0.0
 11
45.381928003952993
 21
49.65280847962795
 31
0.0
 12
58.18133443307633
 22
50.362832850178847
 32
0.0
 13
58.18133443307633
 23
50.362832850178847
 33
0.0
210
0.0
220
0.0
230
1.0
  0
SOLID
  5
63B
  8
DRG
  6
CONTINUOUS
 62
     7
 10
59.374510642364612
 20
50.551813396295529
 30
0.0
 11
60.567686851652887
 21
50.362832850178847
 31
0.0
 12
73.367090811674615
 22
49.652808479627772
 32
0.0
 13
73.367090811674615
 23
49.652808479627772
 33
0.0
210
0.0
220
0.0
230
1.0
  0
SOLID
  5
63C
  8
DRG
  6
CONTINUOUS
 62
     7
 10
7.9378654549163707
 20
50.633329196575339
 30
0.0
 11
7.2724805460411552
 21
48.444821990224007
 31
0.0
 12
18.93668040707891
 22
49.952263229102194
 32
0.0
 13
18.93668040707891
 23
49.952263229102194
 33
0.0
210
0.0
220
0.0
230
1.0
  0
SOLID
  5
63D
  8
DRG
  6
CONTINUOUS
 62
     7
 10
20.04758169418465
 20
50.747942869005499
 30
0.0
 11
7.9378654549163707
 21
50.633329196575339
 31
0.0
 12
18.93668040707891
 22
49.952263229102194
 32
0.0
 13
18.93668040707891
 23
49.952263229102194
 33
0.0
210
0.0
220
0.0
230
1.0
  0
SOLID
  5
63E
  8
DRG
  6
CONTINUOUS
 62
     7
 10
95.153110989497321
 20
50.985348753943988
 30
0.0
 11
82.613443621275053
 21
50.235553651032191
 31
0.0
 12
94.076731180921669
 22
50.436905848152747
 32
0.0
 13
94.076731180921669
 23
50.436905848152747
 33
0.0
  0
SOLID
  5
63F
  8
DRG
  6
CONTINUOUS
 62
     7
 10
97.539463408073885
 20
50.985348753943988
 30
0.0
 11
98.615843216649537
 21
50.436905848152747
 31
0.0
 12
110.33886736809561
 22
49.652808479627772
 32
0.0
 13
110.33886736809561
 23
49.652808479627772
 33
0.0
210
0.0
220
0.0
230
1.0
  0
SOLID
  5
640
  8
DRG
  6
CONTINUOUS
 62
     7
 10
142.920441326131
 20
51.116576646040869
 30
0.0
 11
141.8917942032017
 21
48.84260609145101
 31
0.0
 12
156.20596802213339
 22
50.282437546695562
 32
0.0
 13
156.20596802213339
 23
50.282437546695562
 33
0.0
210
0.0
220
0.0
230
1.0
  0
SOLID
  5
641
  8
DRG
  6
CONTINUOUS
 62
     7
 10
96.346287198785603
 20
51.174329300060663
 30
0.0
 11
82.613443621275053
 21
50.235553651032191
 31
0.0
 12
95.153110989497321
 22
50.985348753943988
 32
0.0
 13
95.153110989497321
 23
50.985348753943988
 33
0.0
210
0.0
220
0.0
230
1.0
  0
SOLID
  5
642
  8
DRG
  6
CONTINUOUS
 62
     7
 10
96.346287198785603
 20
51.174329300060663
 30
0.0
 11
97.539463408073885
 21
50.985348753943988
 31
0.0
 12
110.33886736809561
 22
49.652808479627772
 32
0.0
 13
110.33886736809561
 23
49.652808479627772
 33
0.0
  0
SOLID
  5
643
  8
DRG
  6
CONTINUOUS
 62
     7
 10
21.324900358829169
 20
51.233396046974882
 30
0.0
 11
7.9378654549163707
 21
50.633329196575339
 31
0.0
 12
20.04758169418465
 22
50.747942869005499
 32
0.0
 13
20.04758169418465
 23
50.747942869005499
 33
0.0
210
0.0
220
0.0
230
1.0
  0
SOLID
  5
644
  8
DRG
  6
CONTINUOUS
 62
     7
 10
27.267121908897021
 20
51.255838552818979
 30
0.0
 11
24.30773506784762
 21
50.697787464736152
 31
0.0
 12
25.68195691611341
 22
49.598234121944778
 32
0.0
 13
25.68195691611341
 23
49.598234121944778
 33
0.0
  0
SOLID
  5
645
  8
DRG
  6
CONTINUOUS
 62
     7
 10
27.267121908897021
 20
51.255838552818979
 30
0.0
 11
25.68195691611341
 21
49.598234121944778
 31
0.0
 12
26.700256403592132
 22
48.162765767819458
 32
0.0
 13
26.700256403592132
 23
48.162765767819458
 33
0.0
  0
SOLID
  5
646
  8
DRG
  6
CONTINUOUS
 62
     7
 10
27.267121908897021
 20
51.255838552818979
 30
0.0
 11
26.700256403592132
 21
48.162765767819458
 31
0.0
 12
27.28389181832431
 22
46.502382395051256
 32
0.0
 13
27.28389181832431
 23
46.502382395051256
 33
0.0
  0
SOLID
  5
647
  8
DRG
  6
CONTINUOUS
 62
     7
 10
27.267121908897021
 20
51.255838552818979
 30
0.0
 11
27.28389181832431
 21
46.502382395051256
 31
0.0
 12
37.639779947293839
 22
13.760967175618781
 32
0.0
 13
37.639779947293839
 23
13.760967175618781
 33
0.0
210
0.0
220
0.0
230
1.0
  0
SOLID
  5
648
  8
DRG
  6
CONTINUOUS
 62
     7
 10
22.683854862926282
 20
51.376400993896397
 30
0.0
 11
7.9378654549163707
 21
50.633329196575339
 31
0.0
 12
21.324900358829169
 22
51.233396046974882
 32
0.0
 13
21.324900358829169
 23
51.233396046974882
 33
0.0
210
0.0
220
0.0
230
1.0
  0
SOLID
  5
649
  8
DRG
  6
CONTINUOUS
 62
     7
 10
22.683854862926282
 20
51.376400993896397
 30
0.0
 11
24.30773506784762
 21
50.697787464736152
 31
0.0
 12
27.267121908897021
 22
51.255838552818979
 32
0.0
 13
27.267121908897021
 23
51.255838552818979
 33
0.0
210
0.0
220
0.0
230
1.0
  0
SOLID
  5
64A
  8
DRG
  6
CONTINUOUS
 62
     7
 10
109.2299483255907
 20
51.727450087481927
 30
0.0
 11
96.346287198785603
 21
51.174329300060663
 31
0.0
 12
110.33886736809561
 22
49.652808479627772
 32
0.0
 13
110.33886736809561
 23
49.652808479627772
 33
0.0
210
0.0
220
0.0
230
1.0
  0
SOLID
  5
64B
  8
DRG
  6
CONTINUOUS
 62
     7
 10
72.258171769169721
 20
51.727450087481927
 30
0.0
 11
59.374510642364612
 21
50.551813396295529
 31
0.0
 12
73.367090811674615
 22
49.652808479627772
 32
0.0
 13
73.367090811674615
 23
49.652808479627772
 33
0.0
210
0.0
220
0.0
230
1.0
  0
SOLID
  5
64C
  8
DRG
  6
CONTINUOUS
 62
     7
 10
46.490847046457908
 20
51.727450087482048
 30
0.0
 11
59.374510642364612
 21
50.551813396295529
 31
0.0
 12
72.258171769169721
 22
51.727450087481927
 32
0.0
 13
72.258171769169721
 23
51.727450087481927
 33
0.0
210
0.0
220
0.0
230
1.0
  0
SOLID
  5
64D
  8
DRG
  6
CONTINUOUS
 62
     7
 10
46.490847046457908
 20
51.727450087482048
 30
0.0
 11
45.381928003952993
 21
49.65280847962795
 31
0.0
 12
59.374510642364612
 22
50.551813396295529
 32
0.0
 13
59.374510642364612
 23
50.551813396295529
 33
0.0
210
0.0
220
0.0
230
1.0
  0
SOLID
  5
64E
  8
DRG
  6
CONTINUOUS
 62
     7
 10
169.01483108081149
 20
51.80916811542965
 30
0.0
 11
142.920441326131
 21
51.116576646040869
 31
0.0
 12
156.20596802213339
 22
50.282437546695562
 32
0.0
 13
156.20596802213339
 23
50.282437546695562
 33
0.0
210
0.0
220
0.0
230
1.0
  0
SOLID
  5
64F
  8
DRG
  6
CONTINUOUS
 62
     7
 10
169.01483108081149
 20
51.80916811542965
 30
0.0
 11
156.20596802213339
 21
50.282437546695562
 31
0.0
 12
170.1330439217615
 22
49.761844965549727
 32
0.0
 13
170.1330439217615
 23
49.761844965549727
 33
0.0
210
0.0
220
0.0
230
1.0
  0
SOLID
  5
650
  8
DRG
  6
CONTINUOUS
 62
     7
 10
83.767738342711013
 20
52.162884749338318
 30
0.0
 11
96.346287198785603
 21
51.174329300060663
 31
0.0
 12
109.2299483255907
 22
51.727450087481927
 32
0.0
 13
109.2299483255907
 23
51.727450087481927
 33
0.0
210
0.0
220
0.0
230
1.0
  0
SOLID
  5
651
  8
DRG
  6
CONTINUOUS
 62
     7
 10
83.767738342711013
 20
52.162884749338318
 30
0.0
 11
82.613443621275053
 21
50.235553651032191
 31
0.0
 12
96.346287198785603
 22
51.174329300060663
 32
0.0
 13
96.346287198785603
 23
51.174329300060663
 33
0.0
210
0.0
220
0.0
230
1.0
  0
SOLID
  5
652
  8
DRG
  6
CONTINUOUS
 62
     7
 10
9.0029836342297038
 20
52.657637506420173
 30
0.0
 11
7.9378654549163707
 21
50.633329196575339
 31
0.0
 12
22.683854862926282
 22
51.376400993896397
 32
0.0
 13
22.683854862926282
 23
51.376400993896397
 33
0.0
210
0.0
220
0.0
230
1.0
  0
SOLID
  5
653
  8
DRG
  6
CONTINUOUS
 62
     7
 10
127.2345352189994
 20
53.086533694841222
 30
0.0
 11
135.23453521899941
 21
48.740104065808111
 31
0.0
 12
136.6041529029215
 22
48.740104065808111
 32
0.0
 13
136.6041529029215
 23
48.740104065808111
 33
0.0
210
0.0
220
0.0
230
1.0
  0
SOLID
  5
654
  8
DRG
  6
CONTINUOUS
 62
     7
 10
127.2345352189994
 20
53.086533694841222
 30
0.0
 11
133.4543677473489
 21
48.5395273632627
 31
0.0
 12
135.23453521899941
 22
48.740104065808111
 32
0.0
 13
135.23453521899941
 23
48.740104065808111
 33
0.0
210
0.0
220
0.0
230
1.0
  0
SOLID
  5
655
  8
DRG
  6
CONTINUOUS
 62
     7
 10
127.2345352189994
 20
53.086533694841222
 30
0.0
 11
131.76346530605889
 21
47.947855009027457
 31
0.0
 12
133.4543677473489
 22
48.5395273632627
 32
0.0
 13
133.4543677473489
 23
48.5395273632627
 33
0.0
210
0.0
220
0.0
230
1.0
  0
SOLID
  5
656
  8
DRG
  6
CONTINUOUS
 62
     7
 10
127.2345352189994
 20
53.086533694841222
 30
0.0
 11
130.2466168041295
 21
46.99475592555234
 31
0.0
 12
131.76346530605889
 22
47.947855009027457
 32
0.0
 13
131.76346530605889
 23
47.947855009027457
 33
0.0
210
0.0
220
0.0
230
1.0
  0
SOLID
  5
657
  8
DRG
  6
CONTINUOUS
 62
     7
 10
127.2345352189994
 20
53.086533694841222
 30
0.0
 11
128.97988335925521
 21
45.728022480677971
 31
0.0
 12
130.2466168041295
 22
46.99475592555234
 32
0.0
 13
130.2466168041295
 23
46.99475592555234
 33
0.0
210
0.0
220
0.0
230
1.0
  0
SOLID
  5
658
  8
DRG
  6
CONTINUOUS
 62
     7
 10
127.2345352189994
 20
53.086533694841222
 30
0.0
 11
128.02678427577999
 21
44.211173978748569
 31
0.0
 12
128.97988335925521
 22
45.728022480677971
 32
0.0
 13
128.97988335925521
 23
45.728022480677971
 33
0.0
210
0.0
220
0.0
230
1.0
  0
SOLID
  5
659
  8
DRG
  6
CONTINUOUS
 62
     7
 10
127.2345352189994
 20
53.086533694841222
 30
0.0
 11
116.19314081319391
 21
17.28637227261407
 31
0.0
 12
128.02678427577999
 22
44.211173978748569
 32
0.0
 13
128.02678427577999
 23
44.211173978748569
 33
0.0
  0
SOLID
  5
65A
  8
DRG
  6
CONTINUOUS
 62
     7
 10
26.5765362782073
 20
53.111824663876313
 30
0.0
 11
9.0029836342297038
 21
52.657637506420173
 31
0.0
 12
22.683854862926282
 22
51.376400993896397
 32
0.0
 13
22.683854862926282
 23
51.376400993896397
 33
0.0
210
0.0
220
0.0
230
1.0
  0
SOLID
  5
65B
  8
DRG
  6
CONTINUOUS
 62
     7
 10
26.5765362782073
 20
53.111824663876313
 30
0.0
 11
22.683854862926282
 21
51.376400993896397
 31
0.0
 12
27.267121908897021
 22
51.255838552818979
 32
0.0
 13
27.267121908897021
 23
51.255838552818979
 33
0.0
210
0.0
220
0.0
230
1.0
  0
SOLID
  5
65C
  8
DRG
  6
CONTINUOUS
 62
     7
 10
144.39722538079619
 20
53.12858207409991
 30
0.0
 11
142.920441326131
 21
51.116576646040869
 31
0.0
 12
169.01483108081149
 22
51.80916811542965
 32
0.0
 13
169.01483108081149
 23
51.80916811542965
 33
0.0
210
0.0
220
0.0
230
1.0
  0
SOLID
  5
65D
  8
DRG
  6
CONTINUOUS
 62
     7
 10
107.7375943521987
 20
53.545888665485258
 30
0.0
 11
83.767738342711013
 21
52.162884749338318
 31
0.0
 12
109.2299483255907
 22
51.727450087481927
 32
0.0
 13
109.2299483255907
 23
51.727450087481927
 33
0.0
210
0.0
220
0.0
230
1.0
  0
SOLID
  5
65E
  8
DRG
  6
CONTINUOUS
 62
     7
 10
70.76581779577775
 20
53.545888665485258
 30
0.0
 11
46.490847046457908
 21
51.727450087482048
 31
0.0
 12
72.258171769169721
 22
51.727450087481927
 32
0.0
 13
72.258171769169721
 23
51.727450087481927
 33
0.0
  0
SOLID
  5
65F
  8
DRG
  6
CONTINUOUS
 62
     7
 10
47.983201019849879
 20
53.54588866548535
 30
0.0
 11
46.490847046457908
 21
51.727450087482048
 31
0.0
 12
70.76581779577775
 22
53.545888665485258
 32
0.0
 13
70.76581779577775
 23
53.545888665485258
 33
0.0
210
0.0
220
0.0
230
1.0
  0
SOLID
  5
660
  8
DRG
  6
CONTINUOUS
 62
     7
 10
167.52163335736839
 20
53.601455089215918
 30
0.0
 11
144.39722538079619
 21
53.12858207409991
 31
0.0
 12
169.01483108081149
 22
51.80916811542965
 32
0.0
 13
169.01483108081149
 23
51.80916811542965
 33
0.0
210
0.0
220
0.0
230
1.0
  0
SOLID
  5
661
  8
DRG
  6
CONTINUOUS
 62
     7
 10
85.261041575894609
 20
53.841290814686097
 30
0.0
 11
83.767738342711013
 21
52.162884749338318
 31
0.0
 12
107.7375943521987
 22
53.545888665485258
 32
0.0
 13
107.7375943521987
 23
53.545888665485258
 33
0.0
  0
SOLID
  5
662
  8
DRG
  6
CONTINUOUS
 62
     7
 10
10.429819561258061
 20
54.445496591066302
 30
0.0
 11
9.0029836342297038
 21
52.657637506420173
 31
0.0
 12
26.5765362782073
 22
53.111824663876313
 32
0.0
 13
26.5765362782073
 23
53.111824663876313
 33
0.0
210
0.0
220
0.0
230
1.0
  0
SOLID
  5
663
  8
DRG
  6
CONTINUOUS
 62
     7
 10
128.67452611822259
 20
54.668946024108031
 30
0.0
 11
127.2345352189994
 21
53.086533694841222
 31
0.0
 12
136.6041529029215
 22
48.740104065808111
 32
0.0
 13
136.6041529029215
 23
48.740104065808111
 33
0.0
210
0.0
220
0.0
230
1.0
  0
SOLID
  5
664
  8
DRG
  6
CONTINUOUS
 62
     7
 10
25.500790394036571
 20
54.774462252300957
 30
0.0
 11
10.429819561258061
 21
54.445496591066302
 31
0.0
 12
26.5765362782073
 22
53.111824663876313
 32
0.0
 13
26.5765362782073
 23
53.111824663876313
 33
0.0
  0
SOLID
  5
665
  8
DRG
  6
CONTINUOUS
 62
     7
 10
146.2582646169646
 20
54.791588372372388
 30
0.0
 11
144.39722538079619
 21
53.12858207409991
 31
0.0
 12
167.52163335736839
 22
53.601455089215918
 32
0.0
 13
167.52163335736839
 23
53.601455089215918
 33
0.0
210
0.0
220
0.0
230
1.0
  0
SOLID
  5
666
  8
DRG
  6
CONTINUOUS
 62
     7
 10
68.947379217774412
 20
55.038242638877229
 30
0.0
 11
47.983201019849879
 21
53.54588866548535
 31
0.0
 12
70.76581779577775
 22
53.545888665485258
 32
0.0
 13
70.76581779577775
 23
53.545888665485258
 33
0.0
210
0.0
220
0.0
230
1.0
  0
SOLID
  5
667
  8
DRG
  6
CONTINUOUS
 62
     7
 10
105.9191557741953
 20
55.038242638877229
 30
0.0
 11
85.261041575894609
 21
53.841290814686097
 31
0.0
 12
107.7375943521987
 22
53.545888665485258
 32
0.0
 13
107.7375943521987
 23
53.545888665485258
 33
0.0
210
0.0
220
0.0
230
1.0
  0
SOLID
  5
668
  8
DRG
  6
CONTINUOUS
 62
     7
 10
49.801639597853217
 20
55.038242638877293
 30
0.0
 11
47.983201019849879
 21
53.54588866548535
 31
0.0
 12
68.947379217774412
 22
55.038242638877229
 32
0.0
 13
68.947379217774412
 23
55.038242638877229
 33
0.0
210
0.0
220
0.0
230
1.0
  0
SOLID
  5
669
  8
DRG
  6
CONTINUOUS
 62
     7
 10
165.70988047733371
 20
55.070973220912713
 30
0.0
 11
146.2582646169646
 21
54.791588372372388
 31
0.0
 12
167.52163335736839
 22
53.601455089215918
 32
0.0
 13
167.52163335736839
 23
53.601455089215918
 33
0.0
210
0.0
220
0.0
230
1.0
  0
SOLID
  5
66A
  8
DRG
  6
CONTINUOUS
 62
     7
 10
87.041015101327872
 20
55.211946028512493
 30
0.0
 11
85.261041575894609
 21
53.841290814686097
 31
0.0
 12
105.9191557741953
 22
55.038242638877229
 32
0.0
 13
105.9191557741953
 23
55.038242638877229
 33
0.0
210
0.0
220
0.0
230
1.0
  0
SOLID
  5
66B
  8
DRG
  6
CONTINUOUS
 62
     7
 10
130.41157415689369
 20
55.918052377070133
 30
0.0
 11
128.67452611822259
 21
54.668946024108031
 31
0.0
 12
136.6041529029215
 22
48.740104065808111
 32
0.0
 13
136.6041529029215
 23
48.740104065808111
 33
0.0
210
0.0
220
0.0
230
1.0
  0
SOLID
  5
66C
  8
DRG
  6
CONTINUOUS
 62
     7
 10
12.1674475127723
 20
55.93309531764784
 30
0.0
 11
10.429819561258061
 21
54.445496591066302
 31
0.0
 12
25.500790394036571
 22
54.774462252300957
 32
0.0
 13
25.500790394036571
 23
54.774462252300957
 33
0.0
210
0.0
220
0.0
230
1.0
  0
SOLID
  5
66D
  8
DRG
  6
CONTINUOUS
 62
     7
 10
148.42305542729969
 20
56.033658311683958
 30
0.0
 11
146.2582646169646
 21
54.791588372372388
 31
0.0
 12
165.70988047733371
 22
55.070973220912713
 32
0.0
 13
165.70988047733371
 23
55.070973220912713
 33
0.0
  0
SOLID
  5
66E
  8
DRG
  6
CONTINUOUS
 62
     7
 10
103.8445141663412
 20
56.147161681382137
 30
0.0
 11
87.041015101327872
 21
55.211946028512493
 31
0.0
 12
105.9191557741953
 22
55.038242638877229
 32
0.0
 13
105.9191557741953
 23
55.038242638877229
 33
0.0
210
0.0
220
0.0
230
1.0
  0
SOLID
  5
66F
  8
DRG
  6
CONTINUOUS
 62
     7
 10
66.87273760992025
 20
56.147161681382137
 30
0.0
 11
49.801639597853217
 21
55.038242638877293
 31
0.0
 12
68.947379217774412
 22
55.038242638877229
 32
0.0
 13
68.947379217774412
 23
55.038242638877229
 33
0.0
210
0.0
220
0.0
230
1.0
  0
SOLID
  5
670
  8
DRG
  6
CONTINUOUS
 62
     7
 10
51.87628120570735
 20
56.147161681382158
 30
0.0
 11
49.801639597853217
 21
55.038242638877293
 31
0.0
 12
66.87273760992025
 22
56.147161681382137
 32
0.0
 13
66.87273760992025
 23
56.147161681382137
 33
0.0
210
0.0
220
0.0
230
1.0
  0
SOLID
  5
671
  8
DRG
  6
CONTINUOUS
 62
     7
 10
163.64804074655649
 20
56.162187664680708
 30
0.0
 11
148.42305542729969
 21
56.033658311683958
 31
0.0
 12
165.70988047733371
 22
55.070973220912713
 32
0.0
 13
165.70988047733371
 23
55.070973220912713
 33
0.0
210
0.0
220
0.0
230
1.0
  0
SOLID
  5
672
  8
DRG
  6
CONTINUOUS
 62
     7
 10
24.090833070868062
 20
56.165006499923557
 30
0.0
 11
12.1674475127723
 21
55.93309531764784
 31
0.0
 12
25.500790394036571
 22
54.774462252300957
 32
0.0
 13
25.500790394036571
 23
54.774462252300957
 33
0.0
210
0.0
220
0.0
230
1.0
  0
SOLID
  5
673
  8
DRG
  6
CONTINUOUS
 62
     7
 10
89.045273301003363
 20
56.226810815302507
 30
0.0
 11
87.041015101327872
 21
55.211946028512493
 31
0.0
 12
103.8445141663412
 22
56.147161681382137
 32
0.0
 13
103.8445141663412
 23
56.147161681382137
 33
0.0
  0
SOLID
  5
674
  8
DRG
  6
CONTINUOUS
 62
     7
 10
132.37003801702659
 20
56.779459294975013
 30
0.0
 11
130.41157415689369
 21
55.918052377070133
 31
0.0
 12
136.6041529029215
 22
48.740104065808111
 32
0.0
 13
136.6041529029215
 23
48.740104065808111
 33
0.0
210
0.0
220
0.0
230
1.0
  0
SOLID
  5
675
  8
DRG
  6
CONTINUOUS
 62
     7
 10
150.79795471928901
 20
56.801063250136181
 30
0.0
 11
148.42305542729969
 21
56.033658311683958
 31
0.0
 12
163.64804074655649
 22
56.162187664680708
 32
0.0
 13
163.64804074655649
 23
56.162187664680708
 33
0.0
210
0.0
220
0.0
230
1.0
  0
SOLID
  5
676
  8
DRG
  6
CONTINUOUS
 62
     7
 10
101.59339684215369
 20
56.830030656085462
 30
0.0
 11
89.045273301003363
 21
56.226810815302507
 31
0.0
 12
103.8445141663412
 22
56.147161681382137
 32
0.0
 13
103.8445141663412
 23
56.147161681382137
 33
0.0
  0
SOLID
  5
677
  8
DRG
  6
CONTINUOUS
 62
     7
 10
64.621620285732703
 20
56.830030656085462
 30
0.0
 11
51.87628120570735
 21
56.147161681382158
 31
0.0
 12
66.87273760992025
 22
56.147161681382137
 32
0.0
 13
66.87273760992025
 23
56.147161681382137
 33
0.0
210
0.0
220
0.0
230
1.0
  0
SOLID
  5
678
  8
DRG
  6
CONTINUOUS
 62
     7
 10
54.127398529894862
 20
56.830030656085469
 30
0.0
 11
51.87628120570735
 21
56.147161681382158
 31
0.0
 12
64.621620285732703
 22
56.830030656085462
 32
0.0
 13
64.621620285732703
 23
56.830030656085462
 33
0.0
210
0.0
220
0.0
230
1.0
  0
SOLID
  5
679
  8
DRG
  6
CONTINUOUS
 62
     7
 10
161.41403355175541
 20
56.83386012300921
 30
0.0
 11
150.79795471928901
 21
56.801063250136181
 31
0.0
 12
163.64804074655649
 22
56.162187664680708
 32
0.0
 13
163.64804074655649
 23
56.162187664680708
 33
0.0
210
0.0
220
0.0
230
1.0
  0
SOLID
  5
67A
  8
DRG
  6
CONTINUOUS
 62
     7
 10
91.203569688303915
 20
56.850315563478652
 30
0.0
 11
89.045273301003363
 21
56.226810815302507
 31
0.0
 12
101.59339684215369
 22
56.830030656085462
 32
0.0
 13
101.59339684215369
 23
56.830030656085462
 33
0.0
210
0.0
220
0.0
230
1.0
  0
SOLID
  5
67B
  8
DRG
  6
CONTINUOUS
 62
     7
 10
27.267121908897021
 20
51.255838552818979
 30
0.0
 11
37.639779947293832
 21
57.06060729124669
 31
0.0
 12
27.267121908897028
 22
57.06060729124669
 32
0.0
 13
27.267121908897028
 23
57.06060729124669
 33
0.0
210
0.0
220
0.0
230
1.0
  0
SOLID
  5
67C
  8
DRG
  6
CONTINUOUS
 62
     7
 10
37.639779947293832
 20
57.06060729124669
 30
0.0
 11
27.267121908897021
 21
51.255838552818979
 31
0.0
 12
37.639779947293839
 22
13.760967175618781
 32
0.0
 13
37.639779947293839
 23
13.760967175618781
 33
0.0
  0
SOLID
  5
67D
  8
DRG
  6
CONTINUOUS
 62
     7
 10
161.41403355175541
 20
56.83386012300921
 30
0.0
 11
159.0922846938046
 21
57.06060729124669
 31
0.0
 12
153.28023066635379
 22
57.06060729124669
 32
0.0
 13
153.28023066635379
 23
57.06060729124669
 33
0.0
210
0.0
220
0.0
230
1.0
  0
SOLID
  5
67E
  8
DRG
  6
CONTINUOUS
 62
     7
 10
153.28023066635379
 20
57.06060729124669
 30
0.0
 11
150.79795471928901
 21
56.801063250136181
 31
0.0
 12
161.41403355175541
 22
56.83386012300921
 32
0.0
 13
161.41403355175541
 23
56.83386012300921
 33
0.0
  0
SOLID
  5
67F
  8
DRG
  6
CONTINUOUS
 62
     7
 10
54.127398529894862
 20
56.830030656085469
 30
0.0
 11
62.280536421539182
 21
57.06060729124669
 31
0.0
 12
56.468482394088369
 22
57.06060729124669
 32
0.0
 13
56.468482394088369
 23
57.06060729124669
 33
0.0
210
0.0
220
0.0
230
1.0
  0
SOLID
  5
680
  8
DRG
  6
CONTINUOUS
 62
     7
 10
62.280536421539182
 20
57.06060729124669
 30
0.0
 11
54.127398529894862
 21
56.830030656085469
 31
0.0
 12
64.621620285732703
 22
56.830030656085462
 32
0.0
 13
64.621620285732703
 23
56.830030656085462
 33
0.0
210
0.0
220
0.0
230
1.0
  0
SOLID
  5
681
  8
DRG
  6
CONTINUOUS
 62
     7
 10
91.203569688303915
 20
56.850315563478652
 30
0.0
 11
99.252312977960173
 21
57.06060729124669
 31
0.0
 12
93.440258950509346
 22
57.06060729124669
 32
0.0
 13
93.440258950509346
 23
57.06060729124669
 33
0.0
210
0.0
220
0.0
230
1.0
  0
SOLID
  5
682
  8
DRG
  6
CONTINUOUS
 62
     7
 10
99.252312977960173
 20
57.06060729124669
 30
0.0
 11
91.203569688303915
 21
56.850315563478652
 31
0.0
 12
101.59339684215369
 22
56.830030656085462
 32
0.0
 13
101.59339684215369
 23
56.830030656085462
 33
0.0
210
0.0
220
0.0
230
1.0
  0
SOLID
  5
683
  8
DRG
  6
CONTINUOUS
 62
     7
 10
14.15384917366147
 20
57.067339255620332
 30
0.0
 11
12.1674475127723
 21
55.93309531764784
 31
0.0
 12
24.090833070868062
 22
56.165006499923557
 32
0.0
 13
24.090833070868062
 23
56.165006499923557
 33
0.0
210
0.0
220
0.0
230
1.0
  0
SOLID
  5
684
  8
DRG
  6
CONTINUOUS
 62
     7
 10
127.2345352189994
 20
53.086533694841222
 30
0.0
 11
127.2345352189994
 21
57.207648031108022
 31
0.0
 12
116.19314081319391
 22
57.207648031108022
 32
0.0
 13
116.19314081319391
 23
57.207648031108022
 33
0.0
210
0.0
220
0.0
230
1.0
  0
SOLID
  5
685
  8
DRG
  6
CONTINUOUS
 62
     7
 10
116.19314081319391
 20
57.207648031108022
 30
0.0
 11
116.19314081319391
 21
17.28637227261407
 31
0.0
 12
127.2345352189994
 22
53.086533694841222
 32
0.0
 13
127.2345352189994
 23
53.086533694841222
 33
0.0
210
0.0
220
0.0
230
1.0
  0
SOLID
  5
686
  8
DRG
  6
CONTINUOUS
 62
     7
 10
136.6041529029215
 20
57.207648031108022
 30
0.0
 11
132.37003801702659
 21
56.779459294975013
 31
0.0
 12
136.6041529029215
 22
48.740104065808111
 32
0.0
 13
136.6041529029215
 23
48.740104065808111
 33
0.0
  0
SOLID
  5
687
  8
DRG
  6
CONTINUOUS
 62
     7
 10
134.46463462969641
 20
57.215656039407847
 30
0.0
 11
132.37003801702659
 21
56.779459294975013
 31
0.0
 12
136.6041529029215
 22
57.207648031108022
 32
0.0
 13
136.6041529029215
 23
57.207648031108022
 33
0.0
210
0.0
220
0.0
230
1.0
  0
SOLID
  5
688
  8
DRG
  6
CONTINUOUS
 62
     7
 10
22.41344183966368
 20
57.217599305918121
 30
0.0
 11
14.15384917366147
 21
57.067339255620332
 31
0.0
 12
24.090833070868062
 22
56.165006499923557
 32
0.0
 13
24.090833070868062
 23
56.165006499923557
 33
0.0
210
0.0
220
0.0
230
1.0
  0
SOLID
  5
689
  8
DRG
  6
CONTINUOUS
 62
     7
 10
16.318127155313359
 20
57.807745689511478
 30
0.0
 11
14.15384917366147
 21
57.067339255620332
 31
0.0
 12
22.41344183966368
 22
57.217599305918121
 32
0.0
 13
22.41344183966368
 23
57.217599305918121
 33
0.0
210
0.0
220
0.0
230
1.0
  0
SOLID
  5
68A
  8
DRG
  6
CONTINUOUS
 62
     7
 10
20.548060271541839
 20
57.882388417640122
 30
0.0
 11
16.318127155313359
 21
57.807745689511478
 31
0.0
 12
22.41344183966368
 22
57.217599305918121
 32
0.0
 13
22.41344183966368
 23
57.217599305918121
 33
0.0
210
0.0
220
0.0
230
1.0
  0
SOLID
  5
68B
  8
DRG
  6
CONTINUOUS
 62
     7
 10
18.58303542025671
 20
58.127888502333931
 30
0.0
 11
16.318127155313359
 21
57.807745689511478
 31
0.0
 12
20.548060271541839
 22
57.882388417640122
 32
0.0
 13
20.548060271541839
 23
57.882388417640122
 33
0.0
210
0.0
220
0.0
230
1.0
  0
SOLID
  5
68C
  8
DRG
  6
CONTINUOUS
 62
     7
 10
73.551023738501186
 20
61.097908438012972
 30
0.0
 11
75.331191210151701
 21
60.89733173546756
 31
0.0
 12
80.675802928262684
 22
60.89733173546756
 32
0.0
 13
80.675802928262684
 23
60.89733173546756
 33
0.0
210
0.0
220
0.0
230
1.0
  0
SOLID
  5
68D
  8
DRG
  6
CONTINUOUS
 62
     7
 10
106.0029162871861
 20
61.127907507119559
 30
0.0
 11
97.849782736700035
 21
60.89733173546756
 31
0.0
 12
103.66183676415081
 22
60.89733173546756
 32
0.0
 13
103.66183676415081
 23
60.89733173546756
 33
0.0
210
0.0
220
0.0
230
1.0
  0
SOLID
  5
68E
  8
DRG
  6
CONTINUOUS
 62
     7
 10
49.991276450151993
 20
61.127907507119559
 30
0.0
 11
41.838142899665847
 21
60.89733173546756
 31
0.0
 12
47.650196927116667
 22
60.89733173546756
 32
0.0
 13
47.650196927116667
 23
60.89733173546756
 33
0.0
210
0.0
220
0.0
230
1.0
  0
SOLID
  5
68F
  8
DRG
  6
CONTINUOUS
 62
     7
 10
95.5086988725065
 20
61.127908370628781
 30
0.0
 11
97.849782736700035
 21
60.89733173546756
 31
0.0
 12
106.0029162871861
 22
61.127907507119559
 32
0.0
 13
106.0029162871861
 23
61.127907507119559
 33
0.0
210
0.0
220
0.0
230
1.0
  0
SOLID
  5
690
  8
DRG
  6
CONTINUOUS
 62
     7
 10
39.497059035472361
 20
61.127908370628781
 30
0.0
 11
41.838142899665847
 21
60.89733173546756
 31
0.0
 12
49.991276450151993
 22
61.127907507119559
 32
0.0
 13
49.991276450151993
 23
61.127907507119559
 33
0.0
210
0.0
220
0.0
230
1.0
  0
SOLID
  5
691
  8
DRG
  6
CONTINUOUS
 62
     7
 10
82.673677075028507
 20
61.207576574819242
 30
0.0
 11
73.551023738501186
 21
61.097908438012972
 31
0.0
 12
80.675802928262684
 22
60.89733173546756
 32
0.0
 13
80.675802928262684
 23
60.89733173546756
 33
0.0
210
0.0
220
0.0
230
1.0
  0
SOLID
  5
692
  8
DRG
  6
CONTINUOUS
 62
     7
 10
71.860121297211236
 20
61.689580792248208
 30
0.0
 11
73.551023738501186
 21
61.097908438012972
 31
0.0
 12
82.673677075028507
 22
61.207576574819242
 32
0.0
 13
82.673677075028507
 23
61.207576574819242
 33
0.0
210
0.0
220
0.0
230
1.0
  0
SOLID
  5
693
  8
DRG
  6
CONTINUOUS
 62
     7
 10
52.242389936933542
 20
61.810773957663443
 30
0.0
 11
39.497059035472361
 21
61.127908370628781
 31
0.0
 12
49.991276450151993
 22
61.127907507119559
 32
0.0
 13
49.991276450151993
 23
61.127907507119559
 33
0.0
210
0.0
220
0.0
230
1.0
  0
SOLID
  5
694
  8
DRG
  6
CONTINUOUS
 62
     7
 10
108.2540297739677
 20
61.810773957663443
 30
0.0
 11
95.5086988725065
 21
61.127908370628781
 31
0.0
 12
106.0029162871861
 22
61.127907507119559
 32
0.0
 13
106.0029162871861
 23
61.127907507119559
 33
0.0
210
0.0
220
0.0
230
1.0
  0
SOLID
  5
695
  8
DRG
  6
CONTINUOUS
 62
     7
 10
37.24594171128485
 20
61.810777345332077
 30
0.0
 11
39.497059035472361
 21
61.127908370628781
 31
0.0
 12
52.242389936933542
 22
61.810773957663443
 32
0.0
 13
52.242389936933542
 23
61.810773957663443
 33
0.0
  0
SOLID
  5
696
  8
DRG
  6
CONTINUOUS
 62
     7
 10
93.257581548318967
 20
61.810777345332113
 30
0.0
 11
95.5086988725065
 21
61.127908370628781
 31
0.0
 12
108.2540297739677
 22
61.810773957663443
 32
0.0
 13
108.2540297739677
 23
61.810773957663443
 33
0.0
210
0.0
220
0.0
230
1.0
  0
SOLID
  5
697
  8
DRG
  6
CONTINUOUS
 62
     7
 10
84.501142256151084
 20
62.072518178885289
 30
0.0
 11
71.860121297211236
 21
61.689580792248208
 31
0.0
 12
82.673677075028507
 22
61.207576574819242
 32
0.0
 13
82.673677075028507
 23
61.207576574819242
 33
0.0
210
0.0
220
0.0
230
1.0
  0
SOLID
  5
698
  8
DRG
  6
CONTINUOUS
 62
     7
 10
70.343272795281834
 20
62.642679875723317
 30
0.0
 11
71.860121297211236
 21
61.689580792248208
 31
0.0
 12
84.501142256151084
 22
62.072518178885289
 32
0.0
 13
84.501142256151084
 23
62.072518178885289
 33
0.0
210
0.0
220
0.0
230
1.0
  0
SOLID
  5
699
  8
DRG
  6
CONTINUOUS
 62
     7
 10
110.3286685196136
 20
62.919689010637612
 30
0.0
 11
93.257581548318967
 21
61.810777345332113
 31
0.0
 12
108.2540297739677
 22
61.810773957663443
 32
0.0
 13
108.2540297739677
 23
61.810773957663443
 33
0.0
210
0.0
220
0.0
230
1.0
  0
SOLID
  5
69A
  8
DRG
  6
CONTINUOUS
 62
     7
 10
54.317028682579519
 20
62.919689010637612
 30
0.0
 11
37.24594171128485
 21
61.810777345332077
 31
0.0
 12
52.242389936933542
 22
61.810773957663443
 32
0.0
 13
52.242389936933542
 23
61.810773957663443
 33
0.0
210
0.0
220
0.0
230
1.0
  0
SOLID
  5
69B
  8
DRG
  6
CONTINUOUS
 62
     7
 10
35.171300103430731
 20
62.919696387836943
 30
0.0
 11
37.24594171128485
 21
61.810777345332077
 31
0.0
 12
54.317028682579519
 22
62.919689010637612
 32
0.0
 13
54.317028682579519
 23
62.919689010637612
 33
0.0
210
0.0
220
0.0
230
1.0
  0
SOLID
  5
69C
  8
DRG
  6
CONTINUOUS
 62
     7
 10
91.182939940464834
 20
62.919696387837
 30
0.0
 11
93.257581548318967
 21
61.810777345332113
 31
0.0
 12
110.3286685196136
 22
62.919689010637612
 32
0.0
 13
110.3286685196136
 23
62.919689010637612
 33
0.0
210
0.0
220
0.0
230
1.0
  0
SOLID
  5
69D
  8
DRG
  6
CONTINUOUS
 62
     7
 10
69.076539350407444
 20
63.909413320597693
 30
0.0
 11
70.343272795281834
 21
62.642679875723317
 31
0.0
 12
84.501142256151084
 22
62.072518178885289
 32
0.0
 13
84.501142256151084
 23
62.072518178885289
 33
0.0
210
0.0
220
0.0
230
1.0
  0
SOLID
  5
69E
  8
DRG
  6
CONTINUOUS
 62
     7
 10
56.135465782143832
 20
64.412037842036057
 30
0.0
 11
35.171300103430731
 21
62.919696387836943
 31
0.0
 12
54.317028682579519
 22
62.919689010637612
 32
0.0
 13
54.317028682579519
 23
62.919689010637612
 33
0.0
210
0.0
220
0.0
230
1.0
  0
SOLID
  5
69F
  8
DRG
  6
CONTINUOUS
 62
     7
 10
112.14710561917801
 20
64.412037842036057
 30
0.0
 11
91.182939940464834
 21
62.919696387837
 31
0.0
 12
110.3286685196136
 22
62.919689010637612
 32
0.0
 13
110.3286685196136
 23
62.919689010637612
 33
0.0
210
0.0
220
0.0
230
1.0
  0
SOLID
  5
6A0
  8
DRG
  6
CONTINUOUS
 62
     7
 10
33.352861525427407
 20
64.412050361228864
 30
0.0
 11
35.171300103430731
 21
62.919696387836943
 31
0.0
 12
56.135465782143832
 22
64.412037842036057
 32
0.0
 13
56.135465782143832
 23
64.412037842036057
 33
0.0
210
0.0
220
0.0
230
1.0
  0
SOLID
  5
6A1
  8
DRG
  6
CONTINUOUS
 62
     7
 10
89.364501362461496
 20
64.412050361228964
 30
0.0
 11
91.182939940464834
 21
62.919696387837
 31
0.0
 12
112.14710561917801
 22
64.412037842036057
 32
0.0
 13
112.14710561917801
 23
64.412037842036057
 33
0.0
210
0.0
220
0.0
230
1.0
  0
SOLID
  5
6A2
  8
DRG
  6
CONTINUOUS
 62
     7
 10
68.123440266932349
 20
65.426261822527096
 30
0.0
 11
69.076539350407444
 21
63.909413320597693
 31
0.0
 12
84.501142256151084
 22
62.072518178885289
 32
0.0
 13
84.501142256151084
 23
62.072518178885289
 33
0.0
210
0.0
220
0.0
230
1.0
  0
SOLID
  5
6A3
  8
DRG
  6
CONTINUOUS
 62
     7
 10
113.63945981642181
 20
66.230470537963186
 30
0.0
 11
89.364501362461496
 21
64.412050361228964
 31
0.0
 12
112.14710561917801
 22
64.412037842036057
 32
0.0
 13
112.14710561917801
 23
64.412037842036057
 33
0.0
210
0.0
220
0.0
230
1.0
  0
SOLID
  5
6A4
  8
DRG
  6
CONTINUOUS
 62
     7
 10
57.627819979387709
 20
66.230470537963186
 30
0.0
 11
33.352861525427407
 21
64.412050361228864
 31
0.0
 12
56.135465782143832
 22
64.412037842036057
 32
0.0
 13
56.135465782143832
 23
64.412037842036057
 33
0.0
210
0.0
220
0.0
230
1.0
  0
SOLID
  5
6A5
  8
DRG
  6
CONTINUOUS
 62
     7
 10
31.860507552035429
 20
66.230488939232146
 30
0.0
 11
33.352861525427407
 21
64.412050361228864
 31
0.0
 12
57.627819979387709
 22
66.230470537963186
 32
0.0
 13
57.627819979387709
 23
66.230470537963186
 33
0.0
210
0.0
220
0.0
230
1.0
  0
SOLID
  5
6A6
  8
DRG
  6
CONTINUOUS
 62
     7
 10
87.872147389069525
 20
66.230488939232288
 30
0.0
 11
89.364501362461496
 21
64.412050361228964
 31
0.0
 12
113.63945981642181
 22
66.230470537963186
 32
0.0
 13
113.63945981642181
 23
66.230470537963186
 33
0.0
  0
SOLID
  5
6A7
  8
DRG
  6
CONTINUOUS
 62
     7
 10
67.531767912697106
 20
67.117164263817045
 30
0.0
 11
68.123440266932349
 21
65.426261822527096
 31
0.0
 12
84.501142256151084
 22
62.072518178885289
 32
0.0
 13
84.501142256151084
 23
62.072518178885289
 33
0.0
210
0.0
220
0.0
230
1.0
  0
SOLID
  5
6A8
  8
DRG
  6
CONTINUOUS
 62
     7
 10
114.74838099124401
 20
68.305106011408881
 30
0.0
 11
87.872147389069525
 21
66.230488939232288
 31
0.0
 12
113.63945981642181
 22
66.230470537963186
 32
0.0
 13
113.63945981642181
 23
66.230470537963186
 33
0.0
210
0.0
220
0.0
230
1.0
  0
SOLID
  5
6A9
  8
DRG
  6
CONTINUOUS
 62
     7
 10
58.736741154209867
 20
68.305106011408881
 30
0.0
 11
31.860507552035429
 21
66.230488939232146
 31
0.0
 12
57.627819979387709
 22
66.230470537963186
 32
0.0
 13
57.627819979387709
 23
66.230470537963186
 33
0.0
210
0.0
220
0.0
230
1.0
  0
SOLID
  5
6AA
  8
DRG
  6
CONTINUOUS
 62
     7
 10
30.751588509530521
 20
68.305130547086236
 30
0.0
 11
31.860507552035429
 21
66.230488939232146
 31
0.0
 12
58.736741154209867
 22
68.305106011408881
 32
0.0
 13
58.736741154209867
 23
68.305106011408881
 33
0.0
210
0.0
220
0.0
230
1.0
  0
SOLID
  5
6AB
  8
DRG
  6
CONTINUOUS
 62
     7
 10
86.763228346564617
 20
68.305130547086421
 30
0.0
 11
87.872147389069525
 21
66.230488939232288
 31
0.0
 12
114.74838099124401
 22
68.305106011408881
 32
0.0
 13
114.74838099124401
 23
68.305106011408881
 33
0.0
210
0.0
220
0.0
230
1.0
  0
SOLID
  5
6AC
  8
DRG
  6
CONTINUOUS
 62
     7
 10
44.744171147941039
 20
68.794444026784149
 30
0.0
 11
30.751588509530521
 21
68.305130547086236
 31
0.0
 12
58.736741154209867
 22
68.305106011408881
 32
0.0
 13
58.736741154209867
 23
68.305106011408881
 33
0.0
210
0.0
220
0.0
230
1.0
  0
SOLID
  5
6AD
  8
DRG
  6
CONTINUOUS
 62
     7
 10
100.7558109849752
 20
68.794444026784163
 30
0.0
 11
86.763228346564617
 21
68.305130547086421
 31
0.0
 12
114.74838099124401
 22
68.305106011408881
 32
0.0
 13
114.74838099124401
 23
68.305106011408881
 33
0.0
210
0.0
220
0.0
230
1.0
  0
SOLID
  5
6AE
  8
DRG
  6
CONTINUOUS
 62
     7
 10
67.331191210151701
 20
68.89733173546756
 30
0.0
 11
67.531767912697106
 21
67.117164263817045
 31
0.0
 12
84.501142256151084
 22
62.072518178885289
 32
0.0
 13
84.501142256151084
 23
62.072518178885289
 33
0.0
210
0.0
220
0.0
230
1.0
  0
SOLID
  5
6AF
  8
DRG
  6
CONTINUOUS
 62
     7
 10
45.937347357229378
 20
68.983424572900503
 30
0.0
 11
44.744171147941039
 21
68.794444026784149
 31
0.0
 12
58.736741154209867
 22
68.305106011408881
 32
0.0
 13
58.736741154209867
 23
68.305106011408881
 33
0.0
210
0.0
220
0.0
230
1.0
  0
SOLID
  5
6B0
  8
DRG
  6
CONTINUOUS
 62
     7
 10
101.94898719426349
 20
68.983424572900518
 30
0.0
 11
100.7558109849752
 21
68.794444026784163
 31
0.0
 12
114.74838099124401
 22
68.305106011408881
 32
0.0
 13
114.74838099124401
 23
68.305106011408881
 33
0.0
210
0.0
220
0.0
230
1.0
  0
SOLID
  5
6B1
  8
DRG
  6
CONTINUOUS
 62
     7
 10
43.550994938652813
 20
68.983424572901143
 30
0.0
 11
30.751588509530521
 21
68.305130547086236
 31
0.0
 12
44.744171147941039
 22
68.794444026784149
 32
0.0
 13
44.744171147941039
 23
68.794444026784149
 33
0.0
210
0.0
220
0.0
230
1.0
  0
SOLID
  5
6B2
  8
DRG
  6
CONTINUOUS
 62
     7
 10
99.562634775687002
 20
68.983424572901157
 30
0.0
 11
86.763228346564617
 21
68.305130547086421
 31
0.0
 12
100.7558109849752
 22
68.794444026784163
 32
0.0
 13
100.7558109849752
 23
68.794444026784163
 33
0.0
210
0.0
220
0.0
230
1.0
  0
SOLID
  5
6B3
  8
DRG
  6
CONTINUOUS
 62
     7
 10
47.013727165805179
 20
69.531867478691453
 30
0.0
 11
45.937347357229378
 21
68.983424572900503
 31
0.0
 12
58.736741154209867
 22
68.305106011408881
 32
0.0
 13
58.736741154209867
 23
68.305106011408881
 33
0.0
210
0.0
220
0.0
230
1.0
  0
SOLID
  5
6B4
  8
DRG
  6
CONTINUOUS
 62
     7
 10
103.0253670028393
 20
69.531867478691467
 30
0.0
 11
101.94898719426349
 21
68.983424572900518
 31
0.0
 12
114.74838099124401
 22
68.305106011408881
 32
0.0
 13
114.74838099124401
 23
68.305106011408881
 33
0.0
210
0.0
220
0.0
230
1.0
  0
SOLID
  5
6B5
  8
DRG
  6
CONTINUOUS
 62
     7
 10
42.474615130077296
 20
69.531867478692675
 30
0.0
 11
30.751588509530521
 21
68.305130547086236
 31
0.0
 12
43.550994938652813
 22
68.983424572901143
 32
0.0
 13
43.550994938652813
 23
68.983424572901143
 33
0.0
210
0.0
220
0.0
230
1.0
  0
SOLID
  5
6B6
  8
DRG
  6
CONTINUOUS
 62
     7
 10
98.486254967111506
 20
69.531867478692689
 30
0.0
 11
86.763228346564617
 21
68.305130547086421
 31
0.0
 12
99.562634775687002
 22
68.983424572901157
 32
0.0
 13
99.562634775687002
 23
68.983424572901157
 33
0.0
210
0.0
220
0.0
230
1.0
  0
SOLID
  5
6B7
  8
DRG
  6
CONTINUOUS
 62
     7
 10
80.482556033578916
 20
69.876055965300111
 30
0.0
 11
67.331191210151701
 21
68.89733173546756
 31
0.0
 12
84.501142256151084
 22
62.072518178885289
 32
0.0
 13
84.501142256151084
 23
62.072518178885289
 33
0.0
210
0.0
220
0.0
230
1.0
  0
SOLID
  5
6B8
  8
DRG
  6
CONTINUOUS
 62
     7
 10
84.501142256151084
 20
62.072518178885289
 30
0.0
 11
83.501142256151255
 21
69.876055965300111
 31
0.0
 12
80.482556033578916
 22
69.876055965300111
 32
0.0
 13
80.482556033578916
 23
69.876055965300111
 33
0.0
210
0.0
220
0.0
230
1.0
  0
SOLID
  5
6B9
  8
DRG
  6
CONTINUOUS
 62
     7
 10
84.015250681967487
 20
70.00375669518948
 30
0.0
 11
83.501142256151255
 21
69.876055965300111
 31
0.0
 12
84.501142256151084
 22
62.072518178885289
 32
0.0
 13
84.501142256151084
 23
62.072518178885289
 33
0.0
  0
SOLID
  5
6BA
  8
DRG
  6
CONTINUOUS
 62
     7
 10
79.334505736483663
 20
70.104417367766246
 30
0.0
 11
67.331191210151701
 21
68.89733173546756
 31
0.0
 12
80.482556033578916
 22
69.876055965300111
 32
0.0
 13
80.482556033578916
 23
69.876055965300111
 33
0.0
210
0.0
220
0.0
230
1.0
  0
SOLID
  5
6BB
  8
DRG
  6
CONTINUOUS
 62
     7
 10
84.501142256151084
 20
70.214764581409185
 30
0.0
 11
84.015250681967487
 21
70.00375669518948
 31
0.0
 12
84.501142256151084
 22
62.072518178885289
 32
0.0
 13
84.501142256151084
 23
62.072518178885289
 33
0.0
210
0.0
220
0.0
230
1.0
  0
SOLID
  5
6BC
  8
DRG
  6
CONTINUOUS
 62
     7
 10
47.867947018425959
 20
70.386087331311757
 30
0.0
 11
47.013727165805179
 21
69.531867478691453
 31
0.0
 12
58.736741154209867
 22
68.305106011408881
 32
0.0
 13
58.736741154209867
 23
68.305106011408881
 33
0.0
210
0.0
220
0.0
230
1.0
  0
SOLID
  5
6BD
  8
DRG
  6
CONTINUOUS
 62
     7
 10
103.8795868554601
 20
70.386087331311771
 30
0.0
 11
103.0253670028393
 21
69.531867478691467
 31
0.0
 12
114.74838099124401
 22
68.305106011408881
 32
0.0
 13
114.74838099124401
 23
68.305106011408881
 33
0.0
210
0.0
220
0.0
230
1.0
  0
SOLID
  5
6BE
  8
DRG
  6
CONTINUOUS
 62
     7
 10
41.620395277457
 20
70.386087331313433
 30
0.0
 11
30.751588509530521
 21
68.305130547086236
 31
0.0
 12
42.474615130077296
 22
69.531867478692675
 32
0.0
 13
42.474615130077296
 23
69.531867478692675
 33
0.0
  0
SOLID
  5
6BF
  8
DRG
  6
CONTINUOUS
 62
     7
 10
97.632035114491202
 20
70.386087331313462
 30
0.0
 11
86.763228346564617
 21
68.305130547086421
 31
0.0
 12
98.486254967111506
 22
69.531867478692689
 32
0.0
 13
98.486254967111506
 23
69.531867478692689
 33
0.0
210
0.0
220
0.0
230
1.0
  0
SOLID
  5
6C0
  8
DRG
  6
CONTINUOUS
 62
     7
 10
115.4312540843801
 20
70.556217483175402
 30
0.0
 11
103.8795868554601
 21
70.386087331311771
 31
0.0
 12
114.74838099124401
 22
68.305106011408881
 32
0.0
 13
114.74838099124401
 23
68.305106011408881
 33
0.0
210
0.0
220
0.0
230
1.0
  0
SOLID
  5
6C1
  8
DRG
  6
CONTINUOUS
 62
     7
 10
59.419614247346018
 20
70.556217483175402
 30
0.0
 11
47.867947018425959
 21
70.386087331311757
 31
0.0
 12
58.736741154209867
 22
68.305106011408881
 32
0.0
 13
58.736741154209867
 23
68.305106011408881
 33
0.0
210
0.0
220
0.0
230
1.0
  0
SOLID
  5
6C2
  8
DRG
  6
CONTINUOUS
 62
     7
 10
30.068719534827149
 20
70.556247871273712
 30
0.0
 11
30.751588509530521
 21
68.305130547086236
 31
0.0
 12
41.620395277457
 22
70.386087331313433
 32
0.0
 13
41.620395277457
 23
70.386087331313433
 33
0.0
210
0.0
220
0.0
230
1.0
  0
SOLID
  5
6C3
  8
DRG
  6
CONTINUOUS
 62
     7
 10
86.080359371861277
 20
70.556247871273953
 30
0.0
 11
86.763228346564617
 21
68.305130547086421
 31
0.0
 12
97.632035114491202
 22
70.386087331313462
 32
0.0
 13
97.632035114491202
 23
70.386087331313462
 33
0.0
  0
SOLID
  5
6C4
  8
DRG
  6
CONTINUOUS
 62
     7
 10
78.361235690019285
 20
70.754735621740465
 30
0.0
 11
67.331191210151701
 21
68.89733173546756
 31
0.0
 12
79.334505736483663
 22
70.104417367766246
 32
0.0
 13
79.334505736483663
 23
70.104417367766246
 33
0.0
210
0.0
220
0.0
230
1.0
  0
SOLID
  5
6C5
  8
DRG
  6
CONTINUOUS
 62
     7
 10
48.416389924217491
 20
71.462467139887266
 30
0.0
 11
47.867947018425959
 21
70.386087331311757
 31
0.0
 12
59.419614247346018
 22
70.556217483175402
 32
0.0
 13
59.419614247346018
 23
70.556217483175402
 33
0.0
  0
SOLID
  5
6C6
  8
DRG
  6
CONTINUOUS
 62
     7
 10
104.42802976125159
 20
71.462467139887281
 30
0.0
 11
103.8795868554601
 21
70.386087331311771
 31
0.0
 12
115.4312540843801
 22
70.556217483175402
 32
0.0
 13
115.4312540843801
 23
70.556217483175402
 33
0.0
210
0.0
220
0.0
230
1.0
  0
SOLID
  5
6C7
  8
DRG
  6
CONTINUOUS
 62
     7
 10
41.07195237166605
 20
71.462467139889256
 30
0.0
 11
30.068719534827149
 21
70.556247871273712
 31
0.0
 12
41.620395277457
 22
70.386087331313433
 32
0.0
 13
41.620395277457
 23
70.386087331313433
 33
0.0
210
0.0
220
0.0
230
1.0
  0
SOLID
  5
6C8
  8
DRG
  6
CONTINUOUS
 62
     7
 10
97.083592208700239
 20
71.46246713988927
 30
0.0
 11
86.080359371861277
 21
70.556247871273953
 31
0.0
 12
97.632035114491202
 22
70.386087331313462
 32
0.0
 13
97.632035114491202
 23
70.386087331313462
 33
0.0
210
0.0
220
0.0
230
1.0
  0
SOLID
  5
6C9
  8
DRG
  6
CONTINUOUS
 62
     7
 10
77.710917436045065
 20
71.728005668204844
 30
0.0
 11
67.331191210151701
 21
68.89733173546756
 31
0.0
 12
78.361235690019285
 22
70.754735621740465
 32
0.0
 13
78.361235690019285
 23
70.754735621740465
 33
0.0
  0
SOLID
  5
6CA
  8
DRG
  6
CONTINUOUS
 62
     7
 10
48.605370470334492
 20
72.655643349175492
 30
0.0
 11
48.416389924217491
 21
71.462467139887266
 31
0.0
 12
59.419614247346018
 22
70.556217483175402
 32
0.0
 13
59.419614247346018
 23
70.556217483175402
 33
0.0
210
0.0
220
0.0
230
1.0
  0
SOLID
  5
6CB
  8
DRG
  6
CONTINUOUS
 62
     7
 10
104.6170103073686
 20
72.655643349175506
 30
0.0
 11
104.42802976125159
 21
71.462467139887281
 31
0.0
 12
115.4312540843801
 22
70.556217483175402
 32
0.0
 13
115.4312540843801
 23
70.556217483175402
 33
0.0
210
0.0
220
0.0
230
1.0
  0
SOLID
  5
6CC
  8
DRG
  6
CONTINUOUS
 62
     7
 10
40.882971825549703
 20
72.655643349177566
 30
0.0
 11
30.068719534827149
 21
70.556247871273712
 31
0.0
 12
41.07195237166605
 22
71.462467139889256
 32
0.0
 13
41.07195237166605
 23
71.462467139889256
 33
0.0
210
0.0
220
0.0
230
1.0
  0
SOLID
  5
6CD
  8
DRG
  6
CONTINUOUS
 62
     7
 10
96.894611662583884
 20
72.655643349177595
 30
0.0
 11
86.080359371861277
 21
70.556247871273953
 31
0.0
 12
97.083592208700239
 22
71.46246713988927
 32
0.0
 13
97.083592208700239
 23
71.46246713988927
 33
0.0
  0
SOLID
  5
6CE
  8
DRG
  6
CONTINUOUS
 62
     7
 10
77.482556033578931
 20
72.876055965300111
 30
0.0
 11
67.331191210151701
 21
68.89733173546756
 31
0.0
 12
77.710917436045065
 22
71.728005668204844
 32
0.0
 13
77.710917436045065
 23
71.728005668204844
 33
0.0
210
0.0
220
0.0
230
1.0
  0
SOLID
  5
6CF
  8
DRG
  6
CONTINUOUS
 62
     7
 10
115.6618367640986
 20
72.897296325816527
 30
0.0
 11
104.6170103073686
 21
72.655643349175506
 31
0.0
 12
115.4312540843801
 22
70.556217483175402
 32
0.0
 13
115.4312540843801
 23
70.556217483175402
 33
0.0
210
0.0
220
0.0
230
1.0
  0
SOLID
  5
6D0
  8
DRG
  6
CONTINUOUS
 62
     7
 10
59.650196927064421
 20
72.897296325816555
 30
0.0
 11
48.605370470334492
 21
72.655643349175492
 31
0.0
 12
59.419614247346018
 22
70.556217483175402
 32
0.0
 13
59.419614247346018
 23
70.556217483175402
 33
0.0
  0
SOLID
  5
6D1
  8
DRG
  6
CONTINUOUS
 62
     7
 10
29.838142899665851
 20
72.897331735467191
 30
0.0
 11
30.068719534827149
 21
70.556247871273712
 31
0.0
 12
40.882971825549703
 22
72.655643349177566
 32
0.0
 13
40.882971825549703
 23
72.655643349177566
 33
0.0
210
0.0
220
0.0
230
1.0
  0
SOLID
  5
6D2
  8
DRG
  6
CONTINUOUS
 62
     7
 10
85.849782736700035
 20
72.897331735467475
 30
0.0
 11
86.080359371861277
 21
70.556247871273953
 31
0.0
 12
96.894611662583884
 22
72.655643349177595
 32
0.0
 13
96.894611662583884
 23
72.655643349177595
 33
0.0
  0
SOLID
  5
6D3
  8
DRG
  6
CONTINUOUS
 62
     7
 10
165.4162645291251
 20
78.311404477182364
 30
0.0
 11
161.3332883364622
 21
62.115696081838678
 31
0.0
 12
171.78072804963571
 22
62.115696081838678
 32
0.0
 13
171.78072804963571
 23
62.115696081838678
 33
0.0
210
0.0
220
0.0
230
1.0
  0
SOLID
  5
6D4
  8
DRG
  6
CONTINUOUS
 62
     7
 10
48.825355035771203
 20
81.496816718755184
 30
0.0
 11
48.605370470334492
 21
72.655643349175492
 31
0.0
 12
59.650196927064421
 22
72.897296325816555
 32
0.0
 13
59.650196927064421
 23
72.897296325816555
 33
0.0
210
0.0
220
0.0
230
1.0
  0
SOLID
  5
6D5
  8
DRG
  6
CONTINUOUS
 62
     7
 10
104.83699487280531
 20
81.496816718755184
 30
0.0
 11
104.6170103073686
 21
72.655643349175506
 31
0.0
 12
115.6618367640986
 22
72.897296325816527
 32
0.0
 13
115.6618367640986
 23
72.897296325816527
 33
0.0
210
0.0
220
0.0
230
1.0
  0
SOLID
  5
6D6
  8
DRG
  6
CONTINUOUS
 62
     7
 10
115.9613008061006
 20
81.496816718755412
 30
0.0
 11
104.83699487280531
 21
81.496816718755184
 31
0.0
 12
115.6618367640986
 22
72.897296325816527
 32
0.0
 13
115.6618367640986
 23
72.897296325816527
 33
0.0
210
0.0
220
0.0
230
1.0
  0
SOLID
  5
6D7
  8
DRG
  6
CONTINUOUS
 62
     7
 10
59.9496609690664
 20
81.49681671875544
 30
0.0
 11
48.825355035771203
 21
81.496816718755184
 31
0.0
 12
59.650196927064421
 22
72.897296325816555
 32
0.0
 13
59.650196927064421
 23
72.897296325816555
 33
0.0
210
0.0
220
0.0
230
1.0
  0
SOLID
  5
6D8
  8
DRG
  6
CONTINUOUS
 62
     7
 10
29.538681326817759
 20
81.496816718755596
 30
0.0
 11
29.838142899665851
 21
72.897331735467191
 31
0.0
 12
40.882971825549703
 22
72.655643349177566
 32
0.0
 13
40.882971825549703
 23
72.655643349177566
 33
0.0
  0
SOLID
  5
6D9
  8
DRG
  6
CONTINUOUS
 62
     7
 10
85.550321163851976
 20
81.496816718755767
 30
0.0
 11
85.849782736700035
 21
72.897331735467475
 31
0.0
 12
96.894611662583884
 22
72.655643349177595
 32
0.0
 13
96.894611662583884
 23
72.655643349177595
 33
0.0
210
0.0
220
0.0
230
1.0
  0
SOLID
  5
6DA
  8
DRG
  6
CONTINUOUS
 62
     7
 10
40.662987260112992
 20
81.496816718755866
 30
0.0
 11
29.538681326817759
 21
81.496816718755596
 31
0.0
 12
40.882971825549703
 22
72.655643349177566
 32
0.0
 13
40.882971825549703
 23
72.655643349177566
 33
0.0
210
0.0
220
0.0
230
1.0
  0
SOLID
  5
6DB
  8
DRG
  6
CONTINUOUS
 62
     7
 10
96.674627097147194
 20
81.496816718756293
 30
0.0
 11
85.550321163851976
 21
81.496816718755767
 31
0.0
 12
96.894611662583884
 22
72.655643349177595
 32
0.0
 13
96.894611662583884
 23
72.655643349177595
 33
0.0
210
0.0
220
0.0
230
1.0
  0
SOLID
  5
6DC
  8
DRG
  6
CONTINUOUS
 62
     7
 10
153.2899770207527
 20
82.583583780839575
 30
0.0
 11
161.3332883364622
 21
62.115696081838678
 31
0.0
 12
165.4162645291251
 22
78.311404477182364
 32
0.0
 13
165.4162645291251
 23
78.311404477182364
 33
0.0
210
0.0
220
0.0
230
1.0
  0
SOLID
  5
6DD
  8
DRG
  6
CONTINUOUS
 62
     7
 10
18.821661727211438
 20
85.569427875032716
 30
0.0
 11
7.7802673214059723
 21
62.115696081838671
 31
0.0
 12
18.821661727211438
 22
62.115696081838678
 32
0.0
 13
18.821661727211438
 23
62.115696081838678
 33
0.0
  0
SOLID
  5
6DE
  8
DRG
  6
CONTINUOUS
 62
     7
 10
130.05101171535759
 20
85.569427875032716
 30
0.0
 11
119.0096173095521
 21
62.115696081838678
 31
0.0
 12
130.05101171535759
 22
62.115696081838671
 32
0.0
 13
130.05101171535759
 23
62.115696081838671
 33
0.0
210
0.0
220
0.0
230
1.0
  0
SOLID
  5
6DF
  8
DRG
  6
CONTINUOUS
 62
     7
 10
176.9709164189357
 20
86.855763084496857
 30
0.0
 11
153.2899770207527
 21
82.583583780839575
 31
0.0
 12
165.4162645291251
 22
78.311404477182364
 32
0.0
 13
165.4162645291251
 23
78.311404477182364
 33
0.0
210
0.0
220
0.0
230
1.0
  0
SOLID
  5
6E0
  8
DRG
  6
CONTINUOUS
 62
     7
 10
176.9709164189357
 20
86.855763084496857
 30
0.0
 11
165.4162645291251
 21
78.311404477182364
 31
0.0
 12
176.9709164189357
 22
78.31140447718235
 32
0.0
 13
176.9709164189357
 23
78.31140447718235
 33
0.0
210
0.0
220
0.0
230
1.0
  0
SOLID
  5
6E1
  8
DRG
  6
CONTINUOUS
 62
     7
 10
165.4162645291251
 20
86.855763084496886
 30
0.0
 11
153.2899770207527
 21
82.583583780839575
 31
0.0
 12
176.9709164189357
 22
86.855763084496857
 32
0.0
 13
176.9709164189357
 23
86.855763084496857
 33
0.0
210
0.0
220
0.0
230
1.0
  0
SOLID
  5
6E2
  8
DRG
  6
CONTINUOUS
 62
     7
 10
19.022238429756861
 20
87.34959534668323
 30
0.0
 11
7.7802673214059723
 21
62.115696081838671
 31
0.0
 12
18.821661727211438
 22
85.569427875032716
 32
0.0
 13
18.821661727211438
 23
85.569427875032716
 33
0.0
  0
SOLID
  5
6E3
  8
DRG
  6
CONTINUOUS
 62
     7
 10
130.25158841790301
 20
87.349595346683245
 30
0.0
 11
119.0096173095521
 21
62.115696081838678
 31
0.0
 12
130.05101171535759
 22
85.569427875032716
 32
0.0
 13
130.05101171535759
 23
85.569427875032716
 33
0.0
210
0.0
220
0.0
230
1.0
  0
SOLID
  5
6E4
  8
DRG
  6
CONTINUOUS
 62
     7
 10
19.61391078399209
 20
89.04049778797318
 30
0.0
 11
7.7802673214059723
 21
62.115696081838671
 31
0.0
 12
19.022238429756861
 22
87.34959534668323
 32
0.0
 13
19.022238429756861
 23
87.34959534668323
 33
0.0
  0
SOLID
  5
6E5
  8
DRG
  6
CONTINUOUS
 62
     7
 10
130.84326077213819
 20
89.040497787973194
 30
0.0
 11
119.0096173095521
 21
62.115696081838678
 31
0.0
 12
130.25158841790301
 22
87.349595346683245
 32
0.0
 13
130.25158841790301
 23
87.349595346683245
 33
0.0
210
0.0
220
0.0
230
1.0
  0
SOLID
  5
6E6
  8
DRG
  6
CONTINUOUS
 62
     7
 10
29.83814289966584
 20
90.096301702044016
 30
0.0
 11
29.538681326817759
 21
81.496816718755596
 31
0.0
 12
40.662987260112992
 22
81.496816718755866
 32
0.0
 13
40.662987260112992
 23
81.496816718755866
 33
0.0
210
0.0
220
0.0
230
1.0
  0
SOLID
  5
6E7
  8
DRG
  6
CONTINUOUS
 62
     7
 10
85.849782736700035
 20
90.096301702044045
 30
0.0
 11
85.550321163851976
 21
81.496816718755767
 31
0.0
 12
96.674627097147194
 22
81.496816718756293
 32
0.0
 13
96.674627097147194
 23
81.496816718756293
 33
0.0
210
0.0
220
0.0
230
1.0
  0
SOLID
  5
6E8
  8
DRG
  6
CONTINUOUS
 62
     7
 10
115.6618367640986
 20
90.096337111694325
 30
0.0
 11
104.83699487280531
 21
81.496816718755184
 31
0.0
 12
115.9613008061006
 22
81.496816718755412
 32
0.0
 13
115.9613008061006
 23
81.496816718755412
 33
0.0
210
0.0
220
0.0
230
1.0
  0
SOLID
  5
6E9
  8
DRG
  6
CONTINUOUS
 62
     7
 10
59.650196927064421
 20
90.096337111694368
 30
0.0
 11
48.825355035771203
 21
81.496816718755184
 31
0.0
 12
59.9496609690664
 22
81.49681671875544
 32
0.0
 13
59.9496609690664
 23
81.49681671875544
 33
0.0
210
0.0
220
0.0
230
1.0
  0
SOLID
  5
6EA
  8
DRG
  6
CONTINUOUS
 62
     7
 10
40.882971825549703
 20
90.337990088334166
 30
0.0
 11
29.83814289966584
 21
90.096301702044016
 31
0.0
 12
40.662987260112992
 22
81.496816718755866
 32
0.0
 13
40.662987260112992
 23
81.496816718755866
 33
0.0
  0
SOLID
  5
6EB
  8
DRG
  6
CONTINUOUS
 62
     7
 10
48.605370470334456
 20
90.337990088334735
 30
0.0
 11
48.825355035771203
 21
81.496816718755184
 31
0.0
 12
59.650196927064421
 22
90.096337111694368
 32
0.0
 13
59.650196927064421
 23
90.096337111694368
 33
0.0
210
0.0
220
0.0
230
1.0
  0
SOLID
  5
6EC
  8
DRG
  6
CONTINUOUS
 62
     7
 10
104.6170103073686
 20
90.337990088334735
 30
0.0
 11
104.83699487280531
 21
81.496816718755184
 31
0.0
 12
115.6618367640986
 22
90.096337111694325
 32
0.0
 13
115.6618367640986
 23
90.096337111694325
 33
0.0
210
0.0
220
0.0
230
1.0
  0
SOLID
  5
6ED
  8
DRG
  6
CONTINUOUS
 62
     7
 10
96.894611662583884
 20
90.337990088335033
 30
0.0
 11
85.849782736700035
 21
90.096301702044045
 31
0.0
 12
96.674627097147194
 22
81.496816718756293
 32
0.0
 13
96.674627097147194
 23
81.496816718756293
 33
0.0
210
0.0
220
0.0
230
1.0
  0
SOLID
  5
6EE
  8
DRG
  6
CONTINUOUS
 62
     7
 10
41.071952371666292
 20
91.531166297622477
 30
0.0
 11
29.83814289966584
 21
90.096301702044016
 31
0.0
 12
40.882971825549703
 22
90.337990088334166
 32
0.0
 13
40.882971825549703
 23
90.337990088334166
 33
0.0
210
0.0
220
0.0
230
1.0
  0
SOLID
  5
6EF
  8
DRG
  6
CONTINUOUS
 62
     7
 10
48.416389924217718
 20
91.531166297623017
 30
0.0
 11
48.605370470334456
 21
90.337990088334735
 31
0.0
 12
59.650196927064421
 22
90.096337111694368
 32
0.0
 13
59.650196927064421
 23
90.096337111694368
 33
0.0
210
0.0
220
0.0
230
1.0
  0
SOLID
  5
6F0
  8
DRG
  6
CONTINUOUS
 62
     7
 10
104.42802976125201
 20
91.531166297623059
 30
0.0
 11
104.6170103073686
 21
90.337990088334735
 31
0.0
 12
115.6618367640986
 22
90.096337111694325
 32
0.0
 13
115.6618367640986
 23
90.096337111694325
 33
0.0
210
0.0
220
0.0
230
1.0
  0
SOLID
  5
6F1
  8
DRG
  6
CONTINUOUS
 62
     7
 10
97.083592208700608
 20
91.531166297623315
 30
0.0
 11
85.849782736700035
 21
90.096301702044045
 31
0.0
 12
96.894611662583884
 22
90.337990088335033
 32
0.0
 13
96.894611662583884
 23
90.337990088335033
 33
0.0
210
0.0
220
0.0
230
1.0
  0
SOLID
  5
6F2
  8
DRG
  6
CONTINUOUS
 62
     7
 10
30.068719534827121
 20
92.437385566237509
 30
0.0
 11
29.83814289966584
 21
90.096301702044016
 31
0.0
 12
41.071952371666292
 22
91.531166297622477
 32
0.0
 13
41.071952371666292
 23
91.531166297622477
 33
0.0
  0
SOLID
  5
6F3
  8
DRG
  6
CONTINUOUS
 62
     7
 10
86.080359371861306
 20
92.437385566237509
 30
0.0
 11
85.849782736700035
 21
90.096301702044045
 31
0.0
 12
97.083592208700608
 22
91.531166297623315
 32
0.0
 13
97.083592208700608
 23
91.531166297623315
 33
0.0
210
0.0
220
0.0
230
1.0
  0
SOLID
  5
6F4
  8
DRG
  6
CONTINUOUS
 62
     7
 10
115.4312540843802
 20
92.437415954335535
 30
0.0
 11
104.42802976125201
 21
91.531166297623059
 31
0.0
 12
115.6618367640986
 22
90.096337111694325
 32
0.0
 13
115.6618367640986
 23
90.096337111694325
 33
0.0
210
0.0
220
0.0
230
1.0
  0
SOLID
  5
6F5
  8
DRG
  6
CONTINUOUS
 62
     7
 10
59.419614247346082
 20
92.437415954335606
 30
0.0
 11
48.416389924217718
 21
91.531166297623017
 31
0.0
 12
59.650196927064421
 22
90.096337111694368
 32
0.0
 13
59.650196927064421
 23
90.096337111694368
 33
0.0
210
0.0
220
0.0
230
1.0
  0
SOLID
  5
6F6
  8
DRG
  6
CONTINUOUS
 62
     7
 10
41.620395277457447
 20
92.607546106198185
 30
0.0
 11
30.068719534827121
 21
92.437385566237509
 31
0.0
 12
41.071952371666292
 22
91.531166297622477
 32
0.0
 13
41.071952371666292
 23
91.531166297622477
 33
0.0
210
0.0
220
0.0
230
1.0
  0
SOLID
  5
6F7
  8
DRG
  6
CONTINUOUS
 62
     7
 10
47.867947018426399
 20
92.60754610619864
 30
0.0
 11
48.416389924217718
 21
91.531166297623017
 31
0.0
 12
59.419614247346082
 22
92.437415954335606
 32
0.0
 13
59.419614247346082
 23
92.437415954335606
 33
0.0
  0
SOLID
  5
6F8
  8
DRG
  6
CONTINUOUS
 62
     7
 10
103.8795868554608
 20
92.607546106198754
 30
0.0
 11
104.42802976125201
 21
91.531166297623059
 31
0.0
 12
115.4312540843802
 22
92.437415954335535
 32
0.0
 13
115.4312540843802
 23
92.437415954335535
 33
0.0
210
0.0
220
0.0
230
1.0
  0
SOLID
  5
6F9
  8
DRG
  6
CONTINUOUS
 62
     7
 10
97.632035114491885
 20
92.607546106198967
 30
0.0
 11
86.080359371861306
 21
92.437385566237509
 31
0.0
 12
97.083592208700608
 22
91.531166297623315
 32
0.0
 13
97.083592208700608
 23
91.531166297623315
 33
0.0
210
0.0
220
0.0
230
1.0
  0
SOLID
  5
6FA
  8
DRG
  6
CONTINUOUS
 62
     7
 10
42.474615130077929
 20
93.461765958818759
 30
0.0
 11
30.068719534827121
 21
92.437385566237509
 31
0.0
 12
41.620395277457447
 22
92.607546106198185
 32
0.0
 13
41.620395277457447
 23
92.607546106198185
 33
0.0
210
0.0
220
0.0
230
1.0
  0
SOLID
  5
6FB
  8
DRG
  6
CONTINUOUS
 62
     7
 10
47.013727165805797
 20
93.461765958819115
 30
0.0
 11
47.867947018426399
 21
92.60754610619864
 31
0.0
 12
59.419614247346082
 22
92.437415954335606
 32
0.0
 13
59.419614247346082
 23
92.437415954335606
 33
0.0
210
0.0
220
0.0
230
1.0
  0
SOLID
  5
6FC
  8
DRG
  6
CONTINUOUS
 62
     7
 10
103.0253670028403
 20
93.461765958819299
 30
0.0
 11
103.8795868554608
 21
92.607546106198754
 31
0.0
 12
115.4312540843802
 22
92.437415954335535
 32
0.0
 13
115.4312540843802
 23
92.437415954335535
 33
0.0
  0
SOLID
  5
6FD
  8
DRG
  6
CONTINUOUS
 62
     7
 10
98.486254967112458
 20
93.461765958819484
 30
0.0
 11
86.080359371861306
 21
92.437385566237509
 31
0.0
 12
97.632035114491885
 22
92.607546106198967
 32
0.0
 13
97.632035114491885
 23
92.607546106198967
 33
0.0
210
0.0
220
0.0
230
1.0
  0
SOLID
  5
6FE
  8
DRG
  6
CONTINUOUS
 62
     7
 10
43.550994938653538
 20
94.010208864610107
 30
0.0
 11
30.068719534827121
 21
92.437385566237509
 31
0.0
 12
42.474615130077929
 22
93.461765958818759
 32
0.0
 13
42.474615130077929
 23
93.461765958818759
 33
0.0
210
0.0
220
0.0
230
1.0
  0
SOLID
  5
6FF
  8
DRG
  6
CONTINUOUS
 62
     7
 10
45.937347357230102
 20
94.010208864610263
 30
0.0
 11
47.013727165805797
 21
93.461765958819115
 31
0.0
 12
59.419614247346082
 22
92.437415954335606
 32
0.0
 13
59.419614247346082
 23
92.437415954335606
 33
0.0
210
0.0
220
0.0
230
1.0
  0
SOLID
  5
700
  8
DRG
  6
CONTINUOUS
 62
     7
 10
101.9489871942646
 20
94.010208864610576
 30
0.0
 11
103.0253670028403
 21
93.461765958819299
 31
0.0
 12
115.4312540843802
 22
92.437415954335535
 32
0.0
 13
115.4312540843802
 23
92.437415954335535
 33
0.0
  0
SOLID
  5
701
  8
DRG
  6
CONTINUOUS
 62
     7
 10
99.562634775688124
 20
94.010208864610675
 30
0.0
 11
86.080359371861306
 21
92.437385566237509
 31
0.0
 12
98.486254967112458
 22
93.461765958819484
 32
0.0
 13
98.486254967112458
 23
93.461765958819484
 33
0.0
210
0.0
220
0.0
230
1.0
  0
SOLID
  5
702
  8
DRG
  6
CONTINUOUS
 62
     7
 10
44.744171147941813
 20
94.199189410726845
 30
0.0
 11
30.068719534827121
 21
92.437385566237509
 31
0.0
 12
43.550994938653538
 22
94.010208864610107
 32
0.0
 13
43.550994938653538
 23
94.010208864610107
 33
0.0
210
0.0
220
0.0
230
1.0
  0
SOLID
  5
703
  8
DRG
  6
CONTINUOUS
 62
     7
 10
44.744171147941813
 20
94.199189410726845
 30
0.0
 11
45.937347357230102
 21
94.010208864610263
 31
0.0
 12
59.419614247346082
 22
92.437415954335606
 32
0.0
 13
59.419614247346082
 23
92.437415954335606
 33
0.0
210
0.0
220
0.0
230
1.0
  0
SOLID
  5
704
  8
DRG
  6
CONTINUOUS
 62
     7
 10
100.75581098497641
 20
94.199189410727286
 30
0.0
 11
86.080359371861306
 21
92.437385566237509
 31
0.0
 12
99.562634775688124
 22
94.010208864610675
 32
0.0
 13
99.562634775688124
 23
94.010208864610675
 33
0.0
  0
SOLID
  5
705
  8
DRG
  6
CONTINUOUS
 62
     7
 10
100.75581098497641
 20
94.199189410727286
 30
0.0
 11
101.9489871942646
 21
94.010208864610576
 31
0.0
 12
115.4312540843802
 22
92.437415954335535
 32
0.0
 13
115.4312540843802
 23
92.437415954335535
 33
0.0
  0
SOLID
  5
706
  8
DRG
  6
CONTINUOUS
 62
     7
 10
77.482556033578931
 20
94.593352860836134
 30
0.0
 11
67.331191210151701
 21
68.89733173546756
 31
0.0
 12
77.482556033578931
 22
72.876055965300111
 32
0.0
 13
77.482556033578931
 23
72.876055965300111
 33
0.0
210
0.0
220
0.0
230
1.0
  0
SOLID
  5
707
  8
DRG
  6
CONTINUOUS
 62
     7
 10
67.331191210151687
 20
94.593352860836134
 30
0.0
 11
77.482556033578931
 21
94.593352860836134
 31
0.0
 12
84.553623006881026
 22
94.593352860836134
 32
0.0
 13
84.553623006881026
 23
94.593352860836134
 33
0.0
210
0.0
220
0.0
230
1.0
  0
SOLID
  5
708
  8
DRG
  6
CONTINUOUS
 62
     7
 10
67.331191210151687
 20
94.593352860836134
 30
0.0
 11
67.331191210151701
 21
68.89733173546756
 31
0.0
 12
77.482556033578931
 22
94.593352860836134
 32
0.0
 13
77.482556033578931
 23
94.593352860836134
 33
0.0
210
0.0
220
0.0
230
1.0
  0
SOLID
  5
709
  8
DRG
  6
CONTINUOUS
 62
     7
 10
30.751588509530482
 20
94.688502890425028
 30
0.0
 11
30.068719534827121
 21
92.437385566237509
 31
0.0
 12
44.744171147941813
 22
94.199189410726845
 32
0.0
 13
44.744171147941813
 23
94.199189410726845
 33
0.0
210
0.0
220
0.0
230
1.0
  0
SOLID
  5
70A
  8
DRG
  6
CONTINUOUS
 62
     7
 10
86.763228346564645
 20
94.688502890425028
 30
0.0
 11
86.080359371861306
 21
92.437385566237509
 31
0.0
 12
100.75581098497641
 22
94.199189410727286
 32
0.0
 13
100.75581098497641
 23
94.199189410727286
 33
0.0
210
0.0
220
0.0
230
1.0
  0
SOLID
  5
70B
  8
DRG
  6
CONTINUOUS
 62
     7
 10
114.7483809912442
 20
94.688527426102155
 30
0.0
 11
86.763228346564645
 21
94.688502890425028
 31
0.0
 12
100.75581098497641
 22
94.199189410727286
 32
0.0
 13
100.75581098497641
 23
94.199189410727286
 33
0.0
210
0.0
220
0.0
230
1.0
  0
SOLID
  5
70C
  8
DRG
  6
CONTINUOUS
 62
     7
 10
114.7483809912442
 20
94.688527426102155
 30
0.0
 11
100.75581098497641
 21
94.199189410727286
 31
0.0
 12
115.4312540843802
 22
92.437415954335535
 32
0.0
 13
115.4312540843802
 23
92.437415954335535
 33
0.0
210
0.0
220
0.0
230
1.0
  0
SOLID
  5
70D
  8
DRG
  6
CONTINUOUS
 62
     7
 10
58.73674115420998
 20
94.688527426102183
 30
0.0
 11
30.751588509530482
 21
94.688502890425028
 31
0.0
 12
44.744171147941813
 22
94.199189410726845
 32
0.0
 13
44.744171147941813
 23
94.199189410726845
 33
0.0
210
0.0
220
0.0
230
1.0
  0
SOLID
  5
70E
  8
DRG
  6
CONTINUOUS
 62
     7
 10
58.73674115420998
 20
94.688527426102183
 30
0.0
 11
44.744171147941813
 21
94.199189410726845
 31
0.0
 12
59.419614247346082
 22
92.437415954335606
 32
0.0
 13
59.419614247346082
 23
92.437415954335606
 33
0.0
210
0.0
220
0.0
230
1.0
  0
SOLID
  5
70F
  8
DRG
  6
CONTINUOUS
 62
     7
 10
87.872147389069568
 20
96.763144498279132
 30
0.0
 11
86.763228346564645
 21
94.688502890425028
 31
0.0
 12
114.7483809912442
 22
94.688527426102155
 32
0.0
 13
114.7483809912442
 23
94.688527426102155
 33
0.0
210
0.0
220
0.0
230
1.0
  0
SOLID
  5
710
  8
DRG
  6
CONTINUOUS
 62
     7
 10
31.86050755203539
 20
96.763144498279132
 30
0.0
 11
30.751588509530482
 21
94.688502890425028
 31
0.0
 12
58.73674115420998
 22
94.688527426102183
 32
0.0
 13
58.73674115420998
 23
94.688527426102183
 33
0.0
210
0.0
220
0.0
230
1.0
  0
SOLID
  5
711
  8
DRG
  6
CONTINUOUS
 62
     7
 10
113.639459816422
 20
96.763162899547922
 30
0.0
 11
87.872147389069568
 21
96.763144498279132
 31
0.0
 12
114.7483809912442
 22
94.688527426102155
 32
0.0
 13
114.7483809912442
 23
94.688527426102155
 33
0.0
210
0.0
220
0.0
230
1.0
  0
SOLID
  5
712
  8
DRG
  6
CONTINUOUS
 62
     7
 10
57.627819979387837
 20
96.763162899547964
 30
0.0
 11
31.86050755203539
 21
96.763144498279132
 31
0.0
 12
58.73674115420998
 22
94.688527426102183
 32
0.0
 13
58.73674115420998
 23
94.688527426102183
 33
0.0
210
0.0
220
0.0
230
1.0
  0
SOLID
  5
713
  8
DRG
  6
CONTINUOUS
 62
     7
 10
130.05101171535759
 20
97.915857504065855
 30
0.0
 11
138.05101171535759
 21
93.569427875032716
 31
0.0
 12
139.4206293992797
 22
93.56942787503273
 32
0.0
 13
139.4206293992797
 23
93.56942787503273
 33
0.0
210
0.0
220
0.0
230
1.0
  0
SOLID
  5
714
  8
DRG
  6
CONTINUOUS
 62
     7
 10
130.05101171535759
 20
97.915857504065855
 30
0.0
 11
136.2708442437071
 21
93.368851172487297
 31
0.0
 12
138.05101171535759
 22
93.569427875032716
 32
0.0
 13
138.05101171535759
 23
93.569427875032716
 33
0.0
210
0.0
220
0.0
230
1.0
  0
SOLID
  5
715
  8
DRG
  6
CONTINUOUS
 62
     7
 10
130.05101171535759
 20
97.915857504065855
 30
0.0
 11
134.5799418024171
 21
92.777178818252068
 31
0.0
 12
136.2708442437071
 22
93.368851172487297
 32
0.0
 13
136.2708442437071
 23
93.368851172487297
 33
0.0
210
0.0
220
0.0
230
1.0
  0
SOLID
  5
716
  8
DRG
  6
CONTINUOUS
 62
     7
 10
130.05101171535759
 20
97.915857504065855
 30
0.0
 11
133.06309330048771
 21
91.824079734776959
 31
0.0
 12
134.5799418024171
 22
92.777178818252068
 32
0.0
 13
134.5799418024171
 23
92.777178818252068
 33
0.0
210
0.0
220
0.0
230
1.0
  0
SOLID
  5
717
  8
DRG
  6
CONTINUOUS
 62
     7
 10
130.05101171535759
 20
97.915857504065855
 30
0.0
 11
131.7963598556133
 21
90.557346289902583
 31
0.0
 12
133.06309330048771
 22
91.824079734776959
 32
0.0
 13
133.06309330048771
 23
91.824079734776959
 33
0.0
210
0.0
220
0.0
230
1.0
  0
SOLID
  5
718
  8
DRG
  6
CONTINUOUS
 62
     7
 10
130.05101171535759
 20
97.915857504065855
 30
0.0
 11
130.84326077213819
 21
89.040497787973194
 31
0.0
 12
131.7963598556133
 22
90.557346289902583
 32
0.0
 13
131.7963598556133
 23
90.557346289902583
 33
0.0
210
0.0
220
0.0
230
1.0
  0
SOLID
  5
719
  8
DRG
  6
CONTINUOUS
 62
     7
 10
130.05101171535759
 20
97.915857504065855
 30
0.0
 11
119.0096173095521
 21
62.115696081838678
 31
0.0
 12
130.84326077213819
 22
89.040497787973194
 32
0.0
 13
130.84326077213819
 23
89.040497787973194
 33
0.0
  0
SOLID
  5
71A
  8
DRG
  6
CONTINUOUS
 62
     7
 10
18.821661727211438
 20
97.915857504065912
 30
0.0
 11
26.821661727211438
 21
93.569427875032716
 31
0.0
 12
28.191279411133561
 22
93.56942787503273
 32
0.0
 13
28.191279411133561
 23
93.56942787503273
 33
0.0
  0
SOLID
  5
71B
  8
DRG
  6
CONTINUOUS
 62
     7
 10
18.821661727211438
 20
97.915857504065912
 30
0.0
 11
25.041494255560931
 21
93.368851172487297
 31
0.0
 12
26.821661727211438
 22
93.569427875032716
 32
0.0
 13
26.821661727211438
 23
93.569427875032716
 33
0.0
210
0.0
220
0.0
230
1.0
  0
SOLID
  5
71C
  8
DRG
  6
CONTINUOUS
 62
     7
 10
18.821661727211438
 20
97.915857504065912
 30
0.0
 11
23.350591814270981
 21
92.777178818252068
 31
0.0
 12
25.041494255560931
 22
93.368851172487297
 32
0.0
 13
25.041494255560931
 23
93.368851172487297
 33
0.0
210
0.0
220
0.0
230
1.0
  0
SOLID
  5
71D
  8
DRG
  6
CONTINUOUS
 62
     7
 10
18.821661727211438
 20
97.915857504065912
 30
0.0
 11
21.833743312341579
 21
91.824079734776959
 31
0.0
 12
23.350591814270981
 22
92.777178818252068
 32
0.0
 13
23.350591814270981
 23
92.777178818252068
 33
0.0
210
0.0
220
0.0
230
1.0
  0
SOLID
  5
71E
  8
DRG
  6
CONTINUOUS
 62
     7
 10
18.821661727211438
 20
97.915857504065912
 30
0.0
 11
20.567009867467199
 21
90.557346289902583
 31
0.0
 12
21.833743312341579
 22
91.824079734776959
 32
0.0
 13
21.833743312341579
 23
91.824079734776959
 33
0.0
210
0.0
220
0.0
230
1.0
  0
SOLID
  5
71F
  8
DRG
  6
CONTINUOUS
 62
     7
 10
18.821661727211438
 20
97.915857504065912
 30
0.0
 11
19.61391078399209
 21
89.04049778797318
 31
0.0
 12
20.567009867467199
 22
90.557346289902583
 32
0.0
 13
20.567009867467199
 23
90.557346289902583
 33
0.0
210
0.0
220
0.0
230
1.0
  0
SOLID
  5
720
  8
DRG
  6
CONTINUOUS
 62
     7
 10
18.821661727211438
 20
97.915857504065912
 30
0.0
 11
7.7802673214059723
 21
62.115696081838671
 31
0.0
 12
19.61391078399209
 22
89.04049778797318
 32
0.0
 13
19.61391078399209
 23
89.04049778797318
 33
0.0
  0
SOLID
  5
721
  8
DRG
  6
CONTINUOUS
 62
     7
 10
89.364501362461553
 20
98.581583076282442
 30
0.0
 11
87.872147389069568
 21
96.763144498279132
 31
0.0
 12
113.639459816422
 22
96.763162899547922
 32
0.0
 13
113.639459816422
 23
96.763162899547922
 33
0.0
210
0.0
220
0.0
230
1.0
  0
SOLID
  5
722
  8
DRG
  6
CONTINUOUS
 62
     7
 10
33.352861525427372
 20
98.581583076282442
 30
0.0
 11
31.86050755203539
 21
96.763144498279132
 31
0.0
 12
57.627819979387837
 22
96.763162899547964
 32
0.0
 13
57.627819979387837
 23
96.763162899547964
 33
0.0
210
0.0
220
0.0
230
1.0
  0
SOLID
  5
723
  8
DRG
  6
CONTINUOUS
 62
     7
 10
112.14710561917811
 20
98.581595595475122
 30
0.0
 11
89.364501362461553
 21
98.581583076282442
 31
0.0
 12
113.639459816422
 22
96.763162899547922
 32
0.0
 13
113.639459816422
 23
96.763162899547922
 33
0.0
210
0.0
220
0.0
230
1.0
  0
SOLID
  5
724
  8
DRG
  6
CONTINUOUS
 62
     7
 10
56.13546578214396
 20
98.581595595475136
 30
0.0
 11
33.352861525427372
 21
98.581583076282442
 31
0.0
 12
57.627819979387837
 22
96.763162899547964
 32
0.0
 13
57.627819979387837
 23
96.763162899547964
 33
0.0
210
0.0
220
0.0
230
1.0
  0
SOLID
  5
725
  8
DRG
  6
CONTINUOUS
 62
     7
 10
131.49100261458079
 20
99.498269833332628
 30
0.0
 11
130.05101171535759
 21
97.915857504065855
 31
0.0
 12
139.4206293992797
 22
93.56942787503273
 32
0.0
 13
139.4206293992797
 23
93.56942787503273
 33
0.0
  0
SOLID
  5
726
  8
DRG
  6
CONTINUOUS
 62
     7
 10
20.261652626434682
 20
99.498269833332685
 30
0.0
 11
18.821661727211438
 21
97.915857504065912
 31
0.0
 12
28.191279411133561
 22
93.56942787503273
 32
0.0
 13
28.191279411133561
 23
93.56942787503273
 33
0.0
210
0.0
220
0.0
230
1.0
  0
SOLID
  5
727
  8
DRG
  6
CONTINUOUS
 62
     7
 10
91.182939940464877
 20
100.0739370496743
 30
0.0
 11
89.364501362461553
 21
98.581583076282442
 31
0.0
 12
112.14710561917811
 22
98.581595595475122
 32
0.0
 13
112.14710561917811
 23
98.581595595475122
 33
0.0
210
0.0
220
0.0
230
1.0
  0
SOLID
  5
728
  8
DRG
  6
CONTINUOUS
 62
     7
 10
35.171300103430703
 20
100.0739370496743
 30
0.0
 11
33.352861525427372
 21
98.581583076282442
 31
0.0
 12
56.13546578214396
 22
98.581595595475136
 32
0.0
 13
56.13546578214396
 23
98.581595595475136
 33
0.0
210
0.0
220
0.0
230
1.0
  0
SOLID
  5
729
  8
DRG
  6
CONTINUOUS
 62
     7
 10
110.3286685196138
 20
100.0739444268736
 30
0.0
 11
91.182939940464877
 21
100.0739370496743
 31
0.0
 12
112.14710561917811
 22
98.581595595475122
 32
0.0
 13
112.14710561917811
 23
98.581595595475122
 33
0.0
210
0.0
220
0.0
230
1.0
  0
SOLID
  5
72A
  8
DRG
  6
CONTINUOUS
 62
     7
 10
54.31702868257964
 20
100.0739444268736
 30
0.0
 11
35.171300103430703
 21
100.0739370496743
 31
0.0
 12
56.13546578214396
 22
98.581595595475136
 32
0.0
 13
56.13546578214396
 23
98.581595595475136
 33
0.0
210
0.0
220
0.0
230
1.0
  0
SOLID
  5
72B
  8
DRG
  6
CONTINUOUS
 62
     7
 10
133.2280506532519
 20
100.7473761862947
 30
0.0
 11
131.49100261458079
 21
99.498269833332628
 31
0.0
 12
139.4206293992797
 22
93.56942787503273
 32
0.0
 13
139.4206293992797
 23
93.56942787503273
 33
0.0
210
0.0
220
0.0
230
1.0
  0
SOLID
  5
72C
  8
DRG
  6
CONTINUOUS
 62
     7
 10
21.998700665105741
 20
100.7473761862947
 30
0.0
 11
20.261652626434682
 21
99.498269833332685
 31
0.0
 12
28.191279411133561
 22
93.56942787503273
 32
0.0
 13
28.191279411133561
 23
93.56942787503273
 33
0.0
210
0.0
220
0.0
230
1.0
  0
SOLID
  5
72D
  8
DRG
  6
CONTINUOUS
 62
     7
 10
37.245941711284829
 20
101.18285609217919
 30
0.0
 11
35.171300103430703
 21
100.0739370496743
 31
0.0
 12
54.31702868257964
 22
100.0739444268736
 32
0.0
 13
54.31702868257964
 23
100.0739444268736
 33
0.0
210
0.0
220
0.0
230
1.0
  0
SOLID
  5
72E
  8
DRG
  6
CONTINUOUS
 62
     7
 10
93.257581548318996
 20
101.18285609217919
 30
0.0
 11
91.182939940464877
 21
100.0739370496743
 31
0.0
 12
110.3286685196138
 22
100.0739444268736
 32
0.0
 13
110.3286685196138
 23
100.0739444268736
 33
0.0
  0
SOLID
  5
72F
  8
DRG
  6
CONTINUOUS
 62
     7
 10
52.242389936933627
 20
101.18285947984781
 30
0.0
 11
37.245941711284829
 21
101.18285609217919
 31
0.0
 12
54.31702868257964
 22
100.0739444268736
 32
0.0
 13
54.31702868257964
 23
100.0739444268736
 33
0.0
210
0.0
220
0.0
230
1.0
  0
SOLID
  5
730
  8
DRG
  6
CONTINUOUS
 62
     7
 10
108.2540297739678
 20
101.18285947984781
 30
0.0
 11
93.257581548318996
 21
101.18285609217919
 31
0.0
 12
110.3286685196138
 22
100.0739444268736
 32
0.0
 13
110.3286685196138
 23
100.0739444268736
 33
0.0
210
0.0
220
0.0
230
1.0
  0
SOLID
  5
731
  8
DRG
  6
CONTINUOUS
 62
     7
 10
135.18651451338479
 20
101.6087831041995
 30
0.0
 11
133.2280506532519
 21
100.7473761862947
 31
0.0
 12
139.4206293992797
 22
93.56942787503273
 32
0.0
 13
139.4206293992797
 23
93.56942787503273
 33
0.0
210
0.0
220
0.0
230
1.0
  0
SOLID
  5
732
  8
DRG
  6
CONTINUOUS
 62
     7
 10
23.957164525238699
 20
101.6087831041996
 30
0.0
 11
21.998700665105741
 21
100.7473761862947
 31
0.0
 12
28.191279411133561
 22
93.56942787503273
 32
0.0
 13
28.191279411133561
 23
93.56942787503273
 33
0.0
210
0.0
220
0.0
230
1.0
  0
SOLID
  5
733
  8
DRG
  6
CONTINUOUS
 62
     7
 10
39.497059035472347
 20
101.8657250668825
 30
0.0
 11
37.245941711284829
 21
101.18285609217919
 31
0.0
 12
52.242389936933627
 22
101.18285947984781
 32
0.0
 13
52.242389936933627
 23
101.18285947984781
 33
0.0
210
0.0
220
0.0
230
1.0
  0
SOLID
  5
734
  8
DRG
  6
CONTINUOUS
 62
     7
 10
95.508698872506528
 20
101.8657250668825
 30
0.0
 11
93.257581548318996
 21
101.18285609217919
 31
0.0
 12
108.2540297739678
 22
101.18285947984781
 32
0.0
 13
108.2540297739678
 23
101.18285947984781
 33
0.0
210
0.0
220
0.0
230
1.0
  0
SOLID
  5
735
  8
DRG
  6
CONTINUOUS
 62
     7
 10
49.991276450152029
 20
101.8657259303917
 30
0.0
 11
39.497059035472347
 21
101.8657250668825
 31
0.0
 12
52.242389936933627
 22
101.18285947984781
 32
0.0
 13
52.242389936933627
 23
101.18285947984781
 33
0.0
210
0.0
220
0.0
230
1.0
  0
SOLID
  5
736
  8
DRG
  6
CONTINUOUS
 62
     7
 10
106.0029162871862
 20
101.8657259303917
 30
0.0
 11
95.508698872506528
 21
101.8657250668825
 31
0.0
 12
108.2540297739678
 22
101.18285947984781
 32
0.0
 13
108.2540297739678
 23
101.18285947984781
 33
0.0
210
0.0
220
0.0
230
1.0
  0
SOLID
  5
737
  8
DRG
  6
CONTINUOUS
 62
     7
 10
77.482556033578931
 20
101.9948050433795
 30
0.0
 11
62.478989637268569
 21
94.593352860836134
 31
0.0
 12
67.331191210151687
 22
94.593352860836134
 32
0.0
 13
67.331191210151687
 23
94.593352860836134
 33
0.0
210
0.0
220
0.0
230
1.0
  0
SOLID
  5
738
  8
DRG
  6
CONTINUOUS
 62
     7
 10
77.482556033578931
 20
101.9948050433795
 30
0.0
 11
67.331191210151687
 21
94.593352860836134
 31
0.0
 12
84.553623006881026
 22
94.593352860836134
 32
0.0
 13
84.553623006881026
 23
94.593352860836134
 33
0.0
210
0.0
220
0.0
230
1.0
  0
SOLID
  5
739
  8
DRG
  6
CONTINUOUS
 62
     7
 10
62.478989637268562
 20
101.9948050433795
 30
0.0
 11
62.478989637268569
 21
94.593352860836134
 31
0.0
 12
77.482556033578931
 22
101.9948050433795
 32
0.0
 13
77.482556033578931
 23
101.9948050433795
 33
0.0
  0
SOLID
  5
73A
  8
DRG
  6
CONTINUOUS
 62
     7
 10
84.553623006881026
 20
101.9948050433795
 30
0.0
 11
77.482556033578931
 21
101.9948050433795
 31
0.0
 12
84.553623006881026
 22
94.593352860836134
 32
0.0
 13
84.553623006881026
 23
94.593352860836134
 33
0.0
210
0.0
220
0.0
230
1.0
  0
SOLID
  5
73B
  8
DRG
  6
CONTINUOUS
 62
     7
 10
67.331191210151701
 20
101.9948050433795
 30
0.0
 11
62.478989637268562
 21
101.9948050433795
 31
0.0
 12
77.482556033578931
 22
101.9948050433795
 32
0.0
 13
77.482556033578931
 23
101.9948050433795
 33
0.0
210
0.0
220
0.0
230
1.0
  0
SOLID
  5
73C
  8
DRG
  6
CONTINUOUS
 62
     7
 10
139.4206293992797
 20
102.0369718403325
 30
0.0
 11
135.18651451338479
 21
101.6087831041995
 31
0.0
 12
139.4206293992797
 22
93.56942787503273
 32
0.0
 13
139.4206293992797
 23
93.56942787503273
 33
0.0
  0
SOLID
  5
73D
  8
DRG
  6
CONTINUOUS
 62
     7
 10
7.7802673214059723
 20
102.0369718403326
 30
0.0
 11
7.7802673214059723
 21
62.115696081838671
 31
0.0
 12
18.821661727211438
 22
97.915857504065912
 32
0.0
 13
18.821661727211438
 23
97.915857504065912
 33
0.0
210
0.0
220
0.0
230
1.0
  0
SOLID
  5
73E
  8
DRG
  6
CONTINUOUS
 62
     7
 10
18.821661727211438
 20
102.0369718403326
 30
0.0
 11
7.7802673214059723
 21
102.0369718403326
 31
0.0
 12
18.821661727211438
 22
97.915857504065912
 32
0.0
 13
18.821661727211438
 23
97.915857504065912
 33
0.0
  0
SOLID
  5
73F
  8
DRG
  6
CONTINUOUS
 62
     7
 10
142.11987082690661
 20
62.115696081838678
 30
0.0
 11
153.2899770207527
 21
102.0369718403326
 31
0.0
 12
142.11987082690661
 22
102.0369718403326
 32
0.0
 13
142.11987082690661
 23
102.0369718403326
 33
0.0
  0
SOLID
  5
740
  8
DRG
  6
CONTINUOUS
 62
     7
 10
153.2899770207527
 20
102.0369718403326
 30
0.0
 11
142.11987082690661
 21
62.115696081838678
 31
0.0
 12
153.2899770207527
 22
62.115696081838678
 32
0.0
 13
153.2899770207527
 23
62.115696081838678
 33
0.0
210
0.0
220
0.0
230
1.0
  0
SOLID
  5
741
  8
DRG
  6
CONTINUOUS
 62
     7
 10
130.05101171535759
 20
102.0369718403326
 30
0.0
 11
119.0096173095521
 21
62.115696081838678
 31
0.0
 12
130.05101171535759
 22
97.915857504065855
 32
0.0
 13
130.05101171535759
 23
97.915857504065855
 33
0.0
210
0.0
220
0.0
230
1.0
  0
SOLID
  5
742
  8
DRG
  6
CONTINUOUS
 62
     7
 10
165.4162645291251
 20
86.855763084496886
 30
0.0
 11
171.38205787173379
 21
102.0369718403326
 31
0.0
 12
160.9346181585602
 22
102.0369718403326
 32
0.0
 13
160.9346181585602
 23
102.0369718403326
 33
0.0
210
0.0
220
0.0
230
1.0
  0
SOLID
  5
743
  8
DRG
  6
CONTINUOUS
 62
     7
 10
160.9346181585602
 20
102.0369718403326
 30
0.0
 11
153.2899770207527
 21
82.583583780839575
 31
0.0
 12
165.4162645291251
 22
86.855763084496886
 32
0.0
 13
165.4162645291251
 23
86.855763084496886
 33
0.0
  0
SOLID
  5
744
  8
DRG
  6
CONTINUOUS
 62
     7
 10
119.0096173095521
 20
102.0369718403326
 30
0.0
 11
119.0096173095521
 21
62.115696081838678
 31
0.0
 12
130.05101171535759
 22
102.0369718403326
 32
0.0
 13
130.05101171535759
 23
102.0369718403326
 33
0.0
210
0.0
220
0.0
230
1.0
  0
SOLID
  5
745
  8
DRG
  6
CONTINUOUS
 62
     7
 10
28.191279411133561
 20
102.0369718403326
 30
0.0
 11
23.957164525238699
 21
101.6087831041996
 31
0.0
 12
28.191279411133561
 22
93.56942787503273
 32
0.0
 13
28.191279411133561
 23
93.56942787503273
 33
0.0
210
0.0
220
0.0
230
1.0
  0
SOLID
  5
746
  8
DRG
  6
CONTINUOUS
 62
     7
 10
137.2811111260545
 20
102.04497984863229
 30
0.0
 11
135.18651451338479
 21
101.6087831041995
 31
0.0
 12
139.4206293992797
 22
102.0369718403325
 32
0.0
 13
139.4206293992797
 23
102.0369718403325
 33
0.0
210
0.0
220
0.0
230
1.0
  0
SOLID
  5
747
  8
DRG
  6
CONTINUOUS
 62
     7
 10
26.051761137908411
 20
102.04497984863239
 30
0.0
 11
23.957164525238699
 21
101.6087831041996
 31
0.0
 12
28.191279411133561
 22
102.0369718403326
 32
0.0
 13
28.191279411133561
 23
102.0369718403326
 33
0.0
  0
SOLID
  5
748
  8
DRG
  6
CONTINUOUS
 62
     7
 10
49.991276450152029
 20
101.8657259303917
 30
0.0
 11
47.650196927116667
 21
102.0963017020437
 31
0.0
 12
41.838142899665847
 22
102.0963017020437
 32
0.0
 13
41.838142899665847
 23
102.0963017020437
 33
0.0
210
0.0
220
0.0
230
1.0
  0
SOLID
  5
749
  8
DRG
  6
CONTINUOUS
 62
     7
 10
41.838142899665847
 20
102.0963017020437
 30
0.0
 11
39.497059035472347
 21
101.8657250668825
 31
0.0
 12
49.991276450152029
 22
101.8657259303917
 32
0.0
 13
49.991276450152029
 23
101.8657259303917
 33
0.0
  0
SOLID
  5
74A
  8
DRG
  6
CONTINUOUS
 62
     7
 10
106.0029162871862
 20
101.8657259303917
 30
0.0
 11
103.66183676415081
 21
102.0963017020437
 31
0.0
 12
97.849782736700035
 22
102.0963017020437
 32
0.0
 13
97.849782736700035
 23
102.0963017020437
 33
0.0
  0
SOLID
  5
74B
  8
DRG
  6
CONTINUOUS
 62
     7
 10
97.849782736700035
 20
102.0963017020437
 30
0.0
 11
95.508698872506528
 21
101.8657250668825
 31
0.0
 12
106.0029162871862
 22
101.8657259303917
 32
0.0
 13
106.0029162871862
 23
101.8657259303917
 33
0.0
  0
SOLID
  5
74C
  8
DRG
  6
CONTINUOUS
 62
     7
 10
77.482556033578931
 20
107.1280725498991
 30
0.0
 11
67.331191210151701
 21
101.9948050433795
 31
0.0
 12
77.482556033578931
 22
101.9948050433795
 32
0.0
 13
77.482556033578931
 23
101.9948050433795
 33
0.0
  0
SOLID
  5
74D
  8
DRG
  6
CONTINUOUS
 62
     7
 10
67.331191210151701
 20
107.1280725498991
 30
0.0
 11
67.331191210151701
 21
101.9948050433795
 31
0.0
 12
77.482556033578931
 22
107.1280725498991
 32
0.0
 13
77.482556033578931
 23
107.1280725498991
 33
0.0
210
0.0
220
0.0
230
1.0
  0
ENDBLK
  5
74F
  8
0
  0
ENDSEC
  0
SECTION
  2
ENTITIES
  0
LINE
  5
31
  8
CRS
 10
122.4062727051853
 20
825.91969885444485
 30
0.0
 11
395.41816572165112
 21
825.91969885444485
 31
0.0
  0
ARC
  5
32
  8
DRG
 10
326.03070259582762
 20
899.91969885444485
 30
0.0
 40
12.0
 50
90.0
 51
179.99999999999949
  0
LINE
  5
33
  8
CRS
 10
273.03695791015332
 20
493.06969885444488
 30
0.0
 11
488.88149640918351
 21
493.06969885444488
 31
0.0
  0
LINE
  5
34
  8
DRG
 10
285.03070259582779
 20
420.56969885444488
 30
0.0
 11
326.0307025958279
 21
420.56969885444488
 31
0.0
  0
LINE
  5
35
  8
DRG
 10
296.03070259582779
 20
654.95307406410495
 30
0.0
 11
296.0307025958279
 21
571.56969885444482
 31
0.0
  0
LINE
  5
36
  8
DRG
 10
285.0307025958279
 20
548.10469885444491
 30
0.0
 11
285.0307025958279
 21
438.03469885444491
 31
0.0
  0
LINE
  5
37
  8
HID
 10
285.03070259582768
 20
438.03469885444491
 30
0.0
 11
304.53070259582779
 21
438.03469885444491
 31
0.0
  0
LINE
  5
38
  8
DRG
 10
285.03070259582768
 20
438.03469885444491
 30
0.0
 11
285.03070259582779
 21
420.56969885444488
 31
0.0
  0
LINE
  5
39
  8
DRG
 10
285.0307025958279
 20
565.56969885444471
 30
0.0
 11
285.0307025958279
 21
548.10469885444491
 31
0.0
  0
LINE
  5
3A
  8
HID
 10
285.03070259582779
 20
548.10469885444491
 30
0.0
 11
304.53070259582762
 21
548.10469885444491
 31
0.0
  0
LINE
  5
3B
  8
DRG
 10
285.0307025958279
 20
565.56969885444471
 30
0.0
 11
308.03070259582739
 21
565.56969885444471
 31
0.0
  0
ARC
  5
3C
  8
DRG
 10
290.0307025958279
 20
571.56969885444482
 30
0.0
 40
6.0
 50
270.0
 51
0.0000000000000127
  0
ARC
  5
3D
  8
DRG
 10
308.03070259582739
 20
571.56969885444482
 30
0.0
 40
6.0
 50
270.0
 51
0.0
  0
LINE
  5
3E
  8
DRG
 10
295.0307025958279
 20
772.41969885444485
 30
0.0
 11
295.0307025958279
 21
760.91969885444485
 31
0.0
  0
LINE
  5
3F
  8
DRG
 10
295.03070259582779
 20
696.26969885444487
 30
0.0
 11
295.03070259582779
 21
658.26969885444475
 31
0.0
  0
ARC
  5
40
  8
DRG
 10
308.03070259582739
 20
646.26969885444487
 30
0.0
 40
6.0
 50
0.0
 51
90.0
  0
LINE
  5
41
  8
DRG
 10
301.03070259582779
 20
652.26969885444475
 30
0.0
 11
308.03070259582739
 21
652.26969885444475
 31
0.0
  0
ARC
  5
42
  8
DRG
 10
301.03070259582779
 20
658.26969885444475
 30
0.0
 40
6.0
 50
180.00000000000011
 51
270.0
  0
LINE
  5
43
  8
DRG
 10
297.03070259582643
 20
760.91969885444485
 30
0.0
 11
297.0307025958258
 21
700.74183480944271
 31
0.0
  0
ARC
  5
44
  8
DRG
 10
308.03070259582591
 20
708.26969885444475
 30
0.0
 40
6.0
 50
270.0
 51
359.99999999999937
  0
LINE
  5
45
  8
DRG
 10
301.03070259582779
 20
702.26969885444475
 30
0.0
 11
308.03070259582591
 21
702.26969885444475
 31
0.0
  0
ARC
  5
46
  8
DRG
 10
301.03070259582779
 20
696.26969885444487
 30
0.0
 40
6.0
 50
90.0
 51
180.00000000000011
  0
LINE
  5
47
  8
DRG
 10
295.0307025958279
 20
760.91969885444485
 30
0.0
 11
308.03070259582631
 21
760.91969885444485
 31
0.0
  0
ARC
  5
48
  8
DRG
 10
308.03070259582631
 20
754.91969885444496
 30
0.0
 40
6.0
 50
359.99999999999932
 51
89.999999999999474
  0
LINE
  5
49
  8
DRG
 10
295.03070259582802
 20
879.41969885444473
 30
0.0
 11
295.03070259583041
 21
772.41969885444735
 31
0.0
  0
LINE
  5
4A
  8
DRG
 10
295.03070259582779
 20
824.91969885444485
 30
0.0
 11
295.0307025958279
 21
773.78488763819826
 31
0.0
  0
LINE
  5
4B
  8
DRG
 10
295.03070259582762
 20
890.91969885444485
 30
0.0
 11
295.03070259582807
 21
879.41969885444473
 31
0.0
  0
LINE
  5
4C
  8
DRG
 10
295.03070259582762
 20
890.91969885444485
 30
0.0
 11
308.03070259582739
 21
890.91969885444473
 31
0.0
  0
ARC
  5
4D
  8
DRG
 10
308.03070259582739
 20
896.91969885444485
 30
0.0
 40
6.0
 50
269.99999999999937
 51
0.0
  0
LINE
  5
4E
  8
DRG
 10
314.03070259582751
 20
899.91969885444519
 30
0.0
 11
314.03070259582751
 21
435.50039378041339
 31
0.0
  0
LINE
  5
4F
  8
DRG
 10
768.26860758105431
 20
559.95708661965273
 30
0.0
 11
785.60475174879411
 21
701.96724831042707
 31
0.0
  0
LINE
  5
50
  8
CRS
 10
919.10321023557356
 20
930.08302540003683
 30
0.0
 11
919.10321023557356
 21
317.8359707049122
 31
0.0
  0
ARC
  5
51
  8
DRG
 10
919.10321023557356
 20
493.06969885444488
 30
0.0
 40
165.0
 50
143.45651933527051
 51
270.0
  0
LINE
  5
52
  8
CRS
 10
746.04575785775808
 20
493.06969885444488
 30
0.0
 11
934.25977369263376
 21
493.06969885444488
 31
0.0
  0
LINE
  5
53
  8
DRG
 10
332.0307025958279
 20
567.56969885444482
 30
0.0
 11
332.0307025958279
 21
346.06969885444488
 31
0.0
  0
LINE
  5
54
  8
DRG
 10
408.03070259582779
 20
343.5446988544449
 30
0.0
 11
408.03070259582779
 21
432.46429827631403
 31
0.0
  0
ARC
  5
55
  8
DRG
 10
387.42300744123901
 20
334.06969885444499
 30
0.0
 40
6.0
 50
210.00000000000529
 51
270.0
  0
LINE
  5
56
  8
DRG
 10
344.0307025958279
 20
334.06969885444488
 30
0.0
 11
377.0307025958279
 21
334.06969885444482
 31
0.0
  0
ARC
  5
57
  8
DRG
 10
344.0307025958279
 20
346.06969885444488
 30
0.0
 40
12.0
 50
180.0
 51
270.0
  0
ARC
  5
58
  8
DRG
 10
377.0307025958279
 20
328.06969885444482
 30
0.0
 40
6.0
 50
30.000000000005851
 51
90.0
  0
LINE
  5
59
  8
DRG
 10
387.42300744123901
 20
328.06969885444499
 30
0.0
 11
420.53070259582779
 21
328.06969885444482
 31
0.0
  0
LINE
  5
5A
  8
DRG
 10
408.0307025958279
 20
328.06969885444488
 30
0.0
 11
408.0307025958279
 21
343.54469885444468
 31
0.0
  0
ARC
  5
5B
  8
DRG
 10
326.0307025958279
 20
414.56969885444488
 30
0.0
 40
6.0
 50
0.0
 51
90.0
  0
ARC
  5
5C
  8
DRG
 10
919.10321023557356
 20
825.91969885444485
 30
0.0
 40
86.0
 50
90.0
 51
114.57046983512321
  0
LINE
  5
5D
  8
DRG
 10
907.10321023557356
 20
760.91969885444519
 30
0.0
 11
919.10321023557356
 21
760.91969885444496
 31
0.0
  0
LINE
  5
5E
  8
DRG
 10
864.10321023557367
 20
890.91969885444485
 30
0.0
 11
919.10321023557356
 21
890.91969885444473
 31
0.0
  0
LINE
  5
5F
  8
CRS
 10
850.79204921060568
 20
825.91969885444485
 30
0.0
 11
932.05703134896532
 21
825.91969885444485
 31
0.0
  0
ARC
  5
60
  8
DRG
 10
919.10321023557356
 20
677.26969885444475
 30
0.0
 40
20.0
 50
90.0
 51
213.37855949733569
  0
ARC
  5
61
  8
DRG
 10
919.10321023557356
 20
677.26969885444475
 30
0.0
 40
30.0
 50
90.0
 51
180.0
  0
ARC
  5
62
  8
DRG
 10
919.10321023557356
 20
677.26969885444475
 30
0.0
 40
53.0
 50
90.0
 51
101.73525747445559
  0
LINE
  5
63
  8
DRG
 10
370.03070259582779
 20
890.91969885444473
 30
0.0
 11
370.03070259583069
 21
762.651749661998
 31
0.0
  0
LINE
  5
64
  8
DRG
 10
408.03070259582779
 20
703.26969885444475
 30
0.0
 11
408.03070259582779
 21
555.57471419993294
 31
0.0
  0
ARC
  5
65
  8
DRG
 10
378.0307025958279
 20
718.26969885444498
 30
0.0
 40
12.0
 50
0.0
 51
90.0
  0
ARC
  5
66
  8
DRG
 10
357.03070259582688
 20
736.2696988544451
 30
0.0
 40
6.0
 50
180.0
 51
270.0
  0
LINE
  5
67
  8
DRG
 10
368.03070259582609
 20
760.9196988544453
 30
0.0
 11
368.03070259582682
 21
736.2696988544451
 31
0.0
  0
LINE
  5
68
  8
DRG
 10
378.0307025958279
 20
730.26969885444498
 30
0.0
 11
357.03070259582688
 21
730.26969885444498
 31
0.0
  0
ARC
  5
69
  8
DRG
 10
374.03070259582682
 20
736.2696988544451
 30
0.0
 40
6.0
 50
179.9999999999994
 51
270.0
  0
ARC
  5
6A
  8
DRG
 10
369.78070259582609
 20
760.9196988544453
 30
0.0
 40
1.75
 50
81.786789298034506
 51
180.00000000000139
  0
LINE
  5
6B
  8
DRG
 10
369.78070259582603
 20
767.41969885444507
 30
0.0
 11
369.78070259583052
 21
767.41969885444507
 31
0.0
  0
ARC
  5
6C
  8
DRG
 10
396.0307025958279
 20
709.26969885444498
 30
0.0
 40
6.0
 50
180.0
 51
269.9999999999996
  0
LINE
  5
6D
  8
DRG
 10
408.03070259582779
 20
703.26969885444475
 30
0.0
 11
396.0307025958279
 21
703.2696988544451
 31
0.0
  0
LINE
  5
6E
  8
DRG
 10
390.03070259582802
 20
655.32589873144184
 30
0.0
 11
390.0307025958279
 21
718.26969885444498
 31
0.0
  0
ARC
  5
6F
  8
DRG
 10
339.03070259582762
 20
899.91969885444485
 30
0.0
 40
12.0
 50
359.99999999999972
 51
90.0
  0
ARC
  5
70
  8
DRG
 10
357.03070259582751
 20
896.91969885444485
 30
0.0
 40
6.0
 50
180.0
 51
270.0
  0
LINE
  5
71
  8
DRG
 10
351.03070259582751
 20
899.91969885444485
 30
0.0
 11
351.03070259582751
 21
567.56969885444482
 31
0.0
  0
LINE
  5
72
  8
DRG
 10
357.03070259582751
 20
890.91969885444473
 30
0.0
 11
370.03070259582779
 21
890.91969885444473
 31
0.0
  0
LINE
  5
73
  8
DRG
 10
326.03070259582762
 20
911.91969885444496
 30
0.0
 11
339.03070259582768
 21
911.91969885444496
 31
0.0
  0
LINE
  5
74
  8
DRG
 10
839.34541360720027
 20
858.08635670052865
 30
0.0
 11
787.05804756840485
 21
708.21417078403033
 31
0.0
  0
LINE
  5
75
  8
DRG
 10
854.10321023557367
 20
880.91969885444485
 30
0.0
 11
854.10321023557367
 21
770.91969885444485
 31
0.0
  0
ARC
  5
76
  8
DRG
 10
815.38367852420379
 20
698.33193262884083
 30
0.0
 40
30.0
 50
160.76715628191769
 51
173.03995361780761
  0
ARC
  5
77
  8
DRG
 10
919.10321023557356
 20
677.26969885444475
 30
0.0
 40
53.0
 50
162.5694128114568
 51
180.0
  0
LINE
  5
78
  8
DRG
 10
866.10321023557356
 20
677.26969885444475
 30
0.0
 11
866.10321023557356
 21
658.80140976095788
 31
0.0
  0
LINE
  5
79
  8
DRG
 10
889.10321023557367
 20
677.26969885444475
 30
0.0
 11
889.10321023557367
 21
664.46398113947316
 31
0.0
  0
LINE
  5
7A
  8
DRG
 10
864.10321023557367
 20
760.91969885444485
 30
0.0
 11
907.10321023557356
 21
760.91969885444485
 31
0.0
  0
ARC
  5
7B
  8
DRG
 10
864.10321023557367
 20
770.91969885444485
 30
0.0
 40
10.0
 50
180.0
 51
270.0
  0
ARC
  5
7C
  8
DRG
 10
907.10321023557356
 20
754.91969885444496
 30
0.0
 40
6.0
 50
0.0
 51
90.0
  0
ARC
  5
7D
  8
DRG
 10
907.10321023557356
 20
754.91969885444496
 30
0.0
 40
6.0
 50
0.0
 51
90.0
  0
LINE
  5
7E
  8
DRG
 10
913.10321023557367
 20
754.91969885444496
 30
0.0
 11
913.10321023557367
 21
735.03647131058835
 31
0.0
  0
ARC
  5
7F
  8
DRG
 10
907.10321023557356
 20
735.03647131058835
 30
0.0
 40
6.0
 50
281.73525747445518
 51
0.0
  0
ARC
  5
80
  8
DRG
 10
919.10321023557356
 20
825.91969885444485
 30
0.0
 40
86.0
 50
138.9920748751133
 51
163.4987420870832
  0
ARC
  5
81
  8
DRG
 10
919.10321023557356
 20
825.91969885444485
 30
0.0
 40
86.0
 50
114.57046983512321
 51
131.0079251248867
  0
ARC
  5
82
  8
DRG
 10
864.10321023557367
 20
880.91969885444485
 30
0.0
 40
10.0
 50
90.0
 51
180.0
  0
ARC
  5
83
  8
DRG
 10
919.10321023557356
 20
677.2696988544451
 30
0.0
 40
52.999999999999787
 50
101.73525747445539
 51
162.56941281145691
  0
LINE
  5
84
  8
CRS
 10
858.50705812479077
 20
677.26969885444475
 30
0.0
 11
933.15840252079965
 21
677.26969885444475
 31
0.0
  0
LINE
  5
85
  8
CRS
 10
869.60573555251517
 20
887.72755964891644
 30
0.0
 11
869.60573555251517
 21
863.10678742609025
 31
0.0
  0
LINE
  5
86
  8
CRS
 10
857.29534944110196
 20
875.41717353750346
 30
0.0
 11
881.91612166392827
 21
875.41717353750346
 31
0.0
  0
CIRCLE
  5
87
  8
DRG2
 10
869.60573555251517
 20
875.41717353750346
 30
0.0
 40
9.1349999999999998
  0
CIRCLE
  5
88
  8
DRG2
 10
869.60573555251517
 20
875.41717353750346
 30
0.0
 40
8.1349999999999998
  0
POLYLINE
  5
89
  8
DRG2
 66
     1
 10
0.0
 20
0.0
 30
0.0
 70
     1
  0
VERTEX
  5
8A
  8
DRG2
 10
866.71898420656714
 20
880.41717353750334
 30
0.0
  0
VERTEX
  5
8B
  8
DRG2
 10
863.83223286061889
 20
875.41717353750346
 30
0.0
  0
VERTEX
  5
8C
  8
DRG2
 10
866.71898420656714
 20
870.41717353750334
 30
0.0
  0
VERTEX
  5
8D
  8
DRG2
 10
872.49248689846331
 20
870.41717353750334
 30
0.0
  0
VERTEX
  5
8E
  8
DRG2
 10
875.37923824441145
 20
875.41717353750346
 30
0.0
  0
VERTEX
  5
8F
  8
DRG2
 10
872.49248689846331
 20
880.41717353750334
 30
0.0
  0
SEQEND
  5
90
  8
DRG2
  0
CIRCLE
  5
91
  8
DRG2
 10
869.60573555251517
 20
776.42222417138646
 30
0.0
 40
9.1349999999999998
  0
CIRCLE
  5
92
  8
DRG2
 10
869.60573555251517
 20
776.42222417138646
 30
0.0
 40
8.1349999999999998
  0
POLYLINE
  5
93
  8
DRG2
 66
     1
 10
0.0
 20
0.0
 30
0.0
 70
     1
  0
VERTEX
  5
94
  8
DRG2
 10
866.71898420656714
 20
771.42222417138635
 30
0.0
  0
VERTEX
  5
95
  8
DRG2
 10
863.83223286061889
 20
776.42222417138646
 30
0.0
  0
VERTEX
  5
96
  8
DRG2
 10
866.71898420656714
 20
781.42222417138635
 30
0.0
  0
VERTEX
  5
97
  8
DRG2
 10
872.49248689846331
 20
781.42222417138635
 30
0.0
  0
VERTEX
  5
98
  8
DRG2
 10
875.37923824441145
 20
776.42222417138646
 30
0.0
  0
VERTEX
  5
99
  8
DRG2
 10
872.49248689846331
 20
771.42222417138635
 30
0.0
  0
SEQEND
  5
9A
  8
DRG2
  0
LINE
  5
9B
  8
CRS
 10
869.60573555251517
 20
764.11183805997325
 30
0.0
 11
869.60573555251517
 21
788.73261028279944
 31
0.0
  0
LINE
  5
9C
  8
CRS
 10
857.29534944110196
 20
776.42222417138646
 30
0.0
 11
881.91612166392827
 21
776.42222417138646
 31
0.0
  0
LINE
  5
9D
  8
DRG
 10
864.10321023557367
 20
885.91969885444496
 30
0.0
 11
919.10321023557356
 21
885.91969885444473
 31
0.0
  0
ARC
  5
9E
  8
DRG
 10
864.10321023557367
 20
880.91969885444485
 30
0.0
 40
5.0
 50
90.0
 51
180.0
  0
LINE
  5
9F
  8
DRG
 10
907.10321023557356
 20
765.91969885444519
 30
0.0
 11
919.10321023557356
 21
765.91969885444507
 31
0.0
  0
LINE
  5
A0
  8
DRG
 10
864.10321023557367
 20
765.91969885444485
 30
0.0
 11
907.10321023557356
 21
765.91969885444485
 31
0.0
  0
ARC
  5
A1
  8
DRG
 10
864.10321023557367
 20
770.91969885444485
 30
0.0
 40
5.0
 50
180.0
 51
270.0
  0
LINE
  5
A2
  8
DRG
 10
859.10321023557356
 20
880.91969885444485
 30
0.0
 11
859.10321023557356
 21
770.91969885444485
 31
0.0
  0
ARC
  5
A3
  8
DRG
 10
919.10321023557356
 20
825.91969885444485
 30
0.0
 40
40.0
 50
90.0
 51
270.0
  0
LINE
  5
A4
  8
CRS
 10
799.00728112641229
 20
603.37835671954645
 30
0.0
 11
818.58182361453169
 21
603.37835671954645
 31
0.0
  0
LINE
  5
A5
  8
CRS
 10
808.79455237047193
 20
613.1656279636062
 30
0.0
 11
808.79455237047193
 21
593.59108547548658
 31
0.0
  0
CIRCLE
  5
A6
  8
DRG2
 10
808.79455237047193
 20
603.37835671954645
 30
0.0
 40
8.1349999999999998
  0
CIRCLE
  5
A7
  8
DRG2
 10
808.79455237047193
 20
603.37835671954645
 30
0.0
 40
7.1349999999999989
  0
POLYLINE
  5
A8
  8
DRG2
 66
     1
 10
0.0
 20
0.0
 30
0.0
 70
     1
  0
VERTEX
  5
A9
  8
DRG2
 10
806.48515129371356
 20
607.37835671954645
 30
0.0
  0
VERTEX
  5
AA
  8
DRG2
 10
804.17575021695495
 20
603.37835671954645
 30
0.0
  0
VERTEX
  5
AB
  8
DRG2
 10
806.48515129371356
 20
599.37835671954645
 30
0.0
  0
VERTEX
  5
AC
  8
DRG2
 10
811.10395344723065
 20
599.37835671954645
 30
0.0
  0
VERTEX
  5
AD
  8
DRG2
 10
813.41335452398903
 20
603.37835671954645
 30
0.0
  0
VERTEX
  5
AE
  8
DRG2
 10
811.10395344723065
 20
607.37835671954645
 30
0.0
  0
SEQEND
  5
AF
  8
DRG2
  0
LINE
  5
B0
  8
CRS
 10
909.31593899151403
 20
649.06969885444482
 30
0.0
 11
928.89048147963342
 21
649.06969885444482
 31
0.0
  0
ARC
  5
B1
  8
DRG2
 10
919.10321023557356
 20
649.06969885444482
 30
0.0
 40
8.1349999999999998
 50
90.000000000000796
 51
269.9999999999992
  0
LINE
  5
B2
  8
CRS
 10
919.10321023557356
 20
658.85697009850446
 30
0.0
 11
919.10321023557356
 21
639.28242761038496
 31
0.0
  0
POLYLINE
  5
B3
  8
DRG2
 66
     1
 10
0.0
 20
0.0
 30
0.0
 70
     1
  0
VERTEX
  5
B4
  8
DRG2
 10
760.79380915881518
 20
497.06969885444488
 30
0.0
  0
VERTEX
  5
B5
  8
DRG2
 10
758.48440808205658
 20
493.06969885444488
 30
0.0
  0
VERTEX
  5
B6
  8
DRG2
 10
760.79380915881518
 20
489.06969885444488
 30
0.0
  0
VERTEX
  5
B7
  8
DRG2
 10
765.41261131233216
 20
489.06969885444488
 30
0.0
  0
VERTEX
  5
B8
  8
DRG2
 10
767.72201238909065
 20
493.06969885444488
 30
0.0
  0
VERTEX
  5
B9
  8
DRG2
 10
765.41261131233216
 20
497.06969885444488
 30
0.0
  0
SEQEND
  5
BA
  8
DRG2
  0
CIRCLE
  5
BB
  8
DRG2
 10
763.10321023557356
 20
493.06969885444488
 30
0.0
 40
7.1349999999999989
  0
CIRCLE
  5
BC
  8
DRG2
 10
763.10321023557356
 20
493.06969885444488
 30
0.0
 40
8.1349999999999998
  0
LINE
  5
BD
  8
CRS
 10
763.10321023557356
 20
502.85697009850458
 30
0.0
 11
763.10321023557356
 21
483.28242761038513
 31
0.0
  0
POLYLINE
  5
BE
  8
DRG2
 66
     1
 10
0.0
 20
0.0
 30
0.0
 70
     1
  0
VERTEX
  5
BF
  8
DRG2
 10
806.48515129371356
 20
378.76104098934343
 30
0.0
  0
VERTEX
  5
C0
  8
DRG2
 10
804.17575021695495
 20
382.76104098934343
 30
0.0
  0
VERTEX
  5
C1
  8
DRG2
 10
806.48515129371356
 20
386.76104098934343
 30
0.0
  0
VERTEX
  5
C2
  8
DRG2
 10
811.10395344723065
 20
386.76104098934343
 30
0.0
  0
VERTEX
  5
C3
  8
DRG2
 10
813.41335452398903
 20
382.76104098934343
 30
0.0
  0
VERTEX
  5
C4
  8
DRG2
 10
811.10395344723065
 20
378.76104098934343
 30
0.0
  0
SEQEND
  5
C5
  8
DRG2
  0
CIRCLE
  5
C6
  8
DRG2
 10
808.79455237047193
 20
382.76104098934343
 30
0.0
 40
7.1349999999999989
  0
LINE
  5
C7
  8
CRS
 10
799.00728112641229
 20
382.76104098934343
 30
0.0
 11
818.58182361453169
 21
382.76104098934343
 31
0.0
  0
CIRCLE
  5
C8
  8
DRG2
 10
808.79455237047193
 20
382.76104098934343
 30
0.0
 40
8.1349999999999998
  0
LINE
  5
C9
  8
CRS
 10
808.79455237047193
 20
372.97376974528362
 30
0.0
 11
808.79455237047193
 21
392.54831223340318
 31
0.0
  0
ARC
  5
CA
  8
DRG2
 10
919.10321023557356
 20
337.06969885444499
 30
0.0
 40
8.1349999999999998
 50
90.000000000000796
 51
269.9999999999992
  0
LINE
  5
CB
  8
CRS
 10
909.31593899151403
 20
337.06969885444499
 30
0.0
 11
928.89048147963342
 21
337.06969885444499
 31
0.0
  0
LINE
  5
CC
  8
HID
 10
285.0307025958279
 20
549.5896988544448
 30
0.0
 11
304.53070259582779
 21
549.5896988544448
 31
0.0
  0
LINE
  5
CD
  8
HID
 10
285.03070259582768
 20
436.5496988544449
 30
0.0
 11
304.5307025958279
 21
436.54969885444501
 31
0.0
  0
ARC
  5
CE
  8
DRG
 10
396.0307025958279
 20
655.32589873144184
 30
0.0
 40
6.0
 50
180.0
 51
269.9999999999996
  0
LINE
  5
CF
  8
DRG
 10
383.0307025958279
 20
328.06969885444488
 30
0.0
 11
383.0307025958279
 21
435.71483287021789
 31
0.0
  0
ARC
  5
D0
  8
DRG
 10
389.03070259582802
 20
643.32589873144184
 30
0.0
 40
6.0
 50
90.0
 51
180.0
  0
ARC
  5
D1
  8
DRG
 10
326.0307025958279
 20
567.56969885444482
 30
0.0
 40
6.0
 50
0.0
 51
90.0
  0
ARC
  5
D2
  8
DRG
 10
357.03070259582739
 20
567.56969885444482
 30
0.0
 40
6.0
 50
180.0
 51
269.9999999999996
  0
ARC
  5
D3
  8
DRG
 10
320.03070259582739
 20
435.50039378041339
 30
0.0
 40
6.0
 50
180.0
 51
269.9999999999996
  0
ARC
  5
D4
  8
DRG
 10
308.03070259582751
 20
435.50039378041339
 30
0.0
 40
6.0
 50
270.00000000000028
 51
0.0
  0
LINE
  5
D5
  8
DRG
 10
420.53070259582779
 20
328.06969885444482
 30
0.0
 11
420.53070259582779
 21
427.09193202864083
 31
0.0
  0
LINE
  5
D6
  8
DIM
 10
370.50378037512093
 20
517.12005282197401
 30
0.0
 11
454.50378037512093
 21
517.12005282197401
 31
0.0
  0
SOLID
  5
D7
  8
DIM
 10
372.50358037512092
 20
518.45335282197402
 30
0.0
 11
372.50358037512092
 21
515.78675282197401
 31
0.0
 12
364.50378037512093
 22
517.12005282197401
 32
0.0
 13
364.50378037512093
 23
517.12005282197401
 33
0.0
  0
TEXT
  5
D8
  8
DIM
 10
406.76571298056763
 20
521.35165220384897
 30
0.0
 40
7.0
  1
96
 72
     4
 11
412.26571298056751
 21
524.85165220384897
 31
0.0
  0
SOLID
  5
DA
  8
DIM
 10
452.50398037512088
 20
518.45335282197402
 30
0.0
 11
452.50398037512088
 21
515.78675282197401
 31
0.0
 12
460.50378037512081
 22
517.12005282197401
 32
0.0
 13
460.50378037512081
 23
517.12005282197401
 33
0.0
  0
LINE
  5
DB
  8
DRG
 10
385.0307025958279
 20
885.91969885444496
 30
0.0
 11
385.03070259583069
 21
765.91969885444485
 31
0.0
  0
LINE
  5
DC
  8
DRG
 10
280.03070259582768
 20
885.91969885444496
 30
0.0
 11
280.0307025958279
 21
765.91969885444485
 31
0.0
  0
LINE
  5
DD
  8
DRG
 10
280.03070259582768
 20
885.91969885444496
 30
0.0
 11
295.03070259582779
 21
885.91969885444496
 31
0.0
  0
LINE
  5
DE
  8
DRG
 10
280.0307025958279
 20
765.91969885444485
 30
0.0
 11
295.0307025958279
 21
765.91969885444485
 31
0.0
  0
ARC
  5
DF
  8
DRG
 10
357.03070259582751
 20
754.91969885444519
 30
0.0
 40
6.0
 50
90.0
 51
180.0
  0
LINE
  5
E0
  8
DRG
 10
357.03070259582751
 20
760.9196988544453
 30
0.0
 11
368.03070259582609
 21
760.9196988544453
 31
0.0
  0
LINE
  5
E1
  8
DRG
 10
370.0307025958279
 20
885.91969885444496
 30
0.0
 11
385.0307025958279
 21
885.91969885444496
 31
0.0
  0
LINE
  5
E2
  8
DRG
 10
370.03070259583069
 20
765.91969885444485
 30
0.0
 11
385.03070259583069
 21
765.91969885444485
 31
0.0
  0
LINE
  5
E3
  8
DRG
 10
391.03070259582842
 20
865.91969885444507
 30
0.0
 11
391.03070259583029
 21
785.91969885444485
 31
0.0
  0
LINE
  5
E4
  8
DRG
 10
274.03070259582768
 20
865.91969885444485
 30
0.0
 11
274.0307025958279
 21
785.91969885444485
 31
0.0
  0
LINE
  5
E5
  8
DRG
 10
274.03070259582768
 20
865.91969885444485
 30
0.0
 11
280.03070259582768
 21
865.91969885444507
 31
0.0
  0
LINE
  5
E6
  8
DRG
 10
274.0307025958279
 20
785.91969885444485
 30
0.0
 11
280.0307025958279
 21
785.91969885444485
 31
0.0
  0
LINE
  5
E7
  8
DRG
 10
385.03070259582842
 20
865.91969885444507
 30
0.0
 11
391.03070259582842
 21
865.91969885444507
 31
0.0
  0
LINE
  5
E8
  8
DRG
 10
385.03070259583018
 20
785.91969885444485
 30
0.0
 11
391.03070259583029
 21
785.91969885444485
 31
0.0
  0
LINE
  5
E9
  8
DRG
 10
190.03070259582779
 20
800.91969885444485
 30
0.0
 11
274.0307025958279
 21
800.91969885444496
 31
0.0
  0
LINE
  5
EA
  8
DRG
 10
190.03070259582771
 20
850.91969885444485
 30
0.0
 11
274.03070259582768
 21
850.91969885444485
 31
0.0
  0
LINE
  5
EB
  8
DRG
 10
190.03070259582771
 20
850.91969885444485
 30
0.0
 11
190.03070259582779
 21
800.91969885444485
 31
0.0
  0
LINE
  5
EC
  8
DRG
 10
126.53070259582771
 20
810.91969885444496
 30
0.0
 11
190.03070259582779
 21
810.91969885444496
 31
0.0
  0
LINE
  5
ED
  8
DRG
 10
126.5307025958278
 20
840.91969885444485
 30
0.0
 11
190.03070259582779
 21
840.91969885444485
 31
0.0
  0
LINE
  5
EE
  8
DRG2
 10
126.5307025958278
 20
840.91969885444485
 30
0.0
 11
126.5307025958278
 21
810.91969885444496
 31
0.0
  0
LINE
  5
EF
  8
DRG
 10
125.0307025958278
 20
839.41969885444485
 30
0.0
 11
125.0307025958278
 21
812.41969885444485
 31
0.0
  0
LINE
  5
F0
  8
DRG
 10
126.53070259582771
 20
810.91969885444496
 30
0.0
 11
125.0307025958278
 21
812.41969885444485
 31
0.0
  0
LINE
  5
F1
  8
DRG
 10
125.0307025958278
 20
839.41969885444485
 30
0.0
 11
126.5307025958278
 21
840.91969885444485
 31
0.0
  0
LINE
  5
F2
  8
CRS
 10
285.08330508447
 20
776.42222417138623
 30
0.0
 11
260.46253286164392
 21
776.42222417138623
 31
0.0
  0
LINE
  5
F3
  8
CRS
 10
285.08330508447
 20
875.41717353750334
 30
0.0
 11
260.46253286164392
 21
875.41717353750334
 31
0.0
  0
LINE
  5
F4
  8
DRG2
 10
280.0307025958279
 20
767.29222417138635
 30
0.0
 11
269.0307025958279
 21
767.29222417138612
 31
0.0
  0
LINE
  5
F5
  8
DRG2
 10
280.0307025958279
 20
785.55222417138623
 30
0.0
 11
269.03070259582802
 21
785.55222417138623
 31
0.0
  0
LINE
  5
F6
  8
DRG2
 10
268.0307025958279
 20
768.29222417138612
 30
0.0
 11
268.03070259582802
 21
784.55222417138623
 31
0.0
  0
LINE
  5
F7
  8
DRG2
 10
269.0307025958279
 20
767.29222417138612
 30
0.0
 11
268.0307025958279
 21
768.29222417138612
 31
0.0
  0
LINE
  5
F8
  8
DRG2
 10
268.03070259582802
 20
784.55222417138623
 30
0.0
 11
269.03070259582802
 21
785.55222417138623
 31
0.0
  0
LINE
  5
F9
  8
DRG2
 10
269.0307025958279
 20
767.29222417138612
 30
0.0
 11
269.03070259582802
 21
785.55222417138623
 31
0.0
  0
LINE
  5
FA
  8
DRG2
 10
269.0307025958279
 20
866.28717353750312
 30
0.0
 11
269.03070259582802
 21
884.54717353750311
 31
0.0
  0
LINE
  5
FB
  8
DRG2
 10
268.0307025958279
 20
867.28717353750301
 30
0.0
 11
268.03070259582802
 21
883.54717353750323
 31
0.0
  0
LINE
  5
FC
  8
DRG2
 10
280.0307025958279
 20
884.54717353750311
 30
0.0
 11
269.03070259582802
 21
884.54717353750311
 31
0.0
  0
LINE
  5
FD
  8
DRG2
 10
268.03070259582802
 20
883.54717353750323
 30
0.0
 11
269.03070259582802
 21
884.54717353750311
 31
0.0
  0
LINE
  5
FE
  8
DRG2
 10
280.0307025958279
 20
866.28717353750324
 30
0.0
 11
269.0307025958279
 21
866.28717353750312
 31
0.0
  0
LINE
  5
FF
  8
DRG2
 10
269.0307025958279
 20
866.28717353750312
 30
0.0
 11
268.0307025958279
 21
867.28717353750301
 31
0.0
  0
LINE
  5
100
  8
DRG2
 10
396.03070259582819
 20
884.54717353750254
 30
0.0
 11
396.03070259582807
 21
866.28717353750255
 31
0.0
  0
LINE
  5
101
  8
DRG2
 10
397.03070259582819
 20
883.54717353750254
 30
0.0
 11
397.03070259582807
 21
867.28717353750255
 31
0.0
  0
LINE
  5
102
  8
DRG2
 10
385.03070259582819
 20
866.28717353750255
 30
0.0
 11
396.03070259582807
 21
866.28717353750255
 31
0.0
  0
LINE
  5
103
  8
CRS
 10
379.97810010718598
 20
875.41717353750255
 30
0.0
 11
404.59887233001223
 21
875.41717353750255
 31
0.0
  0
LINE
  5
104
  8
DRG2
 10
397.03070259582807
 20
867.28717353750255
 30
0.0
 11
396.03070259582807
 21
866.28717353750255
 31
0.0
  0
LINE
  5
105
  8
DRG2
 10
385.03070259582819
 20
884.54717353750254
 30
0.0
 11
396.03070259582819
 21
884.54717353750254
 31
0.0
  0
LINE
  5
106
  8
DRG2
 10
396.03070259582819
 20
884.54717353750254
 30
0.0
 11
397.03070259582819
 21
883.54717353750254
 31
0.0
  0
LINE
  5
107
  8
DRG2
 10
385.03070259582819
 20
785.55222417138555
 30
0.0
 11
396.03070259582819
 21
785.55222417138555
 31
0.0
  0
LINE
  5
108
  8
DRG2
 10
385.03070259582819
 20
767.29222417138556
 30
0.0
 11
396.03070259582807
 21
767.29222417138556
 31
0.0
  0
LINE
  5
109
  8
CRS
 10
379.97810010718598
 20
776.42222417138555
 30
0.0
 11
404.59887233001223
 21
776.42222417138555
 31
0.0
  0
LINE
  5
10A
  8
DRG2
 10
396.03070259582819
 20
785.55222417138555
 30
0.0
 11
397.03070259582819
 21
784.55222417138555
 31
0.0
  0
LINE
  5
10B
  8
DRG2
 10
397.03070259582807
 20
768.29222417138556
 30
0.0
 11
396.03070259582807
 21
767.29222417138556
 31
0.0
  0
LINE
  5
10C
  8
DRG2
 10
397.03070259582819
 20
784.55222417138555
 30
0.0
 11
397.03070259582807
 21
768.29222417138556
 31
0.0
  0
LINE
  5
10D
  8
DRG2
 10
396.03070259582819
 20
785.55222417138555
 30
0.0
 11
396.03070259582807
 21
767.29222417138556
 31
0.0
  0
LINE
  5
10E
  8
BORT
 39
2.52
 10
1050.0
 20
42.0
 30
0.0
 11
218.39999999999989
 21
42.0
 31
0.0
  0
LINE
  5
10F
  8
BORT
 39
2.52
 10
1050.0
 20
0.0
 30
0.0
 11
0.0
 21
0.0
 31
0.0
  0
LINE
  5
111
  8
BORT
 39
2.52
 10
218.39999999999989
 20
137.1999999999999
 30
0.0
 11
0.0
 21
137.1999999999999
 31
0.0
  0
LINE
  5
112
  8
BORT
 39
2.52
 10
218.39999999999989
 20
156.7999999999999
 30
0.0
 11
0.0
 21
156.7999999999999
 31
0.0
  0
LINE
  5
113
  8
BORT
 39
2.52
 10
218.39999999999989
 20
117.59999999999989
 30
0.0
 11
0.0
 21
117.59999999999989
 31
0.0
  0
LINE
  5
114
  8
BORT
 39
2.52
 10
218.39999999999989
 20
117.59999999999989
 30
0.0
 11
0.0
 21
117.59999999999989
 31
0.0
  0
TEXT
  5
115
  8
BORT
 10
5.7666666666666622
 20
123.89999999999991
 30
0.0
 40
7.0
  1
ISSUE
 72
     4
 11
19.599999999999991
 21
127.40000000000001
 31
0.0
  0
LINE
  5
11B
  8
BORT
 39
2.52
 10
0.0
 20
0.0
 30
0.0
 11
0.0
 21
251.6769217463906
 31
0.0
  0
TEXT
  5
11C
  8
BORT
 10
16.93333333333333
 20
143.5
 30
0.0
 40
7.0
  1
A
 72
     4
 11
19.599999999999991
 21
147.0
 31
0.0
  0
LINE
  5
11D
  8
BORT
 39
2.52
 10
39.199999999999989
 20
117.59999999999989
 30
0.0
 11
39.199999999999989
 21
176.39999999999989
 31
0.0
  0
TEXT
  5
11E
  8
BORT
 10
88.299999999999983
 20
143.5
 30
0.0
 40
7.0
  1
ORIGINAL ISSUE
 72
     4
 11
128.7999999999999
 21
147.0
 31
0.0
  0
TEXT
  5
11F
  8
BORT
 10
94.966666666666654
 20
123.89999999999991
 30
0.0
 40
7.0
  1
ALTERATIONS
 72
     4
 11
128.7999999999999
 21
127.40000000000001
 31
0.0
  0
LINE
  5
120
  8
BORT
 39
2.52
 10
218.39999999999989
 20
117.59999999999989
 30
0.0
 11
218.39999999999989
 21
0.0
 31
0.0
  0
LINE
  5
121
  8
BORT
 39
2.52
 10
218.39999999999989
 20
176.39999999999989
 30
0.0
 11
218.39999999999989
 21
117.59999999999989
 31
0.0
  0
TEXT
  5
122
  8
BORT
 10
517.65952511749595
 20
24.06240952207002
 30
0.0
 40
14.0
  1
OUTLINE DETAILS OF IS9
 72
     4
 11
647.99285845082932
 21
31.06240952207003
 31
0.0
  0
TEXT
  5
123
  8
BORT
 10
262.97883821446749
 20
17.175828492243941
 30
0.0
 40
8.3999999999999986
  1
EXEECO LTD   C   1996
  0
CIRCLE
  5
124
  8
BORT
 10
367.01657855506693
 20
21.26780115646099
 30
0.0
 40
7.9167196450598274
  0
LINE
  5
125
  8
BORT
 39
2.52
 10
489.99999999999989
 20
42.0
 30
0.0
 11
489.99999999999989
 21
0.0
 31
0.0
  0
LINE
  5
126
  8
BORT
 39
2.52
 10
1050.0
 20
64.399999999999991
 30
0.0
 11
806.39999999999975
 21
64.399999999999991
 31
0.0
  0
LINE
  5
127
  8
BORT
 39
2.52
 10
806.39999999999975
 20
86.799999999999969
 30
0.0
 11
1050.0
 21
86.799999999999983
 31
0.0
  0
TEXT
  5
128
  8
BORT
 10
845.13333333333321
 20
12.6
 30
0.0
 40
19.599999999999991
  1
PUB\IS9CD
 72
     4
 11
923.99999999999977
 21
21.0
 31
0.0
  0
TEXT
  5
129
  8
BORT
 10
810.83436654700142
 20
49.454182846030392
 30
0.0
 40
7.0
  1
CHECKED:-
  0
TEXT
  5
12A
  8
BORT
 10
811.23894210921094
 20
71.400000000000006
 30
0.0
 40
7.0
  1
DRAWN:-
  0
TEXT
  5
12B
  8
BORT
 10
528.99285845082932
 20
6.2596870681826502
 30
0.0
 40
14.0
  1
ISO & USA STANDARD
 72
     4
 11
647.99285845082932
 21
13.25968706818265
 31
0.0
  0
LINE
  5
12C
  8
BORT
 39
2.52
 10
806.39999999999998
 20
86.800000000000011
 30
0.0
 11
806.39999999999998
 21
42.000000000000007
 31
0.0
  0
LINE
  5
12D
  8
BORT
 39
2.52
 10
798.0
 20
42.0
 30
0.0
 11
798.0
 21
0.0
 31
0.0
  0
TEXT
  5
12E
  8
BORT
 10
890.15190826431854
 20
72.099999999999994
 30
0.0
 40
7.0
  1
S.W.   10.9.96
 72
     4
 11
928.48524159765191
 21
75.600000000000009
 31
0.0
  0
LINE
  5
12F
  8
BORT
 39
2.52
 10
1050.0
 20
86.799999999999983
 30
0.0
 11
1050.0
 21
0.0
 31
0.0
  0
LINE
  5
130
  8
BORT
 39
2.52
 10
988.39999999999998
 20
86.799999999999983
 30
0.0
 11
988.39999999999998
 21
42.0
 31
0.0
  0
TEXT
  5
131
  8
BORT
 10
1009.388583677561
 20
49.0
 30
0.0
 40
7.0
  1
1:1.4
  0
TEXT
  5
132
  8
BORT
 10
1002.100784013857
 20
71.399999999999991
 30
0.0
 40
7.0
  1
SCALE
  0
LINE
  5
133
  8
DRG
 10
130.03070259582779
 20
843.91969885444519
 30
0.0
 11
185.28070259582779
 21
843.91969885444496
 31
0.0
  0
LINE
  5
134
  8
DRG
 10
130.03070259582779
 20
843.91969885444519
 30
0.0
 11
130.03070259582779
 21
840.91969885444507
 31
0.0
  0
LINE
  5
135
  8
DRG
 10
185.28070259582779
 20
840.91969885444485
 30
0.0
 11
185.28070259582779
 21
843.91969885444496
 31
0.0
  0
LINE
  5
136
  8
DIM
 10
79.930808254635963
 20
840.9196988544453
 30
0.0
 11
79.930808254635963
 21
707.34810491394205
 31
0.0
  0
LINE
  5
137
  8
DIM
 10
124.5307025958278
 20
810.91969885444496
 30
0.0
 11
77.930808254635963
 21
810.91969885444496
 31
0.0
  0
LINE
  5
138
  8
DIM
 10
124.5307025958278
 20
840.91969885444507
 30
0.0
 11
77.930808254635963
 21
840.91969885444507
 31
0.0
  0
SOLID
  5
139
  8
DIM
 10
78.597474921302705
 20
818.91969885444485
 30
0.0
 11
81.264141587969334
 21
818.91969885444485
 31
0.0
 12
79.930808254635963
 22
810.91969885444496
 32
0.0
 13
79.930808254635963
 23
810.91969885444496
 33
0.0
  0
SOLID
  5
13A
  8
DIM
 10
78.597474921302705
 20
832.91969885444507
 30
0.0
 11
81.264141587969334
 21
832.91969885444507
 31
0.0
 12
79.930808254635963
 22
840.91969885444507
 32
0.0
 13
79.930808254635963
 23
840.91969885444507
 33
0.0
  0
TEXT
  5
13B
  8
DIM
 10
75.430808254635963
 20
722.21773078082686
 30
0.0
 40
7.0
  1
%%c30.00 -0.05
 50
90.0
 72
     4
 11
71.930808254635963
 21
758.55106411416034
 31
0.0
  0
TEXT
  5
13C
  8
DIM
 10
90.469200110658221
 20
710.3769951951142
 30
0.0
 40
7.0
  1
(%%c1.181" -0.002")
 50
90.0
 72
     4
 11
87.469200110658235
 21
757.54366186178083
 31
0.0
  0
SOLID
  5
13D
  8
DIM
 10
138.03070259582779
 20
957.2974305045924
 30
0.0
 11
138.03070259582779
 21
954.63076383792588
 31
0.0
 12
130.03070259582779
 22
955.96409717125914
 32
0.0
 13
130.03070259582779
 23
955.96409717125914
 33
0.0
  0
LINE
  5
13E
  8
DIM
 10
117.0307025958278
 20
955.96409717125914
 30
0.0
 11
77.579045856662376
 21
955.96409717125914
 31
0.0
  0
TEXT
  5
13F
  8
DIM
 10
93.727514843780796
 20
960.46409717125914
 30
0.0
 40
7.0
  1
5
 72
     4
 11
96.060848177114124
 21
963.96409717125914
 31
0.0
  0
SOLID
  5
140
  8
DIM
 10
117.0307025958278
 20
957.2974305045924
 30
0.0
 11
117.0307025958278
 21
954.63076383792588
 31
0.0
 12
125.0307025958278
 22
955.96409717125914
 32
0.0
 13
125.0307025958278
 23
955.96409717125914
 33
0.0
  0
LINE
  5
141
  8
DIM
 10
138.03070259582779
 20
955.96409717125914
 30
0.0
 11
146.03070259582779
 21
955.96409717125914
 31
0.0
  0
LINE
  5
142
  8
DIM
 10
130.03070259582779
 20
845.91969885444519
 30
0.0
 11
130.03070259582779
 21
960.05480818382625
 31
0.0
  0
LINE
  5
143
  8
DIM
 10
125.0307025958278
 20
841.41969885444496
 30
0.0
 11
125.0307025958278
 21
1009.703828639838
 31
0.0
  0
LINE
  5
144
  8
DIM
 10
295.03070259582762
 20
892.91969885444485
 30
0.0
 11
295.03070259582762
 21
1009.703828639838
 31
0.0
  0
LINE
  5
145
  8
DIM
 10
133.03070259582779
 20
1004.9845586237039
 30
0.0
 11
287.03070259582762
 21
1004.9845586237039
 31
0.0
  0
SOLID
  5
146
  8
DIM
 10
133.03070259582779
 20
1006.317891957037
 30
0.0
 11
133.03070259582779
 21
1003.65122529037
 31
0.0
 12
125.0307025958278
 22
1004.9845586237039
 32
0.0
 13
125.0307025958278
 23
1004.9845586237039
 33
0.0
  0
SOLID
  5
147
  8
DIM
 10
287.03070259582762
 20
1006.317891957037
 30
0.0
 11
287.03070259582762
 21
1003.65122529037
 31
0.0
 12
295.03070259582762
 22
1004.9845586237039
 32
0.0
 13
295.03070259582762
 23
1004.9845586237039
 33
0.0
  0
TEXT
  5
148
  8
DIM
 10
201.69736926249431
 20
1009.4845586237039
 30
0.0
 40
7.0
  1
170
 72
     4
 11
210.03070259582771
 21
1012.9845586237039
 31
0.0
  0
LINE
  5
149
  8
DIM
 10
303.03070259582762
 20
1004.9845586237039
 30
0.0
 11
474.38070259582781
 21
1004.9845586237039
 31
0.0
  0
SOLID
  5
14A
  8
DIM
 10
303.03070259582762
 20
1006.317891957037
 30
0.0
 11
303.03070259582762
 21
1003.65122529037
 31
0.0
 12
295.03070259582762
 22
1004.9845586237039
 32
0.0
 13
295.03070259582762
 23
1004.9845586237039
 33
0.0
  0
SOLID
  5
14B
  8
DIM
 10
466.38070259582781
 20
1006.317891957037
 30
0.0
 11
466.38070259582781
 21
1003.65122529037
 31
0.0
 12
474.38070259582781
 22
1004.9845586237039
 32
0.0
 13
474.38070259582781
 23
1004.9845586237039
 33
0.0
  0
TEXT
  5
14C
  8
DIM
 10
379.8616974440875
 20
1009.4845586237039
 30
0.0
 40
7.0
  1
179
 72
     4
 11
388.02836411075418
 21
1012.9845586237039
 31
0.0
  0
LINE
  5
14D
  8
DIM
 10
280.03070259582768
 20
887.91969885444496
 30
0.0
 11
280.03070259582768
 21
957.96409717125903
 31
0.0
  0
LINE
  5
14E
  8
DIM
 10
272.03070259582768
 20
955.96409717125914
 30
0.0
 11
232.05295402747879
 21
955.96409717125914
 31
0.0
  0
LINE
  5
14F
  8
DIM
 10
303.03070259582779
 20
955.96409717125914
 30
0.0
 11
311.03070259582779
 21
955.96409717125914
 31
0.0
  0
SOLID
  5
150
  8
DIM
 10
272.03070259582768
 20
957.2974305045924
 30
0.0
 11
272.03070259582768
 21
954.63076383792566
 31
0.0
 12
280.03070259582768
 22
955.96409717125914
 32
0.0
 13
280.03070259582768
 23
955.96409717125914
 33
0.0
  0
SOLID
  5
151
  8
DIM
 10
303.03070259582779
 20
957.2974305045924
 30
0.0
 11
303.03070259582779
 21
954.63076383792566
 31
0.0
 12
295.03070259582779
 22
955.96409717125914
 32
0.0
 13
295.03070259582779
 23
955.96409717125914
 33
0.0
  0
TEXT
  5
152
  8
DIM
 10
244.19034219597879
 20
960.46409717125914
 30
0.0
 40
7.0
  1
15
 72
     4
 11
249.19034219597879
 21
963.96409717125914
 31
0.0
  0
LINE
  5
153
  8
DIM
 10
385.0307025958279
 20
887.91969885444496
 30
0.0
 11
385.0307025958279
 21
957.96409717125903
 31
0.0
  0
SOLID
  5
154
  8
DIM
 10
466.38070259582781
 20
957.2974305045924
 30
0.0
 11
466.38070259582781
 21
954.63076383792566
 31
0.0
 12
474.38070259582781
 22
955.96409717125914
 32
0.0
 13
474.38070259582781
 23
955.96409717125914
 33
0.0
  0
LINE
  5
155
  8
DIM
 10
385.03070259582802
 20
955.96409717125914
 30
0.0
 11
474.38070259582781
 21
955.96409717125914
 31
0.0
  0
TEXT
  5
156
  8
DIM
 10
423.93597503705678
 20
960.46409717125914
 30
0.0
 40
7.0
  1
89
 72
     4
 11
429.43597503705678
 21
963.96409717125914
 31
0.0
  0
SOLID
  5
157
  8
DIM
 10
393.0307025958279
 20
957.2974305045924
 30
0.0
 11
393.0307025958279
 21
954.63076383792566
 31
0.0
 12
385.0307025958279
 22
955.96409717125914
 32
0.0
 13
385.0307025958279
 23
955.96409717125914
 33
0.0
  0
LINE
  5
158
  8
DIM
 10
397.03070259582819
 20
885.54717353750254
 30
0.0
 11
397.03070259582819
 21
922.13683184528509
 31
0.0
  0
LINE
  5
159
  8
DIM
 10
377.0307025958279
 20
920.13683184528497
 30
0.0
 11
369.0307025958279
 21
920.13683184528497
 31
0.0
  0
LINE
  5
15A
  8
DIM
 10
405.03070259582819
 20
920.13683184528497
 30
0.0
 11
444.44563708479001
 21
920.13683184528497
 31
0.0
  0
SOLID
  5
15B
  8
DIM
 10
377.0307025958279
 20
921.47016517861834
 30
0.0
 11
377.0307025958279
 21
918.8034985119516
 31
0.0
 12
385.0307025958279
 22
920.13683184528497
 32
0.0
 13
385.0307025958279
 23
920.13683184528497
 33
0.0
  0
SOLID
  5
15C
  8
DIM
 10
405.03070259582819
 20
921.47016517861834
 30
0.0
 11
405.03070259582819
 21
918.8034985119516
 31
0.0
 12
397.03070259582819
 22
920.13683184528497
 32
0.0
 13
397.03070259582819
 23
920.13683184528497
 33
0.0
  0
TEXT
  5
15D
  8
DIM
 10
420.86160943749599
 20
924.63683184528497
 30
0.0
 40
7.0
  1
12
 72
     4
 11
425.86160943749599
 21
928.13683184528497
 31
0.0
  0
LINE
  5
15E
  8
CRS
 10
414.72195352825941
 20
603.37835671954645
 30
0.0
 11
434.29649601637902
 21
603.37835671954645
 31
0.0
  0
LINE
  5
15F
  8
DRG2
 10
420.53070259582768
 20
611.50835671954644
 30
0.0
 11
429.53070259582779
 21
611.50835671954655
 31
0.0
  0
LINE
  5
160
  8
DRG2
 10
420.53070259582779
 20
595.24835671954645
 30
0.0
 11
429.53070259582779
 21
595.24835671954645
 31
0.0
  0
LINE
  5
161
  8
DRG2
 10
430.53070259582779
 20
596.24835671954645
 30
0.0
 11
430.53070259582779
 21
610.50835671954655
 31
0.0
  0
LINE
  5
162
  8
DRG2
 10
429.53070259582779
 20
611.50835671954655
 30
0.0
 11
430.53070259582779
 21
610.50835671954655
 31
0.0
  0
LINE
  5
163
  8
DRG2
 10
430.53070259582779
 20
596.24835671954645
 30
0.0
 11
429.53070259582779
 21
595.24835671954645
 31
0.0
  0
LINE
  5
164
  8
DRG2
 10
429.53070259582779
 20
611.50835671954655
 30
0.0
 11
429.53070259582779
 21
595.24835671954645
 31
0.0
  0
LINE
  5
165
  8
CRS
 10
414.72195352825941
 20
649.06969885444482
 30
0.0
 11
434.29649601637902
 21
649.06969885444482
 31
0.0
  0
LINE
  5
166
  8
DRG2
 10
420.53070259582779
 20
640.93969885444483
 30
0.0
 11
429.53070259582779
 21
640.93969885444483
 31
0.0
  0
LINE
  5
167
  8
DRG2
 10
430.53070259582779
 20
641.93969885444483
 30
0.0
 11
429.53070259582779
 21
640.93969885444483
 31
0.0
  0
LINE
  5
168
  8
DRG2
 10
420.53070259582768
 20
657.19969885444482
 30
0.0
 11
429.53070259582779
 21
657.19969885444493
 31
0.0
  0
LINE
  5
169
  8
DRG2
 10
429.53070259582779
 20
657.19969885444493
 30
0.0
 11
430.53070259582779
 21
656.19969885444493
 31
0.0
  0
LINE
  5
16A
  8
DRG2
 10
429.53070259582779
 20
657.19969885444493
 30
0.0
 11
429.53070259582779
 21
640.93969885444483
 31
0.0
  0
LINE
  5
16B
  8
DRG2
 10
430.53070259582779
 20
641.93969885444483
 30
0.0
 11
430.53070259582779
 21
656.19969885444493
 31
0.0
  0
LINE
  5
16C
  8
DRG2
 10
430.53070259582779
 20
344.19969885444499
 30
0.0
 11
430.53070259582779
 21
329.93969885444488
 31
0.0
  0
LINE
  5
16D
  8
DRG2
 10
429.53070259582779
 20
328.93969885444488
 30
0.0
 11
429.53070259582779
 21
345.19969885444499
 31
0.0
  0
LINE
  5
16E
  8
CRS
 10
414.72195352825941
 20
382.76104098934343
 30
0.0
 11
434.29649601637902
 21
382.76104098934343
 31
0.0
  0
LINE
  5
16F
  8
DRG2
 10
420.53070259582779
 20
390.89104098934342
 30
0.0
 11
429.53070259582779
 21
390.89104098934342
 31
0.0
  0
LINE
  5
170
  8
DRG2
 10
430.53070259582779
 20
389.89104098934342
 30
0.0
 11
429.53070259582779
 21
390.89104098934342
 31
0.0
  0
LINE
  5
171
  8
DRG2
 10
420.53070259582768
 20
374.63104098934338
 30
0.0
 11
429.53070259582779
 21
374.63104098934332
 31
0.0
  0
LINE
  5
172
  8
DRG2
 10
429.53070259582779
 20
374.63104098934332
 30
0.0
 11
430.53070259582779
 21
375.63104098934332
 31
0.0
  0
LINE
  5
173
  8
DRG2
 10
429.53070259582779
 20
374.63104098934332
 30
0.0
 11
429.53070259582779
 21
390.89104098934342
 31
0.0
  0
LINE
  5
174
  8
DRG2
 10
430.53070259582779
 20
389.89104098934342
 30
0.0
 11
430.53070259582779
 21
375.63104098934332
 31
0.0
  0
LINE
  5
175
  8
DRG2
 10
430.53070259582779
 20
344.19969885444499
 30
0.0
 11
429.53070259582779
 21
345.19969885444499
 31
0.0
  0
LINE
  5
176
  8
DRG2
 10
420.53070259582779
 20
345.19969885444499
 30
0.0
 11
429.53070259582779
 21
345.19969885444499
 31
0.0
  0
LINE
  5
177
  8
CRS
 10
414.72195352825941
 20
337.06969885444499
 30
0.0
 11
434.29649601637902
 21
337.06969885444499
 31
0.0
  0
LINE
  5
178
  8
DRG2
 10
429.53070259582779
 20
328.93969885444488
 30
0.0
 11
430.53070259582779
 21
329.93969885444488
 31
0.0
  0
LINE
  5
179
  8
DRG2
 10
420.53070259582768
 20
328.939698854445
 30
0.0
 11
429.53070259582779
 21
328.93969885444488
 31
0.0
  0
LINE
  5
17A
  8
DIM
 10
430.53070259582779
 20
658.19969885444493
 30
0.0
 11
430.53070259582779
 21
733.72553818980714
 31
0.0
  0
SOLID
  5
17B
  8
DIM
 10
438.53070259582779
 20
733.05887152314051
 30
0.0
 11
438.53070259582779
 21
730.39220485647377
 31
0.0
 12
430.53070259582779
 22
731.72553818980714
 32
0.0
 13
430.53070259582779
 23
731.72553818980714
 33
0.0
  0
SOLID
  5
17C
  8
DIM
 10
466.38070259582781
 20
733.05887152314051
 30
0.0
 11
466.38070259582781
 21
730.39220485647377
 31
0.0
 12
474.38070259582781
 22
731.72553818980714
 32
0.0
 13
474.38070259582781
 23
731.72553818980714
 33
0.0
  0
TEXT
  5
17D
  8
DIM
 10
495.48397714895538
 20
736.22553818980714
 30
0.0
 40
7.0
  1
44
 72
     4
 11
501.3173104822888
 21
739.72553818980714
 31
0.0
  0
LINE
  5
17E
  8
DIM
 10
564.98571485399896
 20
561.26969885444487
 30
0.0
 11
564.98571485399884
 21
424.86969885444489
 31
0.0
  0
SOLID
  5
17F
  8
DIM
 10
563.65238152066559
 20
561.26969885444487
 30
0.0
 11
566.31904818733233
 21
561.26969885444487
 31
0.0
 12
564.98571485399896
 22
569.26969885444487
 32
0.0
 13
564.98571485399896
 23
569.26969885444487
 33
0.0
  0
SOLID
  5
180
  8
DIM
 10
563.65238152066559
 20
424.86969885444489
 30
0.0
 11
566.31904818733233
 21
424.86969885444489
 31
0.0
 12
564.98571485399884
 22
416.86969885444489
 32
0.0
 13
564.98571485399884
 23
416.86969885444489
 33
0.0
  0
TEXT
  5
181
  8
DIM
 10
560.48571485399896
 20
455.06969885444488
 30
0.0
 40
7.0
  1
SEE TABLE FOR
 50
90.0
 72
     4
 11
556.98571485399896
 21
496.23636552111162
 31
0.0
  0
TEXT
  5
182
  8
DIM
 10
576.02410671002121
 20
467.48418803350489
 30
0.0
 40
7.0
  1
SPIGOT DIA.
 50
90.0
 72
     4
 11
572.52410671002121
 21
497.81752136683821
 31
0.0
  0
LINE
  5
183
  8
DIM
 10
371.88070259582781
 20
275.44170805294073
 30
0.0
 11
460.23070259582772
 21
275.44170805294073
 31
0.0
  0
SOLID
  5
184
  8
DIM
 10
371.88070259582781
 20
276.77504138627398
 30
0.0
 11
371.88070259582781
 21
274.1083747196073
 31
0.0
 12
363.88070259582781
 22
275.44170805294073
 32
0.0
 13
363.88070259582781
 23
275.44170805294073
 33
0.0
  0
TEXT
  5
185
  8
DIM
 10
409.29976855085869
 20
279.94170805294073
 30
0.0
 40
7.0
  1
111
 72
     4
 11
415.46643521752537
 21
283.44170805294073
 31
0.0
  0
LINE
  5
186
  8
DIM
 10
285.03070259582779
 20
418.56969885444488
 30
0.0
 11
285.03070259582779
 21
222.9599464330432
 31
0.0
  0
LINE
  5
187
  8
DIM
 10
293.03070259582779
 20
224.9599464330432
 30
0.0
 11
466.38070259582798
 21
224.9599464330432
 31
0.0
  0
SOLID
  5
188
  8
DIM
 10
293.03070259582779
 20
226.29327976637649
 30
0.0
 11
293.03070259582779
 21
223.62661309970991
 31
0.0
 12
285.03070259582779
 22
224.9599464330432
 32
0.0
 13
285.03070259582779
 23
224.9599464330432
 33
0.0
  0
SOLID
  5
189
  8
DIM
 10
466.38070259582798
 20
226.29327976637649
 30
0.0
 11
466.38070259582798
 21
223.62661309970991
 31
0.0
 12
474.38070259582798
 22
224.9599464330432
 32
0.0
 13
474.38070259582798
 23
224.9599464330432
 33
0.0
  0
TEXT
  5
18A
  8
DIM
 10
374.61403592916128
 20
229.4599464330432
 30
0.0
 40
7.0
  1
189
 72
     4
 11
382.78070259582802
 21
232.9599464330432
 31
0.0
  0
LINE
  5
18B
  8
DIM
 10
474.38070259582798
 20
275.44170805294073
 30
0.0
 11
452.23070259582772
 21
275.44170805294073
 31
0.0
  0
LINE
  5
18C
  8
DIM
 10
487.38070259582798
 20
275.44170805294073
 30
0.0
 11
525.29122315188317
 21
275.44170805294073
 31
0.0
  0
SOLID
  5
18D
  8
DIM
 10
487.38070259582798
 20
276.77504138627398
 30
0.0
 11
487.38070259582798
 21
274.1083747196073
 31
0.0
 12
479.38070259582798
 22
275.44170805294073
 32
0.0
 13
479.38070259582798
 23
275.44170805294073
 33
0.0
  0
TEXT
  5
18E
  8
DIM
 10
505.25404755516098
 20
279.94170805294073
 30
0.0
 40
7.0
  1
5
 72
     4
 11
507.58738088849429
 21
283.44170805294073
 31
0.0
  0
LINE
  5
18F
  8
DIM
 10
255.76724453227169
 20
542.99969885444443
 30
0.0
 11
255.76724453227169
 21
412.76818702301972
 31
0.0
  0
SOLID
  5
190
  8
DIM
 10
254.43391119893829
 20
534.99969885444443
 30
0.0
 11
257.10057786560498
 21
534.99969885444443
 31
0.0
 12
255.76724453227169
 22
542.99969885444443
 32
0.0
 13
255.76724453227169
 23
542.99969885444443
 33
0.0
  0
SOLID
  5
191
  8
DIM
 10
254.43391119893829
 20
451.13969885444442
 30
0.0
 11
257.10057786560498
 21
451.13969885444442
 31
0.0
 12
255.76724453227169
 22
443.1396988544443
 32
0.0
 13
255.76724453227169
 23
443.1396988544443
 33
0.0
  0
LINE
  5
192
  8
DIM
 10
283.0307025958279
 20
549.5896988544448
 30
0.0
 11
204.13210303042891
 21
549.5896988544448
 31
0.0
  0
LINE
  5
193
  8
DIM
 10
283.03070259582768
 20
436.5496988544449
 30
0.0
 11
261.37831721125269
 21
436.5496988544449
 31
0.0
  0
LINE
  5
194
  8
DIM
 10
206.13210303042891
 20
541.5896988544448
 30
0.0
 11
206.13210303042891
 21
444.5496988544449
 31
0.0
  0
SOLID
  5
195
  8
DIM
 10
204.79876969709559
 20
541.5896988544448
 30
0.0
 11
207.46543636376219
 21
541.5896988544448
 31
0.0
 12
206.13210303042891
 22
549.5896988544448
 32
0.0
 13
206.13210303042891
 23
549.5896988544448
 33
0.0
  0
SOLID
  5
196
  8
DIM
 10
204.79876969709559
 20
444.5496988544449
 30
0.0
 11
207.46543636376219
 21
444.5496988544449
 31
0.0
 12
206.13210303042891
 22
436.5496988544449
 32
0.0
 13
206.13210303042891
 23
436.5496988544449
 33
0.0
  0
TEXT
  5
197
  8
DIM
 10
202.29876969709559
 20
461.06969885444488
 30
0.0
 40
7.0
  1
SCREWED 4"
 50
90.0
 72
     4
 11
198.13210303042891
 21
493.06969885444488
 31
0.0
  0
TEXT
  5
198
  8
DIM
 10
247.42545880184869
 20
263.25083405706891
 30
0.0
 40
7.0
  1
%%C99 (%%c3.90) ROOT OF SPLINE
 50
90.0
  0
TEXT
  5
199
  8
DIM
 10
259.42545880184872
 20
263.25083405706891
 30
0.0
 40
7.0
  1
MAX. PERMISSIBLE O/D OF
 50
90.0
  0
TEXT
  5
19A
  8
DIM
 10
271.42545880184872
 20
263.25083405706891
 30
0.0
 40
7.0
  1
VALVE SPINDLE LOCKNUT
 50
90.0
  0
LINE
  5
19B
  8
DIM
 10
248.87627677978949
 20
436.5496988544449
 30
0.0
 11
204.13210303042891
 21
436.5496988544449
 31
0.0
  0
TEXT
  5
19C
  8
DIM
 10
624.5216690611735
 20
943.20472269228219
 30
0.0
 40
7.0
  1
4 OFF M12 SCREWS (EACH SIDE)
  0
TEXT
  5
19D
  8
DIM
 10
624.5216690611735
 20
931.2047226922823
 30
0.0
 40
7.0
  1
ON %%C140 (%%c5.51") P.C.
  0
LINE
  5
19E
  8
DIM
 10
806.8366863974494
 20
940.5412421509003
 30
0.0
 11
821.59721628157683
 21
940.5412421509003
 31
0.0
  0
SOLID
  5
19F
  8
DIM
 10
859.58698765122904
 20
889.14991054557765
 30
0.0
 11
857.41001013506184
 21
887.60981963747736
 31
0.0
 12
863.11877161744587
 22
881.8489325430254
 32
0.0
 13
863.11877161744587
 23
881.8489325430254
 33
0.0
  0
LINE
  5
1A0
  8
DIM
 10
858.49849889314544
 20
888.37986509152745
 30
0.0
 11
821.59721628157661
 21
940.54124215090019
 31
0.0
  0
TEXT
  5
1A1
  8
DIM
 10
551.02752041773044
 20
674.74013242575893
 30
0.0
 40
7.0
  1
8 OFF M10 BASEPLATE SECURING
  0
TEXT
  5
1A2
  8
DIM
 10
551.02752041773044
 20
662.74013242575893
 30
0.0
 40
7.0
  1
SCREWS EQUALLY SPACED ON
  0
TEXT
  5
1A3
  8
DIM
 10
551.02752041773044
 20
650.74013242575893
 30
0.0
 40
7.0
  1
CENTRES ON %%C312 (%%C12.28") P.C.
  0
LINE
  5
1A4
  8
DIM
 10
736.5965258945406
 20
666.47093825757793
 30
0.0
 11
757.54638128862189
 21
666.47093825757793
 31
0.0
  0
SOLID
  5
1A5
  8
DIM
 10
799.15327330931052
 20
616.26773242195145
 30
0.0
 11
797.06571559744009
 21
614.60845127919083
 31
0.0
 12
803.08733788165762
 22
609.17541871495985
 32
0.0
 13
803.08733788165762
 23
609.17541871495985
 33
0.0
  0
LINE
  5
1A6
  8
DIM
 10
798.10949445337531
 20
615.43809185057114
 30
0.0
 11
757.54638128862177
 21
666.47093825757793
 31
0.0
  0
TEXT
  5
1A7
  8
DIM
 10
564.91679022812514
 20
809.81612481279842
 30
0.0
 40
7.0
  1

  0
TEXT
  5
1A8
  8
DIM
 10
652.66333915757957
 20
797.81612481279853
 30
0.0
 40
7.0
  1
SEE TABLE FOR
  0
TEXT
  5
1A9
  8
DIM
 10
652.66333915757957
 20
785.81612481279853
 30
0.0
 40
7.0
  1
HOLE DETAILS
  0
LINE
  5
1AA
  8
DIM
 10
969.10402313335317
 20
483.81713841783721
 30
0.0
 11
734.49938501667089
 21
527.23030446617292
 31
0.0
  0
SOLID
  5
1AB
  8
DIM
 10
779.23113009703195
 20
517.59680580767565
 30
0.0
 11
779.71635416785057
 21
520.21895544341533
 31
0.0
 12
771.60729322522252
 22
520.36355283800185
 32
0.0
 13
771.60729322522252
 23
520.36355283800185
 33
0.0
  0
SOLID
  5
1AC
  8
DIM
 10
961.4801862615443
 20
486.58388544816353
 30
0.0
 11
960.99496219072535
 21
483.96173581242402
 31
0.0
 12
969.10402313335385
 22
483.81713841783733
 32
0.0
 13
969.10402313335385
 23
483.81713841783733
 33
0.0
  0
SOLID
  5
1AD
  8
DIM
 10
953.61373735432471
 20
488.03955766062001
 30
0.0
 11
953.12851328350598
 21
485.4174080248805
 31
0.0
 12
961.23757422613426
 22
485.27281063029369
 32
0.0
 13
961.23757422613426
 23
485.27281063029369
 33
0.0
  0
SOLID
  5
1AE
  8
DIM
 10
861.41591177719056
 20
623.5603481832602
 30
0.0
 11
863.72897024829331
 21
624.88732656302795
 31
0.0
 12
866.55337615204564
 22
617.28466195983606
 32
0.0
 13
866.55337615204564
 23
617.28466195983606
 33
0.0
  0
LINE
  5
1AF
  8
DIM
 10
866.55337615204621
 20
617.28466195983503
 30
0.0
 11
764.40754385506125
 21
795.33525139271865
 31
0.0
  0
LINE
  5
1B0
  8
DIM
 10
741.64764027658475
 20
795.33525139271865
 30
0.0
 11
764.40754385506125
 21
795.33525139271865
 31
0.0
  0
LINE
  5
1B1
  8
DIM
 10
762.10321023557356
 20
275.44170805294073
 30
0.0
 11
978.48544900247748
 21
275.44170805294073
 31
0.0
  0
SOLID
  5
1B2
  8
DIM
 10
762.10321023557356
 20
276.77504138627398
 30
0.0
 11
762.10321023557356
 21
274.1083747196073
 31
0.0
 12
754.10321023557356
 22
275.44170805294073
 32
0.0
 13
754.10321023557356
 23
275.44170805294073
 33
0.0
  0
SOLID
  5
1B3
  8
DIM
 10
978.48544900247748
 20
276.77504138627398
 30
0.0
 11
978.48544900247748
 21
274.1083747196073
 31
0.0
 12
986.48544900247748
 22
275.44170805294073
 32
0.0
 13
986.48544900247748
 23
275.44170805294073
 33
0.0
  0
TEXT
  5
1B4
  8
DIM
 10
863.48761387016486
 20
279.94170805294073
 30
0.0
 40
7.0
  1
%%C330
 72
     4
 11
875.65428053683149
 21
283.44170805294073
 31
0.0
  0
LINE
  5
1B5
  8
DIM
 10
754.10321023557356
 20
464.99337740241771
 30
0.0
 11
754.10321023557356
 21
273.44170805294073
 31
0.0
  0
SOLID
  5
1B6
  8
DIM
 10
970.48544900247748
 20
276.77504138627398
 30
0.0
 11
970.48544900247748
 21
274.1083747196073
 31
0.0
 12
978.48544900247748
 22
275.44170805294073
 32
0.0
 13
978.48544900247748
 23
275.44170805294073
 33
0.0
  0
LINE
  5
1B7
  8
DIM
 10
934.05703134896555
 20
825.91969885444485
 30
0.0
 11
1026.7953938264191
 21
825.91969885444485
 31
0.0
  0
LINE
  5
1B8
  8
DIM
 10
936.25977369263364
 20
493.06969885444488
 30
0.0
 11
1026.7953938264191
 21
493.06969885444488
 31
0.0
  0
LINE
  5
1B9
  8
DIM
 10
1024.7953938264191
 20
817.91969885444485
 30
0.0
 11
1024.7953938264191
 21
501.06969885444488
 31
0.0
  0
SOLID
  5
1BA
  8
DIM
 10
1023.462060493085
 20
817.91969885444485
 30
0.0
 11
1026.1287271597521
 21
817.91969885444485
 31
0.0
 12
1024.7953938264191
 22
825.91969885444485
 32
0.0
 13
1024.7953938264191
 23
825.91969885444485
 33
0.0
  0
SOLID
  5
1BB
  8
DIM
 10
1023.462060493085
 20
501.06969885444488
 30
0.0
 11
1026.1287271597521
 21
501.06969885444488
 31
0.0
 12
1024.7953938264191
 22
493.06969885444488
 32
0.0
 13
1024.7953938264191
 23
493.06969885444488
 33
0.0
  0
TEXT
  5
1BC
  8
DIM
 10
1020.2953938264189
 20
653.66136552111152
 30
0.0
 40
7.0
  1
333
 50
90.0
 72
     4
 11
1016.7953938264189
 21
662.66136552111152
 31
0.0
  0
LINE
  5
1BD
  8
DIM
 10
921.10321023557367
 20
911.91969885444496
 30
0.0
 11
1026.7953938264191
 21
911.91969885444496
 31
0.0
  0
LINE
  5
1BE
  8
DIM
 10
1024.7953938264191
 20
833.91969885444485
 30
0.0
 11
1024.7953938264191
 21
903.91969885444496
 31
0.0
  0
SOLID
  5
1BF
  8
DIM
 10
1023.462060493085
 20
833.91969885444485
 30
0.0
 11
1026.1287271597521
 21
833.91969885444485
 31
0.0
 12
1024.7953938264191
 22
825.91969885444485
 32
0.0
 13
1024.7953938264191
 23
825.91969885444485
 33
0.0
  0
SOLID
  5
1C0
  8
DIM
 10
1023.462060493085
 20
903.91969885444496
 30
0.0
 11
1026.1287271597521
 21
903.91969885444496
 31
0.0
 12
1024.7953938264191
 22
911.91969885444496
 32
0.0
 13
1024.7953938264191
 23
911.91969885444496
 33
0.0
  0
TEXT
  5
1C1
  8
DIM
 10
1020.2953938264189
 20
863.41969885444485
 30
0.0
 40
7.0
  1
86
 50
90.0
 72
     4
 11
1016.7953938264189
 21
868.91969885444496
 31
0.0
  0
LINE
  5
1C2
  8
CRS
 10
870.50321023557365
 20
620.7381273688834
 30
0.0
 11
870.50321023557365
 21
600.06127034000622
 31
0.0
  0
LINE
  5
1C3
  8
CRS
 10
860.164781721135
 20
610.39969885444475
 30
0.0
 11
880.84163875001229
 21
610.39969885444475
 31
0.0
  0
LINE
  5
1C4
  8
CRS
 10
791.43455351885132
 20
541.66914792539615
 30
0.0
 11
812.1114105477285
 21
541.66914792539615
 31
0.0
  0
LINE
  5
1C5
  8
CRS
 10
801.77298203328985
 20
531.33071941095761
 30
0.0
 11
801.77298203328985
 21
552.00757643983491
 31
0.0
  0
LINE
  5
1C6
  8
CRS
 10
791.43478172113498
 20
444.46969885444491
 30
0.0
 11
812.11163875001228
 21
444.46969885444491
 31
0.0
  0
LINE
  5
1C7
  8
CRS
 10
801.77321023557363
 20
434.13127034000621
 30
0.0
 11
801.77321023557363
 21
454.8081273688835
 31
0.0
  0
LINE
  5
1C8
  8
CRS
 10
870.50376116462235
 20
365.40104213772241
 30
0.0
 11
870.50376116462235
 21
386.07789916659971
 31
0.0
  0
LINE
  5
1C9
  8
CRS
 10
880.84218967906099
 20
375.73947065216117
 30
0.0
 11
860.1653326501837
 21
375.73947065216112
 31
0.0
  0
LINE
  5
1CA
  8
DRG
 10
855.29136098638639
 20
601.39466317661334
 30
0.0
 11
852.22949195095509
 21
608.78661984178143
 31
0.0
  0
LINE
  5
1CB
  8
DRG
 10
887.62711317830258
 20
614.7886592264482
 30
0.0
 11
884.56524414287105
 21
622.18061589161618
 31
0.0
  0
ARC
  5
1CC
  8
DRG
 10
868.39736804691313
 20
615.48361786669886
 30
0.0
 40
17.5
 50
18.713695457473051
 51
206.2865735775348
  0
ARC
  5
1CD
  8
DRG
 10
919.10321023557356
 20
493.06969885444488
 30
0.0
 40
117.5
 50
124.955927143414
 51
145.0443418916033
  0
ARC
  5
1CE
  8
DRG
 10
846.05257464583894
 20
597.56780716237483
 30
0.0
 40
10.0
 50
304.95592714341421
 51
22.500134517508268
  0
ARC
  5
1CF
  8
DRG
 10
896.86589951885014
 20
618.61551524068659
 30
0.0
 40
10.0
 50
202.50013451750829
 51
280.04434189160332
  0
ARC
  5
1D0
  8
DRG
 10
796.68905313301104
 20
543.77496624225375
 30
0.0
 40
17.5
 50
63.713695457473058
 51
251.2865735775348
  0
LINE
  5
1D1
  8
DRG
 10
810.77794628307129
 20
556.88103945798275
 30
0.0
 11
803.38597524083502
 21
559.94287378410149
 31
0.0
  0
ARC
  5
1D2
  8
DRG
 10
814.60475891611327
 20
566.11984376761018
 30
0.0
 40
10.0
 50
247.5001345175082
 51
325.04434189160332
  0
ARC
  5
1D3
  8
DRG
 10
793.55728943438135
 20
515.30642006465973
 30
0.0
 40
10.0
 50
349.95592714341421
 51
67.500134517508272
  0
LINE
  5
1D4
  8
DRG
 10
797.38410206742356
 20
524.54522437428705
 30
0.0
 11
789.99213102518752
 21
527.6070587004059
 31
0.0
  0
ARC
  5
1D5
  8
DRG
 10
796.68929122331963
 20
442.36385666578428
 30
0.0
 40
17.5
 50
108.71369545747299
 51
296.2865735775348
  0
LINE
  5
1D6
  8
DRG
 10
797.38424986357018
 20
461.59360179717402
 30
0.0
 11
789.99229319840219
 21
458.53173276174238
 31
0.0
  0
ARC
  5
1D7
  8
DRG
 10
793.55739384933179
 20
470.8323881377213
 30
0.0
 40
10.0
 50
292.50013451750817
 51
10.044341891603359
  0
ARC
  5
1D8
  8
DRG
 10
814.60510192764355
 20
420.01906326471033
 30
0.0
 40
10.0
 50
34.95592714341425
 51
112.5001345175082
  0
LINE
  5
1D9
  8
DRG
 10
810.77824591340504
 20
429.25784960525772
 30
0.0
 11
803.38628924823706
 21
426.1959805698263
 31
0.0
  0
ARC
  5
1DA
  8
DRG
 10
868.39794284776451
 20
370.65554175188259
 30
0.0
 40
17.5
 50
153.71369545747299
 51
341.2865735775348
  0
LINE
  5
1DB
  8
DRG
 10
855.29186963203574
 20
384.7444349019425
 30
0.0
 11
852.230035305917
 21
377.35246385970629
 31
0.0
  0
ARC
  5
1DC
  8
DRG
 10
846.05306532240809
 20
388.57124753498471
 30
0.0
 40
10.0
 50
337.50013451750817
 51
55.044341891603359
  0
ARC
  5
1DD
  8
DRG
 10
896.86648902535853
 20
367.52377805325278
 30
0.0
 40
10.0
 50
79.955927143414272
 51
157.5001345175082
  0
LINE
  5
1DE
  8
DRG
 10
887.62768471573145
 20
371.35059068629488
 30
0.0
 11
884.56585038961259
 21
363.95861964405867
 31
0.0
  0
ARC
  5
1DF
  8
DRG
 10
919.10321023557356
 20
493.06969885444488
 30
0.0
 40
117.5
 50
169.95592714341399
 51
190.0443418916033
  0
ARC
  5
1E0
  8
DRG
 10
919.10321023557356
 20
493.06969885444488
 30
0.0
 40
117.5
 50
214.95592714341399
 51
235.04434189160321
  0
ARC
  5
1E1
  8
DRG
 10
919.10321023557356
 20
493.06969885444488
 30
0.0
 40
117.5
 50
259.95592714341382
 51
269.99999999999989
  0
ARC
  5
1E2
  8
DRG
 10
919.10321023557356
 20
493.06969885444488
 30
0.0
 40
117.5
 50
90.000000000000057
 51
100.04434189160339
  0
ARC
  5
1E3
  8
DRG
 10
919.10321023557356
 20
493.06969885444488
 30
0.0
 40
110.0
 50
90.000000000000057
 51
269.99999999999989
  0
ARC
  5
1E4
  8
DRG
 10
919.10321023557356
 20
493.06969885444488
 30
0.0
 40
55.100000000000001
 50
90.000000000000114
 51
269.99999999999977
  0
LINE
  5
1E5
  8
DRG
 10
474.38070259582781
 20
632.98361786669875
 30
0.0
 11
474.38070259582798
 21
353.15577984219101
 31
0.0
  0
LINE
  5
1E6
  8
DRG
 10
474.38070259582781
 20
632.98361786669875
 30
0.0
 11
430.53070259582779
 21
632.98361786669875
 31
0.0
  0
ARC
  5
1E7
  8
DRG
 10
430.53070259582779
 20
642.98361786669875
 30
0.0
 40
10.0
 50
180.0
 51
270.0
  0
ARC
  5
1E8
  8
DRG
 10
430.53070259582779
 20
343.15577984219112
 30
0.0
 40
10.0
 50
90.0
 51
180.0
  0
LINE
  5
1E9
  8
DRG
 10
474.38070259582798
 20
353.15577984219101
 30
0.0
 11
430.53070259582779
 21
353.15577984219101
 31
0.0
  0
LINE
  5
1EA
  8
DRG
 10
479.38070259582793
 20
569.26969885444487
 30
0.0
 11
479.38070259582793
 21
416.86969885444489
 31
0.0
  0
LINE
  5
1EB
  8
DRG
 10
474.38070259582781
 20
569.26969885444487
 30
0.0
 11
479.38070259582793
 21
569.26969885444487
 31
0.0
  0
LINE
  5
1EC
  8
DRG
 10
474.38070259582781
 20
416.86969885444489
 30
0.0
 11
479.38070259582793
 21
416.86969885444489
 31
0.0
  0
LINE
  5
1ED
  8
DIM
 10
474.38070259582781
 20
642.64229218847811
 30
0.0
 11
474.38070259582781
 21
1008.914756880235
 31
0.0
  0
LINE
  5
1EE
  8
DIM
 10
485.91725805311847
 20
569.26969885444487
 30
0.0
 11
566.98571485399896
 21
569.26969885444487
 31
0.0
  0
LINE
  5
1EF
  8
DIM
 10
486.55587205541298
 20
416.86969885444489
 30
0.0
 11
566.98571485399884
 21
416.86969885444489
 31
0.0
  0
LINE
  5
1F0
  8
DIM
 10
474.38070259582798
 20
349.3342488983709
 30
0.0
 11
474.38070259582798
 21
222.9599464330432
 31
0.0
  0
LINE
  5
1F1
  8
DIM
 10
479.38070259582798
 20
412.56635587171098
 30
0.0
 11
479.38070259582798
 21
273.44170805294073
 31
0.0
  0
SOLID
  5
1F2
  8
DIM
 10
466.38070259582798
 20
276.77504138627398
 30
0.0
 11
466.38070259582798
 21
274.1083747196073
 31
0.0
 12
474.38070259582798
 22
275.44170805294073
 32
0.0
 13
474.38070259582798
 23
275.44170805294073
 33
0.0
  0
LINE
  5
1F3
  8
HID
 10
363.88070259582781
 20
544.28969885444451
 30
0.0
 11
363.88070259582781
 21
441.84969885444428
 31
0.0
  0
LINE
  5
1F4
  8
HID
 10
363.88070259582781
 20
544.28969885444451
 30
0.0
 11
383.43070259582782
 21
544.28969885444451
 31
0.0
  0
LINE
  5
1F5
  8
HID
 10
363.88070259582781
 20
441.84969885444428
 30
0.0
 11
383.43070259582782
 21
441.84969885444428
 31
0.0
  0
LINE
  5
1F6
  8
HID
 10
428.13070259582793
 20
565.44969885444425
 30
0.0
 11
428.13070259582793
 21
547.9296988544445
 31
0.0
  0
LINE
  5
1F7
  8
HID
 10
387.43070259582782
 20
547.9296988544445
 30
0.0
 11
387.43070259582782
 21
542.75969885444454
 31
0.0
  0
LINE
  5
1F8
  8
HID
 10
383.43070259582782
 20
544.28969885444451
 30
0.0
 11
383.43070259582782
 21
542.75969885444431
 31
0.0
  0
LINE
  5
1F9
  8
HID
 10
383.43070259582782
 20
542.75969885444431
 30
0.0
 11
387.43070259582782
 21
542.75969885444454
 31
0.0
  0
LINE
  5
1FA
  8
HID
 10
383.43070259582782
 20
443.37969885444443
 30
0.0
 11
387.43070259582782
 21
443.37969885444443
 31
0.0
  0
LINE
  5
1FB
  8
HID
 10
363.88070259582781
 20
542.99969885444443
 30
0.0
 11
383.43070259582782
 21
542.99969885444443
 31
0.0
  0
LINE
  5
1FC
  8
HID
 10
363.88070259582781
 20
443.1396988544443
 30
0.0
 11
383.43070259582782
 21
443.1396988544443
 31
0.0
  0
LINE
  5
1FD
  8
HID
 10
387.43070259582782
 20
547.9296988544445
 30
0.0
 11
428.13070259582793
 21
547.9296988544445
 31
0.0
  0
LINE
  5
1FE
  8
HID
 10
387.43070259582782
 20
438.20969885444441
 30
0.0
 11
428.13070259582793
 21
438.20969885444441
 31
0.0
  0
LINE
  5
1FF
  8
HID
 10
428.13070259582793
 20
438.20969885444441
 30
0.0
 11
428.13070259582793
 21
420.68969885444437
 31
0.0
  0
LINE
  5
200
  8
HID
 10
428.13070259582793
 20
565.44969885444425
 30
0.0
 11
444.63070259582793
 21
565.44969885444425
 31
0.0
  0
LINE
  5
201
  8
HID
 10
428.13070259582793
 20
420.68969885444437
 30
0.0
 11
444.63070259582793
 21
420.68969885444437
 31
0.0
  0
LINE
  5
202
  8
HID
 10
444.63070259582793
 20
565.44969885444425
 30
0.0
 11
444.63070259582793
 21
547.9296988544445
 31
0.0
  0
LINE
  5
203
  8
HID
 10
444.63070259582793
 20
438.20969885444441
 30
0.0
 11
444.63070259582793
 21
420.68969885444437
 31
0.0
  0
LINE
  5
204
  8
HID
 10
444.63070259582793
 20
548.06969885444425
 30
0.0
 11
459.88070259582781
 21
548.06969885444425
 31
0.0
  0
LINE
  5
205
  8
HID
 10
444.63070259582793
 20
438.06969885444443
 30
0.0
 11
459.88070259582781
 21
438.06969885444443
 31
0.0
  0
LINE
  5
206
  8
HID
 10
459.88070259582781
 20
548.06969885444425
 30
0.0
 11
459.88070259582781
 21
438.06969885444443
 31
0.0
  0
LINE
  5
207
  8
HID
 10
383.43070259582782
 20
443.37969885444443
 30
0.0
 11
383.43070259582782
 21
441.84969885444428
 31
0.0
  0
LINE
  5
208
  8
HID
 10
387.43070259582782
 20
443.37969885444443
 30
0.0
 11
387.43070259582782
 21
438.20969885444441
 31
0.0
  0
LINE
  5
209
  8
DRG
 10
383.03070259582802
 20
554.68902828862713
 30
0.0
 11
383.03070259582802
 21
643.32589873144184
 31
0.0
  0
LINE
  5
20A
  8
DIM
 10
363.88070259582781
 20
438.21879625490362
 30
0.0
 11
363.88070259582781
 21
273.44170805294073
 31
0.0
  0
LINE
  5
20B
  8
DIM
 10
360.99514723330873
 20
542.99969885444443
 30
0.0
 11
253.76724453227169
 21
542.99969885444443
 31
0.0
  0
LINE
  5
20C
  8
DIM
 10
361.11488537188342
 20
443.1396988544443
 30
0.0
 11
253.76724453227169
 21
443.1396988544443
 31
0.0
  0
LINE
  5
20D
  8
DIM
 10
125.0307025958278
 20
810.41969885444485
 30
0.0
 11
125.0307025958278
 21
713.34622149748429
 31
0.0
  0
LINE
  5
20E
  8
DIM
 10
190.03070259582779
 20
798.91969885444485
 30
0.0
 11
190.03070259582779
 21
713.34622149748429
 31
0.0
  0
LINE
  5
20F
  8
DIM
 10
133.03070259582771
 20
715.34622149748441
 30
0.0
 11
182.03070259582779
 21
715.34622149748441
 31
0.0
  0
SOLID
  5
210
  8
DIM
 10
133.03070259582771
 20
716.67955483081766
 30
0.0
 11
133.03070259582771
 21
714.01288816415104
 31
0.0
 12
125.0307025958278
 22
715.34622149748441
 32
0.0
 13
125.0307025958278
 23
715.34622149748441
 33
0.0
  0
SOLID
  5
211
  8
DIM
 10
182.03070259582779
 20
716.67955483081766
 30
0.0
 11
182.03070259582779
 21
714.01288816415104
 31
0.0
 12
190.03070259582779
 22
715.34622149748441
 32
0.0
 13
190.03070259582779
 23
715.34622149748441
 33
0.0
  0
TEXT
  5
212
  8
DIM
 10
151.8640359291611
 20
719.84622149748441
 30
0.0
 40
7.0
  1
65
 72
     1
 11
157.53070259582771
 21
723.34622149748441
 31
0.0
 73
     2
  0
ARC
  5
213
  8
DRG2
 10
919.10321023557356
 20
337.06969885444499
 30
0.0
 40
7.1349999999999989
 50
90.000000000000895
 51
269.99999999999898
  0
POLYLINE
  5
214
  8
DRG2
 66
     1
 10
0.0
 20
0.0
 30
0.0
  0
VERTEX
  5
215
  8
DRG2
 10
916.79380915881507
 20
333.06969885444499
 30
0.0
  0
VERTEX
  5
216
  8
DRG2
 10
914.48440808205669
 20
337.06969885444499
 30
0.0
  0
VERTEX
  5
217
  8
DRG2
 10
916.79380915881507
 20
341.06969885444499
 30
0.0
  0
VERTEX
  5
218
  8
DRG2
 10
919.10321023557356
 20
341.06969885444511
 30
0.0
  0
SEQEND
  5
219
  8
DRG2
  0
POLYLINE
  5
21A
  8
DRG
 66
     1
 10
0.0
 20
0.0
 30
0.0
  0
VERTEX
  5
21B
  8
DRG
 10
919.10321023557356
 20
333.06969885444511
 30
0.0
  0
VERTEX
  5
21C
  8
DRG
 10
916.79380915881507
 20
333.06969885444499
 30
0.0
  0
SEQEND
  5
21D
  8
DRG
  0
POLYLINE
  5
21E
  8
DRG2
 66
     1
 10
0.0
 20
0.0
 30
0.0
  0
VERTEX
  5
21F
  8
DRG2
 10
916.79380915881507
 20
653.06969885444482
 30
0.0
  0
VERTEX
  5
220
  8
DRG2
 10
914.48440808205669
 20
649.06969885444482
 30
0.0
  0
VERTEX
  5
221
  8
DRG2
 10
916.79380915881507
 20
645.06969885444482
 30
0.0
  0
VERTEX
  5
222
  8
DRG2
 10
919.10321023557356
 20
645.06969885444482
 30
0.0
  0
SEQEND
  5
223
  8
DRG2
  0
POLYLINE
  5
224
  8
DRG2
 66
     1
 10
0.0
 20
0.0
 30
0.0
  0
VERTEX
  5
225
  8
DRG2
 10
919.10321023557356
 20
653.06969885444482
 30
0.0
  0
VERTEX
  5
226
  8
DRG2
 10
916.79380915881507
 20
653.06969885444482
 30
0.0
  0
SEQEND
  5
227
  8
DRG2
  0
ARC
  5
228
  8
DRG2
 10
919.10321023557356
 20
649.06969885444482
 30
0.0
 40
7.1349999999999989
 50
90.000000000000895
 51
269.99999999999898
  0
LINE
  5
229
  8
DRG
 10
474.38070259582781
 20
596.14186140790184
 30
0.0
 11
430.42420728418318
 21
596.14186140790184
 31
0.0
  0
LINE
  5
22A
  8
DRG
 10
474.38070259582781
 20
389.99753630098797
 30
0.0
 11
430.42420728418318
 21
389.99753630098797
 31
0.0
  0
LINE
  5
22B
  8
DRG
 10
420.53070259582768
 20
557.27627553930893
 30
0.0
 11
420.53070259582768
 21
667.06969885444482
 31
0.0
  0
ARC
  5
22C
  8
DRG
 10
919.10321023557356
 20
493.06969885444488
 30
0.0
 40
174.0
 50
90.000000000000071
 51
140.0921250556008
  0
ARC
  5
22D
  8
DRG
 10
789.46720038684339
 20
601.49250526757862
 30
0.0
 40
5.0
 50
140.09212505560089
 51
225.0
  0
ARC
  5
22E
  8
DRG
 10
782.52432119996865
 20
594.29324883072252
 30
0.0
 40
5.0
 50
323.4565193352704
 51
45.0
  0
LINE
  5
22F
  8
DRG2
 10
786.05985510590131
 20
597.82878273665517
 30
0.0
 11
785.93166648091074
 21
597.95697136164586
 31
0.0
  0
LINE
  5
230
  8
DRG
 10
420.53070259582768
 20
667.06969885444482
 30
0.0
 11
408.03070259582768
 21
667.06969885444482
 31
0.0
  0
TEXT
  5
231
  8
TXT
 10
225.06666666666661
 20
50.200000000000017
 30
0.0
 40
7.0
  1
FACTOR (MECH. ADVANTAGE)
 72
     4
 11
302.39999999999998
 21
53.200000000000017
 31
0.0
  0
LINE
  5
232
  8
DRG2
 10
218.39999999999989
 20
42.0
 30
0.0
 11
806.39999999999998
 21
42.0
 31
0.0
  0
LINE
  5
233
  8
DRG2
 10
218.39999999999989
 20
64.400000000000006
 30
0.0
 11
806.39999999999998
 21
64.400000000000006
 31
0.0
  0
LINE
  5
234
  8
DRG2
 10
218.39999999999989
 20
86.799999999999969
 30
0.0
 11
806.39999999999998
 21
86.799999999999969
 31
0.0
  0
LINE
  5
235
  8
DRG2
 10
218.39999999999989
 20
109.2
 30
0.0
 11
806.39999999999998
 21
109.2
 31
0.0
  0
LINE
  5
236
  8
DRG2
 10
218.39999999999989
 20
42.0
 30
0.0
 11
218.39999999999989
 21
109.2
 31
0.0
  0
TEXT
  5
237
  8
TXT
 10
268.39999999999992
 20
72.099999999999994
 30
0.0
 40
7.0
  1
EXACT RATIO
 72
     4
 11
302.39999999999998
 21
75.599999999999994
 31
0.0
  0
TEXT
  5
238
  8
TXT
 10
262.23333333333329
 20
94.500000000000014
 30
0.0
 40
7.0
  1
NOMINAL RATIO
 72
     4
 11
302.39999999999998
 21
98.000000000000043
 31
0.0
  0
TEXT
  5
239
  8
TXT
 10
618.06666666666661
 20
49.700000000000017
 30
0.0
 40
7.0
  1
9.180
 72
     4
 11
631.39999999999998
 21
53.200000000000017
 31
0.0
  0
TEXT
  5
23A
  8
TXT
 10
613.73333333333335
 20
72.099999999999994
 30
0.0
 40
7.0
  1
10.20:1
 72
     4
 11
631.39999999999998
 21
75.599999999999994
 31
0.0
  0
TEXT
  5
23B
  8
TXT
 10
477.39999999999998
 20
49.700000000000017
 30
0.0
 40
7.0
  1
5.490
 72
     4
 11
491.39999999999992
 21
53.200000000000017
 31
0.0
  0
TEXT
  5
23C
  8
TXT
 10
477.06666666666672
 20
72.099999999999994
 30
0.0
 40
7.0
  1
6.10:1
 72
     4
 11
491.39999999999992
 21
75.599999999999994
 31
0.0
  0
TEXT
  5
23D
  8
TXT
 10
484.73333333333329
 20
94.500000000000014
 30
0.0
 40
7.0
  1
6:1
 72
     4
 11
491.39999999999992
 21
98.000000000000043
 31
0.0
  0
LINE
  5
23E
  8
DRG2
 10
456.39999999999992
 20
42.0
 30
0.0
 11
456.39999999999992
 21
109.2
 31
0.0
  0
LINE
  5
23F
  8
DRG2
 10
386.39999999999992
 20
42.0
 30
0.0
 11
386.39999999999992
 21
109.2
 31
0.0
  0
TEXT
  5
240
  8
TXT
 10
407.39999999999992
 20
49.700000000000017
 30
0.0
 40
7.0
  1
3.600
 72
     4
 11
421.39999999999992
 21
53.200000000000017
 31
0.0
  0
TEXT
  5
241
  8
TXT
 10
407.06666666666661
 20
72.099999999999994
 30
0.0
 40
7.0
  1
4.01:1
 72
     4
 11
421.39999999999992
 21
75.599999999999994
 31
0.0
  0
TEXT
  5
242
  8
TXT
 10
414.73333333333329
 20
94.500000000000014
 30
0.0
 40
7.0
  1
4:1
 72
     4
 11
421.39999999999992
 21
98.000000000000043
 31
0.0
  0
LINE
  5
243
  8
DRG2
 10
596.39999999999986
 20
42.0
 30
0.0
 11
596.39999999999986
 21
109.2
 31
0.0
  0
LINE
  5
244
  8
DRG2
 10
526.39999999999998
 20
42.0
 30
0.0
 11
526.39999999999998
 21
109.2
 31
0.0
  0
TEXT
  5
245
  8
TXT
 10
548.23333333333335
 20
49.700000000000017
 30
0.0
 40
7.0
  1
7.156
 72
     4
 11
561.39999999999986
 21
53.200000000000017
 31
0.0
  0
TEXT
  5
246
  8
TXT
 10
546.39999999999986
 20
72.099999999999994
 30
0.0
 40
7.0
  1
7.95:1
 72
     4
 11
561.39999999999986
 21
75.599999999999994
 31
0.0
  0
TEXT
  5
247
  8
TXT
 10
554.73333333333335
 20
94.500000000000014
 30
0.0
 40
7.0
  1
8:1
 72
     4
 11
561.39999999999986
 21
98.000000000000043
 31
0.0
  0
LINE
  5
248
  8
DRG2
 10
736.39999999999986
 20
42.0
 30
0.0
 11
736.39999999999986
 21
109.2
 31
0.0
  0
LINE
  5
249
  8
DRG2
 10
666.39999999999986
 20
42.0
 30
0.0
 11
666.39999999999986
 21
109.2
 31
0.0
  0
TEXT
  5
24A
  8
TXT
 10
685.39999999999998
 20
49.700000000000017
 30
0.0
 40
7.0
  1
11.030
 72
     4
 11
701.39999999999998
 21
53.200000000000017
 31
0.0
  0
TEXT
  5
24B
  8
TXT
 10
683.73333333333335
 20
72.099999999999994
 30
0.0
 40
7.0
  1
12.26:1
 72
     4
 11
701.39999999999998
 21
75.599999999999994
 31
0.0
  0
TEXT
  5
24C
  8
TXT
 10
622.06666666666661
 20
94.500000000000014
 30
0.0
 40
7.0
  1
10:1
 72
     4
 11
631.39999999999998
 21
98.000000000000043
 31
0.0
  0
TEXT
  5
24D
  8
TXT
 10
692.06666666666661
 20
94.500000000000014
 30
0.0
 40
7.0
  1
12:1
 72
     4
 11
701.39999999999998
 21
98.000000000000043
 31
0.0
  0
LINE
  5
24E
  8
DRG2
 10
806.39999999999998
 20
42.0
 30
0.0
 11
806.39999999999998
 21
109.2
 31
0.0
  0
TEXT
  5
24F
  8
TXT
 10
753.73333333333335
 20
72.099999999999994
 30
0.0
 40
7.0
  1
15.03:1
 72
     4
 11
771.39999999999986
 21
75.599999999999994
 31
0.0
  0
TEXT
  5
250
  8
TXT
 10
754.73333333333335
 20
49.700000000000017
 30
0.0
 40
7.0
  1
13.520
 72
     4
 11
771.39999999999986
 21
53.200000000000017
 31
0.0
  0
TEXT
  5
251
  8
TXT
 10
762.06666666666649
 20
94.500000000000014
 30
0.0
 40
7.0
  1
15:1
 72
     4
 11
771.39999999999986
 21
98.000000000000043
 31
0.0
  0
LINE
  5
252
  8
DRG
 10
144.2437567425967
 20
1103.9582913068241
 30
0.0
 11
217.96875674259709
 21
1148.9582913068241
 31
0.0
  0
LINE
  5
253
  8
DRG
 10
217.96875674259709
 20
1268.9582913068241
 30
0.0
 11
144.2437567425967
 21
1313.9582913068241
 31
0.0
  0
LINE
  5
254
  8
DRG
 10
212.96875674259661
 20
1153.9582913068241
 30
0.0
 11
149.2437567425963
 21
1153.9582913068241
 31
0.0
  0
LINE
  5
255
  8
DRG
 10
212.96875674259709
 20
1263.9582913068241
 30
0.0
 11
149.2437567425967
 21
1263.9582913068241
 31
0.0
  0
LINE
  5
256
  8
DRG
 10
212.96875674259709
 20
1202.9582913068241
 30
0.0
 11
149.2437567425967
 21
1202.9582913068241
 31
0.0
  0
LINE
  5
257
  8
DRG
 10
212.96875674259709
 20
1214.9582913068241
 30
0.0
 11
149.2437567425967
 21
1214.9582913068241
 31
0.0
  0
LINE
  5
258
  8
CRS
 10
305.74242371217559
 20
1208.9582913068241
 30
0.0
 11
49.43641314491348
 21
1208.9582913068241
 31
0.0
  0
LINE
  5
259
  8
DIM
 10
57.250105672150241
 20
1272.7665284120681
 30
0.0
 11
48.166414190429158
 21
1272.7665284120681
 31
0.0
  0
LINE
  5
25A
  8
DIM
 10
24.243756742596972
 20
1103.9582913068241
 30
0.0
 11
24.243756742597199
 21
1313.9582913068241
 31
0.0
  0
SOLID
  5
25B
  8
DIM
 10
22.910431028311368
 20
1111.9582455925381
 30
0.0
 11
25.577082456882788
 21
1111.9582455925381
 31
0.0
 12
24.243756742596972
 22
1103.9582913068241
 32
0.0
 13
24.243756742596972
 23
1103.9582913068241
 33
0.0
  0
TEXT
  5
25C
  8
DIM
 10
20.743756742596961
 20
1155.375161730884
 30
0.0
 40
7.0
  1
FOR INPUT OPTIONS
 50
90.0
 72
     4
 11
17.243756742596972
 21
1208.2084950642179
 31
0.0
  0
SOLID
  5
25D
  8
DIM
 10
22.910431028311368
 20
1305.9583370211101
 30
0.0
 11
25.577082456882788
 21
1305.9583370211101
 31
0.0
 12
24.243756742596972
 22
1313.9582913068241
 32
0.0
 13
24.243756742596972
 23
1313.9582913068241
 33
0.0
  0
TEXT
  5
25E
  8
DIM
 10
94.659288430238647
 20
1275.2474102818639
 30
0.0
 40
7.0
  1
5
 72
     1
 11
96.992621763572004
 21
1278.7474102818639
 31
0.0
 73
     2
  0
LINE
  5
25F
  8
HID
 10
129.2437567425967
 20
1271.4182913068239
 30
0.0
 11
129.2437567425967
 21
1146.4982913068241
 31
0.0
  0
LINE
  5
260
  8
DRG
 10
144.2437567425967
 20
1313.9582913068241
 30
0.0
 11
144.2437567425967
 21
1103.9582913068241
 31
0.0
  0
LINE
  5
261
  8
DRG
 10
124.2437567425967
 20
1313.9582913068241
 30
0.0
 11
124.2437567425967
 21
1103.9582913068241
 31
0.0
  0
LINE
  5
262
  8
DIM
 10
117.386613885454
 20
1169.2361371318391
 30
0.0
 11
75.140563195534625
 21
1169.2361371318391
 31
0.0
  0
TEXT
  5
263
  8
DIM
 10
91.292317586704556
 20
1171.408785316901
 30
0.0
 40
7.0
  1
5
 72
     1
 11
93.625650920037884
 21
1174.908785316901
 31
0.0
 73
     2
  0
SOLID
  5
264
  8
DIM
 10
137.2437110283112
 20
1170.5694628461249
 30
0.0
 11
137.2437110283112
 21
1167.9028114175539
 31
0.0
 12
129.2437567425967
 22
1169.2361371318391
 32
0.0
 13
129.2437567425967
 23
1169.2361371318391
 33
0.0
  0
SOLID
  5
265
  8
DIM
 10
116.2438024568827
 20
1170.5694628461249
 30
0.0
 11
116.2438024568827
 21
1167.9028114175539
 31
0.0
 12
124.2437567425967
 22
1169.2361371318391
 32
0.0
 13
124.2437567425967
 23
1169.2361371318391
 33
0.0
  0
LINE
  5
266
  8
DIM
 10
136.2437567425967
 20
1169.2361371318391
 30
0.0
 11
145.85168663856541
 21
1169.2361371318391
 31
0.0
  0
ARC
  5
267
  8
DRG
 10
149.2437567425963
 20
1148.9582913068241
 30
0.0
 40
5.0
 50
90.0
 51
180.0
  0
LINE
  5
268
  8
CRS
 10
148.04385569514389
 20
1150.6182913068239
 30
0.0
 11
119.634607237026
 21
1150.6182913068239
 31
0.0
  0
LINE
  5
269
  8
DRG
 10
144.2437567425967
 20
1103.9582913068241
 30
0.0
 11
124.2437567425967
 21
1103.9582913068241
 31
0.0
  0
LINE
  5
26A
  8
HID
 10
144.2437567425967
 20
1160.8682913068239
 30
0.0
 11
124.2437567425967
 21
1160.8682913068239
 31
0.0
  0
LINE
  5
26B
  8
HID
 10
144.2437567425967
 20
1140.3682913068239
 30
0.0
 11
124.2437567425967
 21
1140.3682913068239
 31
0.0
  0
ARC
  5
26C
  8
HID
 10
128.2437567425967
 20
1146.4982913068241
 30
0.0
 40
1.0
 50
270.00000000000063
 51
0.0
  0
LINE
  5
26D
  8
HID
 10
128.2437567425967
 20
1145.4982913068241
 30
0.0
 11
124.2437567425967
 21
1145.4982913068241
 31
0.0
  0
LINE
  5
26E
  8
DRG
 10
124.2437567425967
 20
1232.7675865669939
 30
0.0
 11
69.243756742596972
 21
1232.7675865669939
 31
0.0
  0
LINE
  5
26F
  8
DRG
 10
124.205663165278
 20
1188.9582913068241
 30
0.0
 11
65.743756742596972
 21
1188.9582913068241
 31
0.0
  0
LINE
  5
270
  8
DRG
 10
124.2437567425967
 20
1228.7675865669939
 30
0.0
 11
65.743756742596972
 21
1228.7675865669939
 31
0.0
  0
LINE
  5
271
  8
DRG2
 10
65.743756742596972
 20
1228.7675865669939
 30
0.0
 11
65.743756742596972
 21
1188.9582913068241
 31
0.0
  0
LINE
  5
272
  8
DRG
 10
64.243756742596972
 20
1227.2675865669939
 30
0.0
 11
64.243756742596972
 21
1190.4582913068241
 31
0.0
  0
LINE
  5
273
  8
DRG
 10
64.243756742596972
 20
1190.4582913068241
 30
0.0
 11
65.743756742596972
 21
1188.9582913068241
 31
0.0
  0
LINE
  5
274
  8
DRG
 10
69.243756742596972
 20
1232.7675865669939
 30
0.0
 11
69.243756742596972
 21
1228.7675865669939
 31
0.0
  0
LINE
  5
275
  8
DRG
 10
65.743756742596972
 20
1228.7675865669939
 30
0.0
 11
64.243756742596972
 21
1227.2675865669939
 31
0.0
  0
SOLID
  5
276
  8
DIM
 10
77.243711028311438
 20
1274.10091228128
 30
0.0
 11
77.243711028311438
 21
1271.4342608527079
 31
0.0
 12
69.243756742597199
 22
1272.7675865669939
 32
0.0
 13
69.243756742597199
 23
1272.7675865669939
 33
0.0
  0
SOLID
  5
277
  8
DIM
 10
56.249244396499918
 20
1274.1000052913439
 30
0.0
 11
56.249244396499918
 21
1271.433353862772
 31
0.0
 12
64.249198682214157
 22
1272.7666795770581
 32
0.0
 13
64.249198682214157
 23
1272.7666795770581
 33
0.0
  0
LINE
  5
278
  8
DIM
 10
75.243756742597199
 20
1272.7675865669939
 30
0.0
 11
115.5359878933224
 21
1272.7675865669939
 31
0.0
  0
ARC
  5
279
  8
DRG
 10
149.2437567425967
 20
1197.9582913068241
 30
0.0
 40
5.0
 50
90.0
 51
180.0
  0
ARC
  5
27A
  8
DRG
 10
149.2437567425967
 20
1219.9582913068241
 30
0.0
 40
5.0
 50
180.0
 51
270.0
  0
ARC
  5
27B
  8
DRG
 10
149.2437567425967
 20
1268.9582913068241
 30
0.0
 40
5.0
 50
180.0
 51
270.0
  0
LINE
  5
27C
  8
CRS
 10
148.04385569514389
 20
1267.298291306824
 30
0.0
 11
119.634607237026
 21
1267.298291306824
 31
0.0
  0
LINE
  5
27D
  8
HID
 10
144.2437567425967
 20
1257.048291306824
 30
0.0
 11
124.2437567425967
 21
1257.048291306824
 31
0.0
  0
LINE
  5
27E
  8
HID
 10
144.2437567425967
 20
1277.548291306824
 30
0.0
 11
124.2437567425967
 21
1277.548291306824
 31
0.0
  0
ARC
  5
27F
  8
HID
 10
128.2437567425967
 20
1271.4182913068239
 30
0.0
 40
1.0
 50
0.0
 51
90.0
  0
LINE
  5
280
  8
HID
 10
128.2437567425967
 20
1272.4182913068239
 30
0.0
 11
124.2437567425967
 21
1272.4182913068239
 31
0.0
  0
LINE
  5
281
  8
DRG
 10
144.2437567425967
 20
1313.9582913068241
 30
0.0
 11
124.2437567425967
 21
1313.9582913068241
 31
0.0
  0
LINE
  5
282
  8
DRG
 10
234.21875674259709
 20
1273.9582913068241
 30
0.0
 11
234.21875674259661
 21
1143.9582913068241
 31
0.0
  0
LINE
  5
283
  8
DRG
 10
217.96875674259709
 20
1268.9582913068241
 30
0.0
 11
217.96875674259709
 21
1148.9582913068241
 31
0.0
  0
ARC
  5
284
  8
DRG
 10
212.96875674259661
 20
1148.9582913068241
 30
0.0
 40
5.0
 50
0.0
 51
90.0
  0
LINE
  5
285
  8
DRG
 10
234.21875674259661
 20
1148.9582913068241
 30
0.0
 11
217.96875674259709
 21
1148.9582913068241
 31
0.0
  0
ARC
  5
286
  8
DRG
 10
212.96875674259709
 20
1268.9582913068241
 30
0.0
 40
5.0
 50
270.0
 51
0.0
  0
ARC
  5
287
  8
DRG
 10
212.96875674259709
 20
1197.9582913068241
 30
0.0
 40
5.0
 50
0.0
 51
90.0
  0
ARC
  5
288
  8
DRG
 10
212.96875674259709
 20
1219.9582913068241
 30
0.0
 40
5.0
 50
270.0
 51
0.0
  0
LINE
  5
289
  8
DRG
 10
234.21875674259709
 20
1268.9582913068241
 30
0.0
 11
217.96875674259709
 21
1268.9582913068241
 31
0.0
  0
TEXT
  5
28A
  8
DIM
 10
75.958984253371213
 20
1157.908785316901
 30
0.0
 40
7.0
  1
(0.20")
 72
     4
 11
93.625650920037884
 21
1160.908785316901
 31
0.0
  0
TEXT
  5
28B
  8
DIM
 10
34.743756742596972
 20
1180.2084950642179
 30
0.0
 40
7.0
  1
SEE TABLE
 50
90.0
 72
     4
 11
31.243756742596972
 21
1208.2084950642179
 31
0.0
  0
TEXT
  5
28C
  8
DIM
 10
171.56459007593051
 20
1357.4582913068241
 30
0.0
 40
7.0
  1
110
 72
     4
 11
179.23125674259711
 21
1360.9582913068241
 31
0.0
  0
TEXT
  5
28D
  8
DIM
 10
161.5144682667451
 20
1343.955962572456
 30
0.0
 40
7.0
  1
(4.33")
 72
     4
 11
179.1811349334117
 21
1346.955962572456
 31
0.0
  0
LINE
  5
28E
  8
DIM
 10
234.21875674259721
 20
1353.9582913068241
 30
0.0
 11
124.2437567425969
 21
1353.9582913068241
 31
0.0
  0
TEXT
  5
28F
  8
DIM
 10
76.5770900759303
 20
1343.9582913068241
 30
0.0
 40
7.0
  1
(2.36")
 72
     4
 11
94.243756742596986
 21
1346.9582913068241
 31
0.0
  0
LINE
  5
290
  8
DIM
 10
64.243756742596972
 20
1353.9582913068241
 30
0.0
 11
124.2437567425969
 21
1353.9582913068241
 31
0.0
  0
SOLID
  5
291
  8
DIM
 10
116.2438024568827
 20
1355.2916170211099
 30
0.0
 11
116.2438024568827
 21
1352.624965592538
 31
0.0
 12
124.2437567425969
 22
1353.9582913068241
 32
0.0
 13
124.2437567425969
 23
1353.9582913068241
 33
0.0
  0
SOLID
  5
292
  8
DIM
 10
132.2437110283112
 20
1355.2916170211099
 30
0.0
 11
132.2437110283112
 21
1352.624965592538
 31
0.0
 12
124.2437567425969
 22
1353.9582913068241
 32
0.0
 13
124.2437567425969
 23
1353.9582913068241
 33
0.0
  0
SOLID
  5
293
  8
DIM
 10
72.24371102831121
 20
1355.2916170211099
 30
0.0
 11
72.24371102831121
 21
1352.624965592538
 31
0.0
 12
64.243756742596972
 22
1353.9582913068241
 32
0.0
 13
64.243756742596972
 23
1353.9582913068241
 33
0.0
  0
SOLID
  5
294
  8
DIM
 10
226.2188024568826
 20
1355.2916170211099
 30
0.0
 11
226.2188024568826
 21
1352.624965592538
 31
0.0
 12
234.21875674259709
 22
1353.9582913068241
 32
0.0
 13
234.21875674259709
 23
1353.9582913068241
 33
0.0
  0
LINE
  5
295
  8
DIM
 10
64.205663165278025
 20
1262.1318657950021
 30
0.0
 11
64.205663165278025
 21
1356.262910078425
 31
0.0
  0
TEXT
  5
296
  8
DIM
 10
88.5770900759303
 20
1357.4582913068241
 30
0.0
 40
7.0
  1
60
 72
     4
 11
94.243756742596986
 21
1360.9582913068241
 31
0.0
  0
LINE
  5
297
  8
DRG
 10
290.21875674259502
 20
1282.9582913068241
 30
0.0
 11
290.21875674259502
 21
1171.911193048812
 31
0.0
  0
LINE
  5
298
  8
DRG
 10
253.21875674259499
 20
1282.9582913068241
 30
0.0
 11
253.21875674259499
 21
1119.5215254122541
 31
0.0
  0
LINE
  5
299
  8
DRG
 10
234.21875674259709
 20
1273.9582913068241
 30
0.0
 11
247.2187567425951
 21
1273.9582913068241
 31
0.0
  0
LINE
  5
29A
  8
DRG
 10
265.21875674259502
 20
1294.9582913068241
 30
0.0
 11
278.2187567425953
 21
1294.9582913068241
 31
0.0
  0
ARC
  5
29B
  8
DRG
 10
247.2187567425951
 20
1279.9582913068241
 30
0.0
 40
6.0
 50
269.99999999999937
 51
0.0
  0
ARC
  5
29C
  8
DRG
 10
265.21875674259502
 20
1282.9582913068241
 30
0.0
 40
12.0
 50
90.0
 51
179.99999999999949
  0
ARC
  5
29D
  8
DRG
 10
296.21875674259502
 20
1279.9582913068241
 30
0.0
 40
6.0
 50
180.0
 51
270.0
  0
LINE
  5
29E
  8
DRG
 10
296.21875674259502
 20
1273.9582913068241
 30
0.0
 11
309.21875674259547
 21
1273.9582913068241
 31
0.0
  0
ARC
  5
29F
  8
DRG
 10
278.21875674259502
 20
1282.9582913068241
 30
0.0
 40
12.0
 50
359.99999999999972
 51
90.0
  0
LINE
  5
2A0
  8
DRG
 10
234.21875674259661
 20
1143.9582913068241
 30
0.0
 11
247.21875674259391
 21
1143.9582913068241
 31
0.0
  0
ARC
  5
2A1
  8
DRG
 10
247.21875674259391
 20
1137.9582913068241
 30
0.0
 40
6.0
 50
359.99999999999932
 51
89.999999999999474
  0
LINE
  5
2A2
  8
DRG
 10
236.21875674259411
 20
1143.9582913068241
 30
0.0
 11
236.21875674259371
 21
1118.494277134108
 31
0.0
  0
ARC
  5
2A3
  8
DRG
 10
919.10321023557356
 20
493.06969885444488
 30
0.0
 40
76.200000000000102
 50
90.000000000000071
 51
269.99999999999977
  0
ARC
  5
2A4
  8
DRG2
 10
870.50321023557365
 20
610.39969885444475
 30
0.0
 40
7.9375
 50
66.754077086551192
 51
19.927453061254639
  0
CIRCLE
  5
2A5
  8
DRG2
 10
870.50321023557365
 20
610.39969885444475
 30
0.0
 40
6.8135500000000002
  0
ARC
  5
2A6
  8
DRG2
 10
801.77298203328985
 20
541.66914792539615
 30
0.0
 40
7.9375
 50
66.754077086551192
 51
19.927453061254639
  0
CIRCLE
  5
2A7
  8
DRG2
 10
801.77298203328985
 20
541.66914792539615
 30
0.0
 40
6.8135500000000002
  0
ARC
  5
2A8
  8
DRG2
 10
801.77321023557363
 20
444.46969885444491
 30
0.0
 40
7.9375
 50
66.754077086551192
 51
19.927453061254639
  0
CIRCLE
  5
2A9
  8
DRG2
 10
801.77321023557363
 20
444.46969885444491
 30
0.0
 40
6.8135500000000002
  0
ARC
  5
2AA
  8
DRG2
 10
870.50376116462235
 20
375.73947065216117
 30
0.0
 40
7.9375
 50
66.754077086551192
 51
19.927453061254639
  0
CIRCLE
  5
2AB
  8
DRG2
 10
870.50376116462235
 20
375.73947065216117
 30
0.0
 40
6.8135500000000002
  0
TEXT
  5
2AC
  8
DIM
 10
564.91679022812514
 20
773.81612481279853
 30
0.0
 40
7.0
  1

  0
TEXT
  5
2AD
  8
DIM
 10
1035.7953938264191
 20
851.25303218777833
 30
0.0
 40
7.0
  1
(3.39")
 50
90.0
 72
     4
 11
1032.7953938264191
 21
868.91969885444496
 31
0.0
  0
TEXT
  5
2AE
  8
DIM
 10
1035.7953938264191
 20
642.99469885444489
 30
0.0
 40
7.0
  1
(13.10")
 50
90.0
 72
     4
 11
1032.7953938264191
 21
662.66136552111152
 31
0.0
  0
ARC
  5
2AF
  8
DIM
 10
919.10321023557367
 20
493.06969885444488
 30
0.0
 40
150.0
 50
162.40690620144889
 51
171.25866008540939
  0
LINE
  5
2B0
  8
DIM
 10
734.49938501667089
 20
527.23030446617292
 30
0.0
 11
679.16475067159854
 21
527.23030446617292
 31
0.0
  0
TEXT
  5
2B1
  8
DIM
 10
677.75917795150565
 20
516.38673626363186
 30
0.0
 40
7.0
  1
(%%c11.81")
 50
359.99999999999989
 72
     4
 11
699.92584461817228
 21
519.38673626363197
 31
0.0
  0
TEXT
  5
2B2
  8
DIM
 10
687.75917795150565
 20
531.57387266871353
 30
0.0
 40
7.0
  1
%%C300
 50
0.0000000000000799
 72
     4
 11
699.92584461817228
 21
535.07387266871353
 31
0.0
  0
TEXT
  5
2B3
  8
DIM
 10
852.15428053683161
 20
264.44170805294073
 30
0.0
 40
7.0
  1
(%%c12.99")
 72
     4
 11
875.65428053683149
 21
267.44170805294073
 31
0.0
  0
TEXT
  5
2B4
  8
DIM
 10
365.11403592916128
 20
213.9599464330432
 30
0.0
 40
7.0
  1
(7.45")
 72
     4
 11
382.78070259582802
 21
216.9599464330432
 31
0.0
  0
TEXT
  5
2B5
  8
DIM
 10
397.79976855085869
 20
264.44170805294073
 30
0.0
 40
7.0
  1
(4.35")
 72
     4
 11
415.46643521752537
 21
267.44170805294073
 31
0.0
  0
TEXT
  5
2B6
  8
DIM
 10
489.92071422182761
 20
264.44170805294073
 30
0.0
 40
7.0
  1
(0.20")
 72
     4
 11
507.58738088849429
 21
267.44170805294073
 31
0.0
  0
TEXT
  5
2B7
  8
DIM
 10
394.59904631390089
 20
506.38845344009928
 30
0.0
 40
7.0
  1
(3.78")
 72
     4
 11
412.26571298056751
 21
509.38845344009928
 31
0.0
  0
TEXT
  5
2B8
  8
DIM
 10
370.3616974440875
 20
993.98455862370406
 30
0.0
 40
7.0
  1
(7.06")
 72
     4
 11
388.02836411075418
 21
996.98455862370395
 31
0.0
  0
TEXT
  5
2B9
  8
DIM
 10
192.36403592916099
 20
993.98455862370406
 30
0.0
 40
7.0
  1
(6.69")
 72
     4
 11
210.03070259582771
 21
996.98455862370395
 31
0.0
  0
TEXT
  5
2BA
  8
DIM
 10
78.394181510447453
 20
944.96409717125891
 30
0.0
 40
7.0
  1
(0.20")
 72
     4
 11
96.060848177114124
 21
947.96409717125914
 31
0.0
  0
TEXT
  5
2BB
  8
DIM
 10
231.5236755293121
 20
944.96409717125891
 30
0.0
 40
7.0
  1
(0.59")
 72
     4
 11
249.19034219597879
 21
947.96409717125914
 31
0.0
  0
TEXT
  5
2BC
  8
DIM
 10
411.76930837039009
 20
944.96409717125891
 30
0.0
 40
7.0
  1
(3.52")
 72
     4
 11
429.43597503705678
 21
947.96409717125914
 31
0.0
  0
TEXT
  5
2BD
  8
DIM
 10
408.1949427708293
 20
909.13683184528497
 30
0.0
 40
7.0
  1
(0.47")
 72
     4
 11
425.86160943749599
 21
912.13683184528497
 31
0.0
  0
TEXT
  5
2BE
  8
DIM
 10
205.81460040871761
 20
910.72644139318129
 30
0.0
 40
7.0
  1
8x7x55
 72
     4
 11
223.81460040871761
 21
914.2264413931814
 31
0.0
  0
TEXT
  5
2BF
  8
DIM
 10
173.48126707538421
 20
899.22644139318129
 30
0.0
 40
7.0
  1
(0.31"x0.28"x2.17")
 72
     4
 11
223.81460040871761
 21
902.2264413931814
 31
0.0
  0
TEXT
  5
2C0
  8
DIM
 10
214.4812670753843
 20
886.72644139318129
 30
0.0
 40
7.0
  1
KEY
 72
     4
 11
223.81460040871761
 21
890.22644139318129
 31
0.0
  0
LINE
  5
2C1
  8
DIM
 10
159.78480877346169
 20
851.72880535439799
 30
0.0
 11
148.55120930631179
 21
902.2264413931814
 31
0.0
  0
SOLID
  5
2C2
  8
DIM
 10
158.48329102346949
 20
851.43927241286451
 30
0.0
 11
161.08632652345389
 21
852.01833829593124
 31
0.0
 12
161.52200642266291
 22
843.91969885444485
 32
0.0
 13
161.52200642266291
 23
843.91969885444485
 33
0.0
  0
LINE
  5
2C3
  8
DIM
 10
169.33869002972281
 20
902.2264413931814
 30
0.0
 11
148.55120930631179
 21
902.2264413931814
 31
0.0
  0
TEXT
  5
2C4
  8
DIM
 10
139.8640359291611
 20
704.34622149748429
 30
0.0
 40
7.0
  1
(2.56")
 72
     4
 11
157.53070259582771
 21
707.34622149748429
 31
0.0
  0
TEXT
  5
2C5
  8
DIM
 10
484.3173104822888
 20
720.72553818980725
 30
0.0
 40
7.0
  1
(1.73")
 72
     4
 11
501.3173104822888
 21
723.72553818980725
 31
0.0
  0
LINE
  5
2C6
  8
DIM
 10
520.66885381688485
 20
731.72553818980714
 30
0.0
 11
430.53070259582779
 21
731.72553818980714
 31
0.0
  0
TEXT
  5
2C7
  8
DIM
 10
217.63210303042891
 20
450.40303218777831
 30
0.0
 40
7.0
  1
B.S.P. OR N.P.T.
 50
90.0
 72
     4
 11
214.13210303042891
 21
493.06969885444488
 31
0.0
  0
TEXT
  5
2C8
  8
DIM
 10
79.325955096905318
 20
1263.7714370332731
 30
0.0
 40
7.0
  1
(0.20")
 72
     4
 11
96.992621763572004
 21
1266.7714370332731
 31
0.0
  0
LINE
  5
2C9
  8
DIM
 10
118.326977563602
 20
1313.9582913068241
 30
0.0
 11
67.865012715851364
 21
1313.9582913068241
 31
0.0
  0
LINE
  5
2CA
  8
DIM
 10
120.29303127984051
 20
1103.9582913068241
 30
0.0
 11
22.276088465526229
 21
1103.9582913068241
 31
0.0
  0
LINE
  5
2CB
  8
DIM
 10
69.205663165278267
 20
1238.9802743017119
 30
0.0
 11
69.205663165278267
 21
1274.7675865669939
 31
0.0
  0
LINE
  5
2CC
  8
DIM
 10
64.205663165278025
 20
1231.7754106154759
 30
0.0
 11
64.205663165278025
 21
1307.5750813898719
 31
0.0
  0
LINE
  5
2CD
  8
DIM
 10
234.21875674259709
 20
1277.6245534142511
 30
0.0
 11
234.21875674259709
 21
1355.887889572457
 31
0.0
  0
LINE
  5
2CE
  8
DIM
 10
124.2437567425969
 20
1318.233790957453
 30
0.0
 11
124.2437567425969
 21
1355.9582913068241
 31
0.0
  0
LINE
  5
2CF
  8
DIM
 10
60.000813958038222
 20
1313.9582913068241
 30
0.0
 11
21.917035494238391
 21
1313.9582913068241
 31
0.0
  0
LINE
  5
2D0
  8
DRG2
 10
322.0
 20
1327.5304823000899
 30
0.0
 11
1050.0
 21
1327.5304823000911
 31
0.0
  0
LINE
  5
2D1
  8
DRG2
 10
322.0
 20
1305.130482300091
 30
0.0
 11
1050.0
 21
1305.130482300091
 31
0.0
  0
LINE
  5
2D2
  8
DRG2
 10
322.0
 20
1230.9304823000909
 30
0.0
 11
1050.0
 21
1230.9304823000909
 31
0.0
  0
LINE
  5
2D3
  8
DRG2
 10
322.0
 20
1268.0304823000899
 30
0.0
 11
1050.0
 21
1268.0304823000911
 31
0.0
  0
LINE
  5
2D4
  8
DRG2
 10
322.0
 20
1193.830482300091
 30
0.0
 11
1050.0
 21
1193.830482300091
 31
0.0
  0
LINE
  5
2D5
  8
DRG2
 10
322.0
 20
1193.830482300091
 30
0.0
 11
1050.0
 21
1193.830482300091
 31
0.0
  0
LINE
  5
2D6
  8
DRG2
 10
322.0
 20
1156.7304823000909
 30
0.0
 11
1050.0
 21
1156.7304823000909
 31
0.0
  0
TEXT
  5
2D7
  8
TXT
 10
969.0
 20
1216.2304823000909
 30
0.0
 40
7.0
  1
8x7x55
 72
     4
 11
987.0
 21
1219.7304823000909
 31
0.0
  0
TEXT
  5
2D8
  8
TXT
 10
936.66666666666674
 20
1202.0304823000911
 30
0.0
 40
7.0
  1
(0.31"x0.28"x2.17")
 72
     4
 11
987.0
 21
1205.0304823000911
 31
0.0
  0
TEXT
  5
2D9
  8
TXT
 10
966.33333333333326
 20
1179.130482300091
 30
0.0
 40
7.0
  1
12x8x55
 72
     4
 11
987.0
 21
1182.630482300091
 31
0.0
  0
TEXT
  5
2DA
  8
TXT
 10
936.66666666666674
 20
1164.9304823000909
 30
0.0
 40
7.0
  1
(0.47"x0.31"x2.17")
 72
     4
 11
987.0
 21
1167.9304823000909
 31
0.0
  0
TEXT
  5
2DB
  8
TXT
 10
936.66666666666674
 20
1127.830482300091
 30
0.0
 40
7.0
  1
(0.47"x0.31"x2.17")
 72
     4
 11
987.0
 21
1130.830482300091
 31
0.0
  0
TEXT
  5
2DC
  8
TXT
 10
966.33333333333326
 20
1142.0304823000911
 30
0.0
 40
7.0
  1
12x8x55
 72
     4
 11
987.0
 21
1145.5304823000911
 31
0.0
  0
TEXT
  5
2DD
  8
TXT
 10
967.16666666666663
 20
1275.7304823000909
 30
0.0
 40
7.0
  1
DETAILS
 72
     4
 11
987.0
 21
1279.2304823000909
 31
0.0
  0
TEXT
  5
2DE
  8
TXT
 10
969.0
 20
1253.330482300091
 30
0.0
 40
7.0
  1
8x7x55
 72
     4
 11
987.0
 21
1256.830482300091
 31
0.0
  0
TEXT
  5
2DF
  8
TXT
 10
936.66666666666674
 20
1239.130482300091
 30
0.0
 40
7.0
  1
(0.31"x0.28"x2.17")
 72
     4
 11
987.0
 21
1242.130482300091
 31
0.0
  0
TEXT
  5
2E0
  8
TXT
 10
337.66666666666657
 20
1171.7804823000911
 30
0.0
 40
7.0
  1
ISO F16
 72
     4
 11
357.0
 21
1175.2804823000911
 31
0.0
  0
TEXT
  5
2E1
  8
TXT
 10
337.33333333333331
 20
1245.9804823000909
 30
0.0
 40
7.0
  1
ISO F14
 72
     4
 11
357.0
 21
1249.4804823000909
 31
0.0
  0
TEXT
  5
2E2
  8
TXT
 10
345.16666666666669
 20
1208.880482300091
 30
0.0
 40
7.0
  1
FA14
 72
     4
 11
357.0
 21
1212.380482300091
 31
0.0
  0
LINE
  5
2E3
  8
DRG2
 10
322.0
 20
1119.630482300091
 30
0.0
 11
322.0
 21
1327.5304823000899
 31
0.0
  0
TEXT
  5
2E4
  8
TXT
 10
345.5
 20
1134.6804823000909
 30
0.0
 40
7.0
  1
FA16
 72
     4
 11
357.0
 21
1138.1804823000909
 31
0.0
  0
LINE
  5
2E5
  8
DRG2
 10
924.00000000000045
 20
1119.630482300091
 30
0.0
 11
924.00000000000045
 21
1305.130482300091
 31
0.0
  0
LINE
  5
2E6
  8
DRG2
 10
756.00000000000045
 20
1119.630482300091
 30
0.0
 11
756.0
 21
1305.130482300091
 31
0.0
  0
TEXT
  5
2E7
  8
TXT
 10
775.50000000000045
 20
1216.7304823000909
 30
0.0
 40
7.0
  1
4 HOLES %%c16.5 (%%c0.65")
 72
     4
 11
840.00000000000034
 21
1219.7304823000909
 31
0.0
  0
LINE
  5
2E8
  8
DRG2
 10
630.0
 20
1119.630482300091
 30
0.0
 11
630.0
 21
1305.130482300091
 31
0.0
  0
TEXT
  5
2E9
  8
TXT
 10
411.5
 20
1216.7304823000909
 30
0.0
 40
7.0
  1
%%c175 (%%c6.89")
 72
     4
 11
448.0
 21
1219.7304823000909
 31
0.0
  0
LINE
  5
2EA
  8
DRG2
 10
392.0
 20
1119.630482300091
 30
0.0
 11
392.0
 21
1305.130482300091
 31
0.0
  0
LINE
  5
2EB
  8
DRG2
 10
504.0
 20
1119.630482300091
 30
0.0
 11
504.0
 21
1305.130482300091
 31
0.0
  0
TEXT
  5
2EC
  8
TXT
 10
640.16666666666663
 20
1202.0304823000911
 30
0.0
 40
7.0
  1
(%%c3.751" +0.002") 
 72
     4
 11
693.0
 21
1205.0304823000911
 31
0.0
  0
TEXT
  5
2ED
  8
TXT
 10
654.0
 20
1179.130482300091
 30
0.0
 40
7.0
  1
%%c130.05 +0.05
 72
     4
 11
693.0
 21
1182.630482300091
 31
0.0
  0
TEXT
  5
2EE
  8
TXT
 10
640.16666666666663
 20
1164.9304823000909
 30
0.0
 40
7.0
  1
(%%c5.120" +0.002") 
 72
     4
 11
693.0
 21
1167.9304823000909
 31
0.0
  0
TEXT
  5
2EF
  8
TXT
 10
654.0
 20
1142.0304823000911
 30
0.0
 40
7.0
  1
%%c126.92 +0.05
 72
     4
 11
693.0
 21
1145.5304823000911
 31
0.0
  0
TEXT
  5
2F0
  8
TXT
 10
639.5
 20
1127.830482300091
 30
0.0
 40
7.0
  1
(%%c4.997" +0.002") 
 72
     4
 11
693.0
 21
1130.830482300091
 31
0.0
  0
TEXT
  5
2F1
  8
TXT
 10
519.83333333333314
 20
1202.0304823000911
 30
0.0
 40
7.0
  1
(%%c1.181" -0.002")
 72
     4
 11
567.0
 21
1205.0304823000911
 31
0.0
  0
TEXT
  5
2F2
  8
TXT
 10
530.66666666666663
 20
1179.130482300091
 30
0.0
 40
7.0
  1
%%c40.00 -0.05
 72
     4
 11
567.0
 21
1182.630482300091
 31
0.0
  0
TEXT
  5
2F3
  8
TXT
 10
518.5
 20
1164.9304823000909
 30
0.0
 40
7.0
  1
(%%c1.575" -0.002")
 72
     4
 11
567.0
 21
1167.9304823000909
 31
0.0
  0
TEXT
  5
2F4
  8
TXT
 10
530.66666666666663
 20
1142.0304823000911
 30
0.0
 40
7.0
  1
%%c40.00 -0.05
 72
     4
 11
567.0
 21
1145.5304823000911
 31
0.0
  0
TEXT
  5
2F5
  8
TXT
 10
518.5
 20
1127.830482300091
 30
0.0
 40
7.0
  1
(%%c1.575" -0.002")
 72
     4
 11
567.0
 21
1130.830482300091
 31
0.0
  0
TEXT
  5
2F6
  8
TXT
 10
415.16666666666669
 20
1202.0304823000911
 30
0.0
 40
7.0
  1
x 15 (0.59")
 72
     4
 11
448.0
 21
1205.0304823000911
 31
0.0
  0
TEXT
  5
2F7
  8
TXT
 10
411.5
 20
1179.630482300091
 30
0.0
 40
7.0
  1
%%c210 (%%c8.27")
 72
     4
 11
448.0
 21
1182.630482300091
 31
0.0
  0
TEXT
  5
2F8
  8
TXT
 10
414.5
 20
1164.9304823000909
 30
0.0
 40
7.0
  1
x 20 (0.79")
 72
     4
 11
448.0
 21
1167.9304823000909
 31
0.0
  0
TEXT
  5
2F9
  8
TXT
 10
411.5
 20
1142.5304823000911
 30
0.0
 40
7.0
  1
%%c210 (%%c8.27")
 72
     4
 11
448.0
 21
1145.5304823000911
 31
0.0
  0
TEXT
  5
2FA
  8
TXT
 10
414.5
 20
1127.830482300091
 30
0.0
 40
7.0
  1
x 20 (0.79")
 72
     4
 11
448.0
 21
1130.830482300091
 31
0.0
  0
TEXT
  5
2FB
  8
TXT
 10
775.33333333333371
 20
1202.0304823000911
 30
0.0
 40
7.0
  1
ON %%c140.0 (%%c5.51") P.C.
 72
     4
 11
840.00000000000034
 21
1205.0304823000911
 31
0.0
  0
TEXT
  5
2FC
  8
TXT
 10
774.66666666666697
 20
1164.9304823000909
 30
0.0
 40
7.0
  1
ON %%c165.0 (%%c6.50") P.C.
 72
     4
 11
840.00000000000034
 21
1167.9304823000909
 31
0.0
  0
TEXT
  5
2FD
  8
TXT
 10
775.50000000000045
 20
1142.5304823000911
 30
0.0
 40
7.0
  1
4 HOLES %%c20.5 (%%c0.81")
 72
     4
 11
840.00000000000034
 21
1145.5304823000911
 31
0.0
  0
TEXT
  5
2FE
  8
TXT
 10
775.50000000000045
 20
1179.630482300091
 30
0.0
 40
7.0
  1
4 HOLES %%c20.5 (%%c0.81")
 72
     4
 11
840.00000000000034
 21
1182.630482300091
 31
0.0
  0
TEXT
  5
2FF
  8
TXT
 10
774.66666666666697
 20
1127.830482300091
 30
0.0
 40
7.0
  1
ON %%c165.0 (%%c6.50") P.C.
 72
     4
 11
840.00000000000034
 21
1130.830482300091
 31
0.0
  0
TEXT
  5
300
  8
TXT
 10
624.83333333333326
 20
1312.830482300091
 30
0.0
 40
7.0
  1
INPUT FLANGE DETAILS
 72
     4
 11
686.0
 21
1316.330482300091
 31
0.0
  0
TEXT
  5
301
  8
TXT
 10
639.5
 20
1239.130482300091
 30
0.0
 40
7.0
  1
(%%c3.939" +0.002") 
 72
     4
 11
693.0
 21
1242.130482300091
 31
0.0
  0
TEXT
  5
302
  8
TXT
 10
656.66666666666663
 20
1216.2304823000909
 30
0.0
 40
7.0
  1
%%c95.27 +0.05
 72
     4
 11
693.0
 21
1219.7304823000909
 31
0.0
  0
TEXT
  5
303
  8
TXT
 10
654.0
 20
1253.330482300091
 30
0.0
 40
7.0
  1
%%c100.05 +0.05
 72
     4
 11
693.0
 21
1256.830482300091
 31
0.0
  0
TEXT
  5
304
  8
TXT
 10
674.0
 20
1290.4304823000909
 30
0.0
 40
7.0
  1
RECESS
 72
     4
 11
693.0
 21
1293.9304823000909
 31
0.0
  0
TEXT
  5
305
  8
TXT
 10
684.16666666666663
 20
1275.7304823000909
 30
0.0
 40
7.0
  1
DIA.
 72
     4
 11
693.0
 21
1279.2304823000909
 31
0.0
  0
TEXT
  5
306
  8
TXT
 10
519.83333333333314
 20
1239.130482300091
 30
0.0
 40
7.0
  1
(%%c1.181" -0.002")
 72
     4
 11
567.0
 21
1242.130482300091
 31
0.0
  0
TEXT
  5
307
  8
TXT
 10
530.66666666666663
 20
1216.2304823000909
 30
0.0
 40
7.0
  1
%%c30.00 -0.05
 72
     4
 11
567.0
 21
1219.7304823000909
 31
0.0
  0
TEXT
  5
308
  8
TXT
 10
530.66666666666663
 20
1253.330482300091
 30
0.0
 40
7.0
  1
%%c30.00 -0.05
 72
     4
 11
567.0
 21
1256.830482300091
 31
0.0
  0
TEXT
  5
309
  8
TXT
 10
408.8333333333332
 20
1290.93048230009
 30
0.0
 40
7.0
  1
FLANGE O/DIA.
 72
     4
 11
448.0
 21
1293.9304823000909
 31
0.0
  0
TEXT
  5
30A
  8
TXT
 10
413.0
 20
1275.7304823000909
 30
0.0
 40
7.0
  1
& THICKNESS
 72
     4
 11
448.0
 21
1279.2304823000909
 31
0.0
  0
TEXT
  5
30B
  8
TXT
 10
415.16666666666669
 20
1239.130482300091
 30
0.0
 40
7.0
  1
x 15 (0.59")
 72
     4
 11
448.0
 21
1242.130482300091
 31
0.0
  0
TEXT
  5
30C
  8
TXT
 10
411.5
 20
1253.830482300091
 30
0.0
 40
7.0
  1
%%c175 (%%c6.89")
 72
     4
 11
448.0
 21
1256.830482300091
 31
0.0
  0
TEXT
  5
30D
  8
TXT
 10
558.16666666666663
 20
1275.7304823000909
 30
0.0
 40
7.0
  1
DIA.
 72
     4
 11
567.0
 21
1279.2304823000909
 31
0.0
  0
TEXT
  5
30E
  8
TXT
 10
551.0
 20
1290.4304823000909
 30
0.0
 40
7.0
  1
SHAFT
 72
     4
 11
567.0
 21
1293.9304823000909
 31
0.0
  0
TEXT
  5
30F
  8
TXT
 10
775.33333333333371
 20
1239.130482300091
 30
0.0
 40
7.0
  1
ON %%c140.0 (%%c5.51") P.C.
 72
     4
 11
840.00000000000034
 21
1242.130482300091
 31
0.0
  0
TEXT
  5
310
  8
TXT
 10
775.50000000000045
 20
1253.830482300091
 30
0.0
 40
7.0
  1
4 HOLES %%c16.5 (%%c0.65")
 72
     4
 11
840.00000000000034
 21
1256.830482300091
 31
0.0
  0
TEXT
  5
311
  8
TXT
 10
789.16666666666708
 20
1276.23048230009
 30
0.0
 40
7.0
  1
(45%%d OFF CENTRES)
 72
     4
 11
840.00000000000034
 21
1279.2304823000909
 31
0.0
  0
TEXT
  5
312
  8
TXT
 10
803.66666666666697
 20
1290.4304823000909
 30
0.0
 40
7.0
  1
HOLE DETAILS
 72
     4
 11
840.00000000000034
 21
1293.9304823000909
 31
0.0
  0
TEXT
  5
313
  8
TXT
 10
977.66666666666674
 20
1290.4304823000909
 30
0.0
 40
7.0
  1
KEY
 72
     4
 11
987.0
 21
1293.9304823000909
 31
0.0
  0
LINE
  5
314
  8
DRG2
 10
1050.0
 20
1119.630482300091
 30
0.0
 11
1050.0
 21
1327.5304823000911
 31
0.0
  0
LINE
  5
315
  8
DRG2
 10
322.0
 20
1119.630482300091
 30
0.0
 11
1050.0
 21
1119.630482300091
 31
0.0
  0
LINE
  5
316
  8
DRG2
 10
593.68060961452125
 20
244.89780557959389
 30
0.0
 11
1013.68060961452
 21
244.89780557959389
 31
0.0
  0
LINE
  5
317
  8
DRG2
 10
593.68060961452125
 20
125.89780557959391
 30
0.0
 11
1013.68060961452
 21
125.89780557959391
 31
0.0
  0
LINE
  5
318
  8
DRG2
 10
593.68060961452125
 20
162.99780557959389
 30
0.0
 11
1013.68060961452
 21
162.99780557959389
 31
0.0
  0
LINE
  5
319
  8
DRG2
 10
593.68060961452125
 20
200.09780557959391
 30
0.0
 11
1013.68060961452
 21
200.09780557959391
 31
0.0
  0
LINE
  5
31A
  8
DRG2
 10
593.68060961452125
 20
222.49780557959389
 30
0.0
 11
1013.68060961452
 21
222.49780557959389
 31
0.0
  0
TEXT
  5
31B
  8
TXT
 10
680.18060961452125
 20
134.09780557959391
 30
0.0
 40
7.0
  1
(%%c5.994" -0.002") 
 72
     4
 11
733.68060961452125
 21
137.09780557959391
 31
0.0
  0
TEXT
  5
31C
  8
TXT
 10
680.18060961452125
 20
171.1978055795939
 30
0.0
 40
7.0
  1
(%%c7.872" -0.002") 
 72
     4
 11
733.68060961452125
 21
174.1978055795939
 31
0.0
  0
LINE
  5
31D
  8
DRG2
 10
663.68060961452125
 20
125.89780557959401
 30
0.0
 11
663.68060961452125
 21
222.49780557959389
 31
0.0
  0
LINE
  5
31E
  8
DRG2
 10
593.68060961452125
 20
125.89780557959391
 30
0.0
 11
593.68060961452125
 21
244.89780557959389
 31
0.0
  0
TEXT
  5
31F
  8
TXT
 10
616.34727628118787
 20
140.9478055795939
 30
0.0
 40
7.0
  1
FA25
 72
     4
 11
628.68060961452125
 21
144.4478055795939
 31
0.0
  0
TEXT
  5
320
  8
TXT
 10
608.5139429478545
 20
178.0478055795939
 30
0.0
 40
7.0
  1
ISO F25
 72
     4
 11
628.68060961452125
 21
181.5478055795939
 31
0.0
  0
TEXT
  5
321
  8
TXT
 10
750.84727628118685
 20
230.1978055795939
 30
0.0
 40
7.0
  1
BASEPLATE DETAILS
 72
     4
 11
803.68060961452045
 21
233.6978055795939
 31
0.0
  0
TEXT
  5
322
  8
TXT
 10
840.01394294785348
 20
134.09780557959391
 30
0.0
 40
7.0
  1
ON %%c254.0 (%%c10.00") P.C.
 72
     4
 11
908.68060961452034
 21
137.09780557959391
 31
0.0
  0
TEXT
  5
323
  8
TXT
 10
811.84727628118685
 20
148.7978055795939
 30
0.0
 40
7.0
  1
8 HOLES 5/8"UNCx20 (0.79") DEEP
 72
     4
 11
908.68060961452034
 21
151.7978055795939
 31
0.0
  0
TEXT
  5
324
  8
TXT
 10
840.01394294785348
 20
171.1978055795939
 30
0.0
 40
7.0
  1
ON %%c254.0 (%%c10.00") P.C.
 72
     4
 11
908.68060961452034
 21
174.1978055795939
 31
0.0
  0
TEXT
  5
325
  8
TXT
 10
825.51394294785359
 20
185.89780557959389
 30
0.0
 40
7.0
  1
8 HOLES M16x20 (0.79") DEEP
 72
     4
 11
908.68060961452034
 21
188.89780557959389
 31
0.0
  0
TEXT
  5
326
  8
TXT
 10
812.34727628118696
 20
208.2978055795939
 30
0.0
 40
7.0
  1
HOLE DETAILS (22.5%%d OFF CENTRES)
 72
     4
 11
908.68060961452034
 21
211.2978055795939
 31
0.0
  0
LINE
  5
327
  8
DRG2
 10
803.68060961452125
 20
125.89780557959411
 30
0.0
 11
803.68060961452125
 21
222.49780557959389
 31
0.0
  0
TEXT
  5
328
  8
TXT
 10
694.68060961452125
 20
148.2978055795939
 30
0.0
 40
7.0
  1
%%c152.25 -0.05
 72
     4
 11
733.68060961452125
 21
151.7978055795939
 31
0.0
  0
TEXT
  5
329
  8
TXT
 10
694.68060961452125
 20
185.39780557959389
 30
0.0
 40
7.0
  1
%%c199.95 -0.05
 72
     4
 11
733.68060961452125
 21
188.89780557959389
 31
0.0
  0
TEXT
  5
32A
  8
TXT
 10
703.34727628118787
 20
207.7978055795939
 30
0.0
 40
7.0
  1
SPIGOT DIA.
 72
     4
 11
733.68060961452125
 21
211.2978055795939
 31
0.0
  0
LINE
  5
32B
  8
DRG2
 10
1013.68060961452
 20
125.8978055795943
 30
0.0
 11
1013.68060961452
 21
244.89780557959429
 31
0.0
  0
TEXT
  5
32C
  8
BORT
 10
18.766666666666659
 20
163.09999999999999
 30
0.0
 40
7.0
  1
1
 72
     4
 11
19.599999999999991
 21
166.59999999999991
 31
0.0
  0
TEXT
  5
32D
  8
BORT
 10
77.299999999999983
 20
163.09999999999999
 30
0.0
 40
7.0
  1
CN914 JMO 17.6.97
 72
     4
 11
128.7999999999999
 21
166.59999999999991
 31
0.0
  0
LINE
  5
32E
  8
BORT
 39
2.52
 10
218.39999999999989
 20
176.39999999999989
 30
0.0
 11
0.0
 21
176.39999999999989
 31
0.0
  0
INSERT
  5
527
  8
0
  2
ROTORK_GEARS_LOGO
 10
-6.2877074545442886
 20
-3.7601708751545568
 30
0.0
 41
1.050000000000014
 42
1.050000000000014
 43
1.05
  0
VIEWPORT
  5
30
 67
     1
  8
0
 10
210.00000022409631
 20
152.0942409999999
 30
0.0
 40
420.00000044819268
 41
304.18848199999991
 68
     1
 69
     1
1001
ACAD
1000
MVIEW
1002
{
1070
    16
1010
0.0
1020
0.0
1030
0.0
1010
0.0
1020
0.0
1030
1.0
1040
0.0
1040
304.18848199999991
1040
210.00000022409631
1040
152.0942409999999
1040
50.0
1040
0.0
1040
0.0
1070
     0
1070
  2000
1070
     1
1070
     1
1070
     1
1070
     0
1070
     0
1070
     1
1040
0.0
1040
0.0
1040
0.0
1040
5.0
1040
5.0
1040
10.0
1040
10.0
1070
     0
1002
{
1002
}
1002
}
  0
ENDSEC
  0
EOF
